0
SECTION
2
HEADER
9
$INSUNITS
70
4
9
$ACADVER
1
AC1014
9
$HANDSEED
5
FFFF
0
ENDSEC
0
SECTION
2
TABLES
0
TABLE
2
VPORT
5
8
100
AcDbSymbolTable
0
ENDTAB
0
TABLE
2
LTYPE
5
5
100
AcDbSymbolTable
0
LTYPE
5
14
100
AcDbSymbolTableRecord
100
AcDbLinetypeTableRecord
2
BYBLOCK
70
0
0
LTYPE
5
15
100
AcDbSymbolTableRecord
100
AcDbLinetypeTableRecord
2
BYLAYER
70
0
0
ENDTAB
0
TABLE
2
LAYER
5
2
100
AcDbSymbolTable
70
2
0
LAYER
5
50
100
AcDbSymbolTableRecord
100
AcDbLayerTableRecord
2
0
70
0
6
CONTINUOUS
0
ENDTAB
0
TABLE
2
STYLE
5
3
100
AcDbSymbolTable
70
1
0
STYLE
5
11
100
AcDbSymbolTableRecord
100
AcDbTextStyleTableRecord
2
STANDARD
70
0
0
ENDTAB
0
TABLE
2
VIEW
5
6
100
AcDbSymbolTable
70
0
0
ENDTAB
0
TABLE
2
UCS
5
7
100
AcDbSymbolTable
70
0
0
ENDTAB
0
TABLE
2
APPID
5
9
100
AcDbSymbolTable
70
2
0
APPID
5
12
100
AcDbSymbolTableRecord
100
AcDbRegAppTableRecord
2
ACAD
70
0
0
ENDTAB
0
TABLE
2
DIMSTYLE
5
A
100
AcDbSymbolTable
70
1
0
ENDTAB
0
TABLE
2
BLOCK_RECORD
5
1
100
AcDbSymbolTable
70
1
0
BLOCK_RECORD
5
1F
100
AcDbSymbolTableRecord
100
AcDbBlockTableRecord
2
*MODEL_SPACE
0
BLOCK_RECORD
5
1B
100
AcDbSymbolTableRecord
100
AcDbBlockTableRecord
2
*PAPER_SPACE
0
ENDTAB
0
ENDSEC
0
SECTION
2
BLOCKS
0
BLOCK
5
20
100
AcDbEntity
100
AcDbBlockBegin
2
*MODEL_SPACE
0
ENDBLK
5
21
100
AcDbEntity
100
AcDbBlockEnd
0
BLOCK
5
1C
100
AcDbEntity
100
AcDbBlockBegin
2
*PAPER_SPACE
0
ENDBLK
5
1D
100
AcDbEntity
100
AcDbBlockEnd
0
ENDSEC
0
SECTION
2
ENTITIES
0
LWPOLYLINE
5
100
100
AcDbEntity
8
0
100
AcDbPolyline
90
28
70
1
43
0.0
10
-88.000001311302185
20
-101.28863134757239
10
-91.000001356005669
20
-101.28863134757239
10
-91.000001356005669
20
-125.28863170520026
10
-85.000001266598701
20
-125.28863170520026
10
-85.000001266598701
20
-140.28863192871768
10
-88.000001311302185
20
-140.28863192871768
10
-88.000001311302185
20
-136.28863186911303
10
-91.000001356005669
20
-136.28863186911303
10
-91.000001356005669
20
-140.28863192871768
10
-142.00000211596489
20
-140.28863192871768
10
-142.00000211596489
20
-136.28863186911303
10
-145.00000216066837
20
-136.28863186911303
10
-145.00000216066837
20
-140.28863192871768
10
-148.0000012665987
20
-140.28863192871768
10
-148.0000012665987
20
-125.28863170520026
10
-142.00326524982967
20
-125.28863170520026
10
-142.00326524982967
20
-101.28863134757239
10
-145.00326524982967
20
-101.28863134757239
10
-145.00247478720001
20
-104.98710249330438
10
-148.0000012665987
20
-104.98710249330438
10
-148.0000012665987
20
-86.288631124054973
10
-142.0000012665987
20
-86.288631124054973
10
-141.99456129454714
20
-61.288630751525943
10
-91.000001356005669
20
-61.288630751525943
10
-91.000001356005669
20
-86.288631124054973
10
-85.000001266598701
20
-86.288631124054973
10
-85.000001266598701
20
-104.98710249330438
10
-88.000001311302185
20
-104.98710249330438
0
LWPOLYLINE
5
101
100
AcDbEntity
8
0
100
AcDbPolyline
90
10
70
1
43
0.0
10
-45.435393731025187
20
-179.88138689215737
10
-57.63539373102514
20
-179.88138689215737
10
-57.635393731025175
20
-202.88138689215737
10
-53.06059273251698
20
-202.88138689215737
10
-53.06059273251698
20
-207.63138702047084
10
-53.060592708777392
20
-212.63138702047084
10
-50.130592735308142
20
-212.63138700655944
10
-50.13059275904773
20
-207.63138700655944
10
-50.13059275904773
20
-202.88138689215737
10
-45.435393731025187
20
-202.88138689215737
0
LWPOLYLINE
5
102
100
AcDbEntity
8
0
100
AcDbPolyline
90
18
70
1
43
0.0
10
-80.035393731025195
20
-202.88138689215737
10
-77.035393731025152
20
-202.88138689215737
10
-77.035393731025152
20
-207.63138713430124
10
-61.038599298544618
20
-207.63138705834976
10
-58.048089460704766
20
-218.29757875030683
10
-45.024901458212909
20
-218.29757868847381
10
-42.029107250346023
20
-207.63138696809423
10
-26.035393731025191
20
-207.63138689215737
10
-26.035393731025191
20
-202.88138689215739
10
-23.035393731025184
20
-202.88138689215739
10
-23.035393731025167
20
-184.63138679157453
10
-23.035393731025167
20
-179.88138679157456
10
-26.035393731025174
20
-179.88138684186598
10
-26.035393731025174
20
-175.13138689215739
10
-77.035393731025152
20
-175.13138689215737
10
-77.035393731025152
20
-179.88138684186595
10
-80.035393731025152
20
-179.88138679157453
10
-80.035393731025152
20
-184.63138679157453
0
LINE
5
103
100
AcDbEntity
8
0
100
AcDbLine
10
-23.035393731025184
20
-207.63138689215737
30
0
11
-20.035393731025177
21
-207.63138689215737
31
0
0
CIRCLE
5
104
100
AcDbEntity
8
0
100
AcDbCircle
10
-51.535393731025145
20
-177.68122192070308
30
0
40
0.50000000000000167
0
LINE
5
105
100
AcDbEntity
8
0
100
AcDbLine
10
-206.00000105798244
20
-59.000000625848728
30
0
11
-158.00000105798244
21
-59.000000625848763
31
0
0
LINE
5
106
100
AcDbEntity
8
0
100
AcDbLine
10
-158.00000105798247
20
-92.00000062584877
30
0
11
-206.00000105798244
21
-92.000000625848742
31
0
0
LINE
5
107
100
AcDbEntity
8
0
100
AcDbLine
10
-206.00000105798244
20
-59.000000625848728
30
0
11
-156.00000232458115
21
-59.000000625848728
31
0
0
LINE
5
108
100
AcDbEntity
8
0
100
AcDbLine
10
-156.00000232458115
20
-59.000000625848728
30
0
11
-156.00000232458115
21
-92.00000137090683
31
0
0
LINE
5
109
100
AcDbEntity
8
0
100
AcDbLine
10
-156.00000232458115
20
-92.00000137090683
30
0
11
-206.00000105798244
21
-92.00000137090683
31
0
0
LINE
5
110
100
AcDbEntity
8
0
100
AcDbLine
10
-206.00000105798244
20
-92.00000137090683
30
0
11
-206.00000105798244
21
-59.000000625848728
31
0
0
LINE
5
111
100
AcDbEntity
8
0
100
AcDbLine
10
-49.555004826791844
20
-202.88138689215737
30
0
11
-50.13059275904773
21
-203.45630009698743
31
0
0
LINE
5
112
100
AcDbEntity
8
0
100
AcDbLine
10
-53.06059273251698
20
-203.45630009698743
30
0
11
-53.634832000863994
21
-202.88138689215737
31
0
0
LWPOLYLINE
5
113
100
AcDbEntity
8
0
100
AcDbPolyline
90
4
70
1
43
0.0
10
-26.060592306074142
20
-210.29757878010915
10
-38.060592484888076
20
-210.29757878010915
10
-38.060592484888076
20
-214.29757883971379
10
-26.060592306074142
20
-214.29757883971379
0
CIRCLE
5
114
100
AcDbEntity
8
0
100
AcDbCircle
10
-32.060592395481109
20
-212.29757880991147
30
0
40
1.0000000149011612
0
LINE
5
115
100
AcDbEntity
8
0
100
AcDbLine
10
-181.00000269711018
20
-74.020000402331348
30
0
11
-205.99999539554119
21
-74.04999834485352
31
0
0
LINE
5
116
100
AcDbEntity
8
0
100
AcDbLine
10
-181.00000269711018
20
-76.980003656353801
30
0
11
-206.00000105798244
21
-76.980003656353801
31
0
0
LINE
5
117
100
AcDbEntity
8
0
100
AcDbLine
10
-181.00000269711018
20
-74.020000402331348
30
0
11
-181.00000269711018
21
-76.980003656353801
31
0
0
LINE
5
118
100
AcDbEntity
8
0
100
AcDbLine
10
-170.02506790129092
20
-74.020000402331348
30
0
11
-170.02506790129092
21
-76.980003656353801
31
0
0
LINE
5
119
100
AcDbEntity
8
0
100
AcDbLine
10
-170.02506790129092
20
-74.020000402331348
30
0
11
-156.00000232458115
21
-74.020000402331348
31
0
0
LINE
5
120
100
AcDbEntity
8
0
100
AcDbLine
10
-170.02506790129092
20
-76.980003656353801
30
0
11
-156.00000232458115
21
-76.980003656353801
31
0
0
LINE
5
121
100
AcDbEntity
8
0
100
AcDbLine
10
-158.00000105798244
20
-59.000000625848763
30
0
11
-158.00000105798247
21
-92.00000062584877
31
0
0
LINE
5
122
100
AcDbEntity
8
0
100
AcDbLine
10
-204.03967940253017
20
-59.000000625848728
30
0
11
-204.03967940253023
21
-92.000000625848742
31
0
0
LINE
5
123
100
AcDbEntity
8
0
100
AcDbLine
10
-206.00000105798244
20
-99.000000625848728
30
0
11
-158.00000105798244
21
-99.00000062584877
31
0
0
LINE
5
124
100
AcDbEntity
8
0
100
AcDbLine
10
-158.00000105798247
20
-132.00000062584877
30
0
11
-206.00000105798244
21
-132.00000062584874
31
0
0
LINE
5
125
100
AcDbEntity
8
0
100
AcDbLine
10
-206.00000105798244
20
-99.000000625848728
30
0
11
-156.00000232458115
21
-99.000000625848728
31
0
0
LINE
5
126
100
AcDbEntity
8
0
100
AcDbLine
10
-156.00000232458115
20
-99.000000625848728
30
0
11
-156.00000232458115
21
-132.00000137090683
31
0
0
LINE
5
127
100
AcDbEntity
8
0
100
AcDbLine
10
-156.00000232458115
20
-132.00000137090683
30
0
11
-206.00000105798244
21
-132.00000137090683
31
0
0
LINE
5
128
100
AcDbEntity
8
0
100
AcDbLine
10
-206.00000105798244
20
-132.00000137090683
30
0
11
-206.00000105798244
21
-99.000000625848728
31
0
0
LINE
5
129
100
AcDbEntity
8
0
100
AcDbLine
10
-181.00000269711018
20
-114.02000040233133
30
0
11
-205.99999539554119
21
-114.04999834485352
31
0
0
LINE
5
130
100
AcDbEntity
8
0
100
AcDbLine
10
-181.00000269711018
20
-116.9800036563538
30
0
11
-206.00000105798244
21
-116.9800036563538
31
0
0
LINE
5
131
100
AcDbEntity
8
0
100
AcDbLine
10
-181.00000269711018
20
-114.02000040233133
30
0
11
-181.00000269711018
21
-116.9800036563538
31
0
0
LINE
5
132
100
AcDbEntity
8
0
100
AcDbLine
10
-170.02506790129092
20
-114.02000040233133
30
0
11
-170.02506790129092
21
-116.9800036563538
31
0
0
LINE
5
133
100
AcDbEntity
8
0
100
AcDbLine
10
-170.02506790129092
20
-114.02000040233133
30
0
11
-156.00000232458115
21
-114.02000040233133
31
0
0
LINE
5
134
100
AcDbEntity
8
0
100
AcDbLine
10
-170.02506790129092
20
-116.9800036563538
30
0
11
-156.00000232458115
21
-116.9800036563538
31
0
0
LINE
5
135
100
AcDbEntity
8
0
100
AcDbLine
10
-158.00000105798244
20
-99.00000062584877
30
0
11
-158.00000105798247
21
-132.00000062584877
31
0
0
LINE
5
136
100
AcDbEntity
8
0
100
AcDbLine
10
-204.03967940253017
20
-99.000000625848728
30
0
11
-204.03967940253023
21
-132.00000062584874
31
0
0
LWPOLYLINE
5
137
100
AcDbEntity
8
0
100
AcDbPolyline
90
8
70
1
43
0.0
10
16.923313996097509
20
-208.29757862541305
10
-10.126686003902492
20
-208.29757862541305
10
-10.126686003902492
20
-192.88138689215737
10
22.873313996097515
20
-192.88138689215737
10
22.873313996097515
20
-208.29757862541305
10
19.873313996097508
20
-208.29757862541305
10
19.873313996097508
20
-202.79757881736205
10
16.923313996097509
20
-202.79757881736205
0
LWPOLYLINE
5
138
100
AcDbEntity
8
0
100
AcDbPolyline
90
16
70
1
43
0.0
10
39.801291003119218
20
-94.128476663959916
10
41.948362655062539
20
-97.503396414327526
10
44.437365970958645
20
-95.919931071019334
10
57.856563795604423
20
-117.0131795108169
10
55.367560479708295
20
-118.59664485412507
10
49.99988134985
20
-110.15934547820606
10
47.852809697906679
20
-106.78442572783845
10
46.165349822722874
20
-107.85796155381013
10
44.018278170779539
20
-104.48304180344252
10
40.612900478591136
20
-106.58223749870152
10
50.305180854156845
20
-121.81725233203998
10
47.816177538260888
20
-123.40071767534822
10
34.396979713615018
20
-102.30746923555073
10
36.885983029511124
20
-100.72400389224251
10
40.260902779878748
20
-98.576932240299186
10
38.11383112793542
20
-95.20201248993159
0
LWPOLYLINE
5
139
100
AcDbEntity
8
0
100
AcDbPolyline
90
4
70
1
43
0.0
10
6.672593095157624
20
-126.03864116592456
10
17.407951354873955
20
-142.91323991776272
10
14.91894803897782
20
-144.49670526107087
10
4.1835897792614896
20
-127.62210650923274
0
LINE
5
140
100
AcDbEntity
8
0
100
AcDbLine
10
32.33829280277962
20
-138.43450455560398
30
0
11
-8.8281940262185898
21
-73.726096092997224
31
0
0
LINE
5
141
100
AcDbEntity
8
0
100
AcDbLine
10
30.258850750946429
20
-151.69094763604056
30
0
11
32.33829280277962
21
-138.43450455560398
31
0
0
LWPOLYLINE
5
142
100
AcDbEntity
8
0
100
AcDbPolyline
90
4
70
1
43
0.0
10
11.734972720709074
20
-122.81803368800966
10
22.470330980425864
20
-139.6926324398475
10
24.959334296321956
20
-138.1091670965393
10
14.223976036605158
20
-121.23456834470142
0
LINE
5
143
100
AcDbEntity
8
0
100
AcDbLine
10
104.62674706738304
20
-150.97649262288442
30
0
11
99.62674706738305
21
-150.97649262288442
31
0
0
LWPOLYLINE
5
144
100
AcDbEntity
8
0
100
AcDbPolyline
90
4
70
1
43
0.0
10
73.626747678330716
20
-77.72649170273786
10
73.626747678330702
20
-100.72649170273783
10
70.686747678330704
20
-100.72649170273783
10
70.686747678330704
20
-77.72649170273786
0
LINE
5
145
100
AcDbEntity
8
0
100
AcDbLine
10
109.6267482594759
20
-150.97649262288442
30
0
11
104.62674706738304
21
-150.97649262288442
31
0
0
LINE
5
146
100
AcDbEntity
8
0
100
AcDbLine
10
109.62674825947593
20
-70.976491430791697
30
0
11
109.6267482594759
21
-150.97649262288442
31
0
0
LWPOLYLINE
5
147
100
AcDbEntity
8
0
100
AcDbPolyline
90
4
70
1
43
0.0
10
103.59934322809735
20
-110.97649202683809
10
103.59934322809735
20
-130.97649344244834
10
100.65934322809736
20
-130.97649344244834
10
100.65934322809736
20
-111.00000165402889
0
LWPOLYLINE
5
148
100
AcDbEntity
8
0
100
AcDbPolyline
90
4
70
1
43
0.0
10
93.062868937771128
20
-146.06901971564935
10
73.062868639747961
20
-143.06901967094586
10
72.626747708133038
20
-145.97649254837864
10
92.626748006156205
20
-148.97649259308213
0
LINE
5
149
100
AcDbEntity
8
0
100
AcDbLine
10
102.12674706738304
20
-150.97649262288442
30
0
11
88.12674793910098
21
-150.97649262288442
31
0
0
LINE
5
150
100
AcDbEntity
8
0
100
AcDbLine
10
5.5473046877244858
20
-68.232934272809715
30
0
11
46.713791516722736
21
-132.94134273541664
31
0
0
LWPOLYLINE
5
151
100
AcDbEntity
8
0
100
AcDbPolyline
90
4
70
1
43
0.0
10
26.150624769795058
20
-83.849405140404116
10
15.415266510078256
20
-66.974806388566208
10
12.926263194182157
20
-68.558271731874427
10
23.661621453898967
20
-85.43287048371235
0
LWPOLYLINE
5
152
100
AcDbEntity
8
0
100
AcDbPolyline
90
4
70
1
43
0.0
10
103.59934322809735
20
-90.976492026838116
10
103.59934322809735
20
-75.97649202683813
10
100.65934322809736
20
-76.000001132488251
10
100.65934322809736
20
-90.976492026838116
0
SPLINE
5
153
100
AcDbEntity
8
0
100
AcDbSpline
70
1064
71
5
72
21
73
15
74
0
42
0.000000001
43
0.0000000001
44
0.0000000001
40
0
40
0
40
0
40
0
40
0
40
0
40
0.10000000000000001
40
0.20000000000000001
40
0.30000000000000004
40
0.40000000000000002
40
0.5
40
0.59999999999999998
40
0.69999999999999996
40
0.79999999999999993
40
0.89999999999999991
40
1
40
1
40
1
40
1
40
1
40
1
10
46.713791516722736
20
-132.94134273541664
30
0
10
47.363926822971301
20
-133.96327159535181
30
0
10
48.662276728323278
20
-135.89533939195451
30
0
10
50.604045577521582
20
-138.45809779857342
30
0
10
53.193370410452552
20
-141.24066397807835
30
0
10
56.499759675161208
20
-143.85188130441492
30
0
10
59.966513378443587
20
-145.82128450696092
30
0
10
63.688948631493801
20
-147.35878522061174
30
0
10
67.745290667895858
20
-148.61103875589811
30
0
10
72.180327539961965
20
-149.63104364891058
30
0
10
77.023533434666845
20
-150.41123971374833
30
0
10
81.241421126071813
20
-150.80816337989728
30
0
10
84.605208966688849
20
-150.9545958576083
30
0
10
86.937876919472913
20
-150.98105457280997
30
0
10
88.12674793910098
20
-150.97649262288442
30
0
0
CIRCLE
5
154
100
AcDbEntity
8
0
100
AcDbCircle
10
82.626747901848105
20
-124.97649226525664
30
0
40
0.90000000000000036
0
LINE
5
155
100
AcDbEntity
8
0
100
AcDbLine
10
109.6267482594759
20
-150.97649262288442
30
0
11
70
21
-150.97649262288442
31
0
0
LINE
5
156
100
AcDbEntity
8
0
100
AcDbLine
10
0.99961446099302353
20
-105.9434349361713
30
0
11
-7.0519042337943993
21
-93.287485872292777
31
0
0
LWPOLYLINE
5
157
100
AcDbEntity
8
0
100
AcDbPolyline
90
4
70
1
43
0.0
10
-4.0627651645583818
20
-109.16404241408628
10
-17.481962989204121
20
-88.070793974288776
10
-19.970966305100248
20
-89.654259317596953
10
-6.5517684804544896
20
-110.74750775739447
0
LWPOLYLINE
5
158
100
AcDbEntity
8
0
100
AcDbPolyline
90
4
70
1
43
0.0
10
31.21300439534652
20
-80.628797662489205
10
20.477646135630177
20
-63.754198910651041
10
22.966649451526315
20
-62.170733567342886
10
33.702007711242658
20
-79.045332319181043
0
LINE
5
159
100
AcDbEntity
8
0
100
AcDbLine
10
7.6267467395576771
20
-54.976491192373132
30
0
11
109.62674825947593
21
-70.976491430791697
31
0
0
SPLINE
5
160
100
AcDbEntity
8
0
100
AcDbSpline
70
1064
71
5
72
21
73
15
74
0
42
0.000000001
43
0.0000000001
44
0.0000000001
40
0
40
0
40
0
40
0
40
0
40
0
40
0.10000000000000001
40
0.20000000000000001
40
0.30000000000000004
40
0.40000000000000002
40
0.5
40
0.59999999999999998
40
0.69999999999999996
40
0.79999999999999993
40
0.89999999999999991
40
1
40
1
40
1
40
1
40
1
40
1
10
-8.8281940262185898
20
-73.726096092997224
30
0
10
-9.4783293324671494
20
-72.704167233062066
30
0
10
-10.776679237819165
20
-70.772099436459413
30
0
10
-12.718448087017528
20
-68.209341029841269
30
0
10
-15.307772919948404
20
-65.426774850337296
30
0
10
-18.614162184656877
20
-62.815557524001278
30
0
10
-22.080915887939231
20
-60.846154321454208
30
0
10
-25.803351140989651
20
-59.308653607801773
30
0
10
-29.85969317739201
20
-58.056400072514471
30
0
10
-34.294730049458188
20
-57.036395179502399
30
0
10
-39.137935944162926
20
-56.256199114665506
30
0
10
-43.355823635567759
20
-55.859275448516861
30
0
10
-46.719611476184667
20
-55.712842970805752
30
0
10
-49.05227942896871
20
-55.68638425560394
30
0
10
-50.24115044859677
20
-55.690946205529492
30
0
0
CIRCLE
5
161
100
AcDbEntity
8
0
100
AcDbCircle
10
-44.741150411343881
20
-81.69094656315724
30
0
40
0.89999999999999858
0
LINE
5
162
100
AcDbEntity
8
0
100
AcDbLine
10
-71.741150768971664
20
-55.690946205529492
30
0
11
-25.886549193650296
21
-55.597492441792767
31
0
0
LWPOLYLINE
5
163
100
AcDbEntity
8
0
100
AcDbPolyline
90
4
70
1
43
0.0
10
-9.9305800477567363
20
-83.266721153065646
10
3.4886177768891224
20
-104.35996959286308
10
0.99961446099302353
20
-105.9434349361713
10
-12.419583363652675
20
-84.85018649637388
0
LWPOLYLINE
5
164
100
AcDbEntity
8
0
100
AcDbPolyline
90
4
70
1
43
0.0
10
-62.773745737593103
20
-115.69094680157569
10
-65.713745737593072
20
-115.69094680157569
10
-65.713745737593072
20
-130.69094680157565
10
-62.773745737593089
20
-130.66743769592554
0
LWPOLYLINE
5
165
100
AcDbEntity
8
0
100
AcDbPolyline
90
4
70
1
43
0.0
10
-65.713745737593072
20
-95.690946801575762
10
-62.773745737593103
20
-95.667437174384958
10
-62.773745737593103
20
-75.690945385965534
10
-65.713745737593086
20
-75.690945385965534
0
LWPOLYLINE
5
166
100
AcDbEntity
8
0
100
AcDbPolyline
90
4
70
1
43
0.0
10
-55.177271447266904
20
-60.598419112764574
10
-35.177271149243765
20
-63.598419157468044
10
-34.741150217628842
20
-60.690946280035249
10
-54.741150515651981
20
-57.690946235331779
0
LINE
5
167
100
AcDbEntity
8
0
100
AcDbLine
10
-64.241149576878797
20
-55.690946205529492
30
0
11
-50.24115044859677
21
-55.690946205529492
31
0
0
LINE
5
168
100
AcDbEntity
8
0
100
AcDbLine
10
-71.741150768971636
20
-135.6909473976221
30
0
11
-71.741150768971664
21
-55.690946205529492
31
0
0
LINE
5
169
100
AcDbEntity
8
0
100
AcDbLine
10
-66.741149576878783
20
-55.690946205529492
30
0
11
-61.741149576878804
21
-55.690946205529492
31
0
0
LWPOLYLINE
5
170
100
AcDbEntity
8
0
100
AcDbPolyline
90
4
70
1
43
0.0
10
-35.741150187826491
20
-128.94094712567596
10
-35.741150187826491
20
-105.94094712567598
10
-32.801150187826494
20
-105.94094712567598
10
-32.801150187826487
20
-128.94094712567596
0
LINE
5
171
100
AcDbEntity
8
0
100
AcDbLine
10
-71.741150768971664
20
-55.690946205529492
30
0
11
-66.741149576878783
21
-55.690946205529492
31
0
0
LINE
5
172
100
AcDbEntity
8
0
100
AcDbLine
10
-0.32195208005902032
20
-106.78419509236181
30
0
11
-2.8531418928347207
21
-108.39449883131931
31
0
0
LINE
5
173
100
AcDbEntity
8
0
100
AcDbLine
10
30.258850750946429
20
-151.69094763604056
30
0
11
-71.741150768971636
21
-135.6909473976221
31
0
0
LINE
5
174
100
AcDbEntity
8
0
100
AcDbLine
10
7.6267467395576771
20
-54.976491192373132
30
0
11
5.5473046877244858
21
-68.232934272809715
31
0
0
LINE
5
175
100
AcDbEntity
8
0
100
AcDbLine
10
-128.07184003074823
20
-170.85682532221148
30
0
11
-131.90886614760436
21
-170.85682532221148
31
0
0
LWPOLYLINE
5
176
100
AcDbEntity
8
0
100
AcDbPolyline
90
6
70
1
43
0.0
10
-149.67270787884669
20
-198.84262133503478
10
-149.8649753472649
20
-196.11783883124565
10
-146.66435010228219
20
-196.68219541707282
10
-151.7334964640516
20
-193.75751489029915
10
-151.55211205988348
20
-196.32806442217566
10
-155.1220402177488
20
-195.6985897687531
0
LWPOLYLINE
5
177
100
AcDbEntity
8
0
100
AcDbPolyline
90
4
70
1
43
0.0
10
-93.908865596261421
20
-201.94642569400273
10
-93.908865596261421
20
-221.85682532221131
10
-94.908865596261421
20
-221.85682532221131
10
-94.908865596261421
20
-201.94642569400273
0
LINE
5
178
100
AcDbEntity
8
0
100
AcDbLine
10
-92.908865566459127
20
-221.85682532221131
30
0
11
-115.07184003074829
21
-221.85682532221131
31
0
0
LWPOLYLINE
5
179
100
AcDbEntity
8
0
100
AcDbPolyline
90
4
70
1
43
0.0
10
-97.908865655866066
20
-221.85682532221131
10
-98.908865655866066
20
-221.85682532221131
10
-98.908865655866066
20
-201.94642569400273
10
-97.908865655866066
20
-201.94642569400273
0
LWPOLYLINE
5
180
100
AcDbEntity
8
0
100
AcDbPolyline
90
4
70
1
43
0.0
10
-102.9088657154707
20
-201.94642569400273
10
-101.90886571547071
20
-201.94642569400273
10
-101.90886571547071
20
-221.85682532221131
10
-102.9088657154707
20
-221.85682532221131
0
LINE
5
181
100
AcDbEntity
8
0
100
AcDbLine
10
-86.908865566459127
20
-167.94642518736325
30
0
11
-92.908865566459141
21
-167.94642518736325
31
0
0
LINE
5
182
100
AcDbEntity
8
0
100
AcDbLine
10
-86.908865566459127
20
-170.85682532221148
30
0
11
-86.908865566459127
21
-167.94642518736325
31
0
0
LWPOLYLINE
5
183
100
AcDbEntity
8
0
100
AcDbPolyline
90
4
70
1
43
0.0
10
-110.90886583467999
20
-191.94642554499111
10
-109.95549524894255
20
-191.94642554499111
10
-109.95549524894258
20
-170.85682532221148
10
-110.90886583467999
20
-170.85682532221148
0
LWPOLYLINE
5
184
100
AcDbEntity
8
0
100
AcDbPolyline
90
4
70
1
43
0.0
10
-93.90886559626145
20
-170.85682532221148
10
-94.90886559626145
20
-170.85682532221148
10
-94.908865596261421
20
-191.94642554499111
10
-93.908865596261421
20
-191.94642554499111
0
LWPOLYLINE
5
185
100
AcDbEntity
8
0
100
AcDbPolyline
90
4
70
1
43
0.0
10
-98.908865655866066
20
-191.94642554499111
10
-97.908865655866066
20
-191.94642554499111
10
-97.908865655866094
20
-170.85682532221148
10
-98.908865655866094
20
-170.85682532221148
0
LWPOLYLINE
5
186
100
AcDbEntity
8
0
100
AcDbPolyline
90
4
70
1
43
0.0
10
-102.9088657154707
20
-191.94642554499111
10
-101.9783197630141
20
-191.94642554499111
10
-101.97831976301413
20
-170.85682532221148
10
-102.90886571547071
20
-170.85682532221148
0
LWPOLYLINE
5
187
100
AcDbEntity
8
0
100
AcDbPolyline
90
4
70
1
43
0.0
10
-99.908865789976517
20
-215.94642590261898
10
-99.908865789976531
20
-176.9464253214737
10
-100.90886580487769
20
-176.9464253214737
10
-100.90886580487768
20
-215.94642590261898
0
LWPOLYLINE
5
188
100
AcDbEntity
8
0
100
AcDbPolyline
90
4
70
1
43
0.0
10
-96.908865804877706
20
-176.9464253214737
10
-96.908865804877692
20
-215.94642590261898
10
-95.908865789976531
20
-215.94642590261898
10
-95.908865789976545
20
-176.9464253214737
0
LINE
5
189
100
AcDbEntity
8
0
100
AcDbLine
10
-145.90886635622056
20
-200.94642567910157
30
0
11
-145.90886635622056
21
-202.94642570890389
31
0
0
LINE
5
190
100
AcDbEntity
8
0
100
AcDbLine
10
-145.90886635622056
20
-192.94642555989228
30
0
11
-145.90886635622056
21
-198.94642564929924
31
0
0
LINE
5
191
100
AcDbEntity
8
0
100
AcDbLine
10
-138.90886625191246
20
-200.94642567910157
30
0
11
-138.90886625191246
21
-202.94642570890389
31
0
0
LINE
5
192
100
AcDbEntity
8
0
100
AcDbLine
10
-140.4088662742642
20
-188.94642550028763
30
0
11
-138.90886625191246
21
-188.94642550028763
31
0
0
LINE
5
193
100
AcDbEntity
8
0
100
AcDbLine
10
-145.90886635622056
20
-188.94642550028763
30
0
11
-145.90886635622056
21
-190.94642553008995
31
0
0
LINE
5
194
100
AcDbEntity
8
0
100
AcDbLine
10
-138.90886625191246
20
-188.94642550028763
30
0
11
-138.90886625191246
21
-190.94642553008995
31
0
0
LINE
5
195
100
AcDbEntity
8
0
100
AcDbLine
10
-144.40886633386881
20
-187.94642548538647
30
0
11
-140.4088662742642
21
-187.94642548538647
31
0
0
LINE
5
196
100
AcDbEntity
8
0
100
AcDbLine
10
-144.40886633386881
20
-188.94642550028763
30
0
11
-144.40886633386881
21
-187.94642548538647
31
0
0
LINE
5
197
100
AcDbEntity
8
0
100
AcDbLine
10
-140.4088662742642
20
-187.94642548538647
30
0
11
-140.4088662742642
21
-188.94642550028763
31
0
0
LWPOLYLINE
5
198
100
AcDbEntity
8
0
100
AcDbPolyline
90
4
70
1
43
0.0
10
-141.38112365607458
20
-191.13700491776882
10
-143.38112365607458
20
-191.13700491776882
10
-143.38112365607458
20
-194.9720049177688
10
-141.38112365607458
20
-194.9720049177688
0
LINE
5
199
100
AcDbEntity
8
0
100
AcDbLine
10
-156.9088661476043
20
-167.85682532221153
30
0
11
-156.9088661476043
21
-164.94642514265976
31
0
0
LINE
5
200
100
AcDbEntity
8
0
100
AcDbLine
10
-131.90886614760436
20
-164.94642514265976
30
0
11
-131.90886614760436
21
-167.85682532221153
31
0
0
LINE
5
201
100
AcDbEntity
8
0
100
AcDbLine
10
-153.07184003074806
20
-167.85682532221153
30
0
11
-153.07184003074806
21
-170.85682532221148
31
0
0
LINE
5
202
100
AcDbEntity
8
0
100
AcDbLine
10
-140.90886628171478
20
-188.94642550028763
30
0
11
-143.90886632641823
21
-188.94642550028763
31
0
0
LINE
5
203
100
AcDbEntity
8
0
100
AcDbLine
10
-144.40886633386881
20
-188.94642550028763
30
0
11
-145.90886635622056
21
-188.94642550028763
31
0
0
LINE
5
204
100
AcDbEntity
8
0
100
AcDbLine
10
-175.90886680325536
20
-224.85682532221114
30
0
11
-175.90886680325536
21
-221.85682532221131
31
0
0
LINE
5
205
100
AcDbEntity
8
0
100
AcDbLine
10
-175.90886680325536
20
-221.85682532221131
30
0
11
-173.07184003074795
21
-221.85682532221131
31
0
0
LINE
5
206
100
AcDbEntity
8
0
100
AcDbLine
10
-175.90886680325536
20
-167.94642514265979
30
0
11
-175.90886680325536
21
-170.85682532221148
31
0
0
LINE
5
207
100
AcDbEntity
8
0
100
AcDbLine
10
-175.90886680325536
20
-170.85682532221148
30
0
11
-173.07184003074792
21
-170.85682532221148
31
0
0
LINE
5
208
100
AcDbEntity
8
0
100
AcDbLine
10
-205.07184003074772
20
-221.85682532221131
30
0
11
-193.07184003074781
21
-221.85682532221131
31
0
0
LINE
5
209
100
AcDbEntity
8
0
100
AcDbLine
10
-193.07184003074781
20
-221.85682532221131
30
0
11
-193.07184003074781
21
-224.85682532221114
31
0
0
LINE
5
210
100
AcDbEntity
8
0
100
AcDbLine
10
-205.07184003074769
20
-170.85682532221148
30
0
11
-193.07184003074778
21
-170.85682532221148
31
0
0
LINE
5
211
100
AcDbEntity
8
0
100
AcDbLine
10
-193.07184003074778
20
-170.85682532221148
30
0
11
-193.07184003074778
21
-167.85682532221145
31
0
0
LINE
5
212
100
AcDbEntity
8
0
100
AcDbLine
10
-205.07184003074772
20
-221.85682532221131
30
0
11
-205.07184003074769
21
-170.85682532221148
31
0
0
LINE
5
213
100
AcDbEntity
8
0
100
AcDbLine
10
-175.90886680325536
20
-164.94642514265976
30
0
11
-175.90886680325536
21
-167.94642514265979
31
0
0
LINE
5
214
100
AcDbEntity
8
0
100
AcDbLine
10
-195.90886680325531
20
-167.94642514265973
30
0
11
-195.90886680325531
21
-164.94642514265976
31
0
0
LINE
5
215
100
AcDbEntity
8
0
100
AcDbLine
10
-195.90886680325531
20
-164.94642514265976
30
0
11
-175.90886680325536
21
-164.94642514265976
31
0
0
LINE
5
216
100
AcDbEntity
8
0
100
AcDbLine
10
-195.90886680325536
20
-224.85682532221114
30
0
11
-193.07184003074781
21
-224.85682532221114
31
0
0
LINE
5
217
100
AcDbEntity
8
0
100
AcDbLine
10
-195.90886680325531
20
-167.94642514265973
30
0
11
-193.07184003074778
21
-167.85682532221145
31
0
0
LINE
5
218
100
AcDbEntity
8
0
100
AcDbLine
10
31.533391306715892
20
-164.63400278895608
30
0
11
51.53339130671587
21
-164.63400278895614
31
0
0
LINE
5
219
100
AcDbEntity
8
0
100
AcDbLine
10
31.533391306715892
20
-167.63400278895608
30
0
11
31.533391306715892
21
-164.63400278895608
31
0
0
LINE
5
220
100
AcDbEntity
8
0
100
AcDbLine
10
51.53339130671587
20
-164.63400278895614
30
0
11
51.53339130671587
21
-167.63400278895614
31
0
0
LINE
5
221
100
AcDbEntity
8
0
100
AcDbLine
10
113.53339223058784
20
-170.54440296850785
30
0
11
112.37041807922299
21
-170.54440296850785
31
0
0
LINE
5
222
100
AcDbEntity
8
0
100
AcDbLine
10
99.370418079223072
20
-170.54440296850785
30
0
11
95.533391962366935
21
-170.54440296850785
31
0
0
LINE
5
223
100
AcDbEntity
8
0
100
AcDbLine
10
70.533391962366949
20
-167.54440296850788
30
0
11
70.533391962366949
21
-164.63400278895614
31
0
0
LINE
5
224
100
AcDbEntity
8
0
100
AcDbLine
10
-156.9088661476043
20
-224.85682532221114
30
0
11
-156.9088661476043
21
-227.94642608143278
31
0
0
LINE
5
225
100
AcDbEntity
8
0
100
AcDbLine
10
-175.90886680325536
20
-227.94642608143278
30
0
11
-175.90886680325536
21
-224.85682532221114
31
0
0
LINE
5
226
100
AcDbEntity
8
0
100
AcDbLine
10
-195.90886680325536
20
-224.85682532221114
30
0
11
-195.90886680325536
21
-227.94642608143278
31
0
0
LINE
5
227
100
AcDbEntity
8
0
100
AcDbLine
10
-195.90886680325536
20
-227.94642608143278
30
0
11
-175.90886680325536
21
-227.94642608143278
31
0
0
LINE
5
228
100
AcDbEntity
8
0
100
AcDbLine
10
-131.90886614760433
20
-224.85682532221114
30
0
11
-131.90886614760433
21
-221.85682532221131
31
0
0
LINE
5
229
100
AcDbEntity
8
0
100
AcDbLine
10
-156.9088661476043
20
-224.85682532221114
30
0
11
-153.07184003074806
21
-224.85682532221114
31
0
0
LWPOLYLINE
5
230
100
AcDbEntity
8
0
100
AcDbPolyline
90
4
70
1
43
0.0
10
-103.90886578997652
20
-176.9464253214737
10
-104.90886580487768
20
-176.9464253214737
10
-104.90886580487766
20
-215.94642590261898
10
-103.9088657899765
20
-215.94642590261898
0
LINE
5
231
100
AcDbEntity
8
0
100
AcDbLine
10
-92.908865566459141
20
-167.94642518736325
30
0
11
-92.908865566459141
21
-170.85682532221148
31
0
0
LINE
5
232
100
AcDbEntity
8
0
100
AcDbLine
10
31.533391306715881
20
-227.63400372772921
30
0
11
51.533391306715885
21
-227.63400372772924
31
0
0
LINE
5
233
100
AcDbEntity
8
0
100
AcDbLine
10
31.533391306715881
20
-224.54440296850751
30
0
11
31.533391306715881
21
-227.63400372772921
31
0
0
LINE
5
234
100
AcDbEntity
8
0
100
AcDbLine
10
51.533391306715885
20
-227.63400372772924
30
0
11
51.533391306715885
21
-224.54440296850754
31
0
0
LINE
5
235
100
AcDbEntity
8
0
100
AcDbLine
10
34.370418079223448
20
-170.54440296850782
30
0
11
34.370418079223448
21
-167.54440296850782
31
0
0
LINE
5
236
100
AcDbEntity
8
0
100
AcDbLine
10
31.533391306715892
20
-167.63400278895608
30
0
11
34.370418079223448
21
-167.54440296850782
31
0
0
LINE
5
237
100
AcDbEntity
8
0
100
AcDbLine
10
74.370418079223199
20
-221.5444029685076
30
0
11
74.370418079223199
21
-224.54440296850754
31
0
0
LINE
5
238
100
AcDbEntity
8
0
100
AcDbLine
10
54.370418079223306
20
-221.5444029685076
30
0
11
74.370418079223199
21
-221.5444029685076
31
0
0
LINE
5
239
100
AcDbEntity
8
0
100
AcDbLine
10
70.533391962366949
20
-164.63400278895614
30
0
11
95.533391962366935
21
-164.63400278895614
31
0
0
LINE
5
240
100
AcDbEntity
8
0
100
AcDbLine
10
95.533391962366935
20
-164.63400278895614
30
0
11
95.533391962366935
21
-167.54440296850788
31
0
0
LINE
5
241
100
AcDbEntity
8
0
100
AcDbLine
10
95.533391962366935
20
-170.54440296850785
30
0
11
95.533391962366935
21
-167.54440296850788
31
0
0
LINE
5
242
100
AcDbEntity
8
0
100
AcDbLine
10
95.533391962366935
20
-224.54440296850754
30
0
11
95.533391962366935
21
-221.5444029685076
31
0
0
LINE
5
243
100
AcDbEntity
8
0
100
AcDbLine
10
113.53339223058784
20
-221.5444029685076
30
0
11
112.37041807922299
21
-221.5444029685076
31
0
0
LINE
5
244
100
AcDbEntity
8
0
100
AcDbLine
10
112.37041807922299
20
-221.5444029685076
30
0
11
113.53339223058784
21
-221.5444029685076
31
0
0
LINE
5
245
100
AcDbEntity
8
0
100
AcDbLine
10
86.663227583018895
20
-221.5444029685076
30
0
11
95.533391962366935
21
-221.5444029685076
31
0
0
LINE
5
246
100
AcDbEntity
8
0
100
AcDbLine
10
86.663227583018895
20
-210.60050996797517
30
0
11
86.663227583018895
21
-221.5444029685076
31
0
0
LINE
5
247
100
AcDbEntity
8
0
100
AcDbLine
10
105.87041807922303
20
-210.60050996797517
30
0
11
86.663227583018895
21
-210.60050996797517
31
0
0
LINE
5
248
100
AcDbEntity
8
0
100
AcDbLine
10
70.533391962366949
20
-227.63400372772924
30
0
11
95.533391962366935
21
-227.63400372772924
31
0
0
LINE
5
249
100
AcDbEntity
8
0
100
AcDbLine
10
70.533391962366949
20
-224.54440296850754
30
0
11
70.533391962366949
21
-227.63400372772924
31
0
0
LINE
5
250
100
AcDbEntity
8
0
100
AcDbLine
10
95.533391962366935
20
-227.63400372772924
30
0
11
95.533391962366935
21
-224.54440296850754
31
0
0
LINE
5
251
100
AcDbEntity
8
0
100
AcDbLine
10
28.370418079223477
20
-170.54440296850782
30
0
11
28.370418079223452
21
-221.54440296850754
31
0
0
LINE
5
252
100
AcDbEntity
8
0
100
AcDbLine
10
34.370418079223406
20
-221.54440296850754
30
0
11
34.370418079223406
21
-224.54440296850751
31
0
0
LINE
5
253
100
AcDbEntity
8
0
100
AcDbLine
10
22.370418079223487
20
-221.54440296850754
30
0
11
34.370418079223406
21
-221.54440296850754
31
0
0
LINE
5
254
100
AcDbEntity
8
0
100
AcDbLine
10
51.533391306715885
20
-221.5444029685076
30
0
11
54.370418079223306
21
-221.5444029685076
31
0
0
LINE
5
255
100
AcDbEntity
8
0
100
AcDbLine
10
51.533391306715885
20
-224.54440296850754
30
0
11
51.533391306715885
21
-221.5444029685076
31
0
0
LWPOLYLINE
5
256
100
AcDbEntity
8
0
100
AcDbPolyline
90
4
70
1
43
0.0
10
-110.90886583467999
20
-201.94642569400273
10
-109.90886583467997
20
-201.94642569400273
10
-109.90886583467997
20
-221.85682532221131
10
-110.90886583467999
20
-221.85682532221131
0
LWPOLYLINE
5
257
100
AcDbEntity
8
0
100
AcDbPolyline
90
4
70
1
43
0.0
10
-105.90886577507534
20
-221.85682532221131
10
-106.90886577507534
20
-221.85682532221131
10
-106.90886577507534
20
-201.94642569400273
10
-105.90886577507534
20
-201.94642569400273
0
LINE
5
258
100
AcDbEntity
8
0
100
AcDbLine
10
-92.908865566459141
20
-170.85682532221148
30
0
11
-115.07184003074829
21
-170.85682532221148
31
0
0
LINE
5
259
100
AcDbEntity
8
0
100
AcDbLine
10
105.87041807922304
20
-170.54440296850785
30
0
11
99.370418079223072
21
-170.54440296850785
31
0
0
LINE
5
260
100
AcDbEntity
8
0
100
AcDbLine
10
105.87041807922303
20
-210.60050996797517
30
0
11
105.87041807922304
21
-170.54440296850785
31
0
0
LINE
5
261
100
AcDbEntity
8
0
100
AcDbLine
10
-138.90886625191246
20
-192.94642555989228
30
0
11
-138.90886625191246
21
-198.94642564929924
31
0
0
LINE
5
262
100
AcDbEntity
8
0
100
AcDbLine
10
-138.90886625191246
20
-202.94642570890389
30
0
11
-145.90886635622056
21
-202.94642570890389
31
0
0
LWPOLYLINE
5
263
100
AcDbEntity
8
0
100
AcDbPolyline
90
4
70
1
43
0.0
10
-142.38333727426934
20
-204.12450525304493
10
-150.88333740092918
20
-204.12450525304493
10
-150.88333740092918
20
-211.62450536480364
10
-142.38333727426934
20
-211.62450536480364
0
LINE
5
264
100
AcDbEntity
8
0
100
AcDbLine
10
-105.90886577507536
20
-170.85682532221148
30
0
11
-106.90886577507534
21
-170.85682532221148
31
0
0
LWPOLYLINE
5
265
100
AcDbEntity
8
0
100
AcDbPolyline
90
4
70
1
43
0.0
10
-92.908865566459141
20
-176.9464253214737
10
-92.908865566459127
20
-215.94642590261898
10
-91.908865551557966
20
-215.94642590261898
10
-91.90886555155798
20
-176.9464253214737
0
LWPOLYLINE
5
266
100
AcDbEntity
8
0
100
AcDbPolyline
90
4
70
1
43
0.0
10
-111.90886584958115
20
-215.94642590261898
10
-111.90886584958115
20
-176.9464253214737
10
-112.90886586448231
20
-176.9464253214737
10
-112.90886586448231
20
-215.94642590261898
0
LINE
5
267
100
AcDbEntity
8
0
100
AcDbLine
10
-113.90886587938347
20
-221.85682532221131
30
0
11
-115.07184003074829
21
-221.85682532221131
31
0
0
LWPOLYLINE
5
268
100
AcDbEntity
8
0
100
AcDbPolyline
90
4
70
1
43
0.0
10
-105.90886577507536
20
-170.85682532221148
10
-106.90886577507534
20
-170.85682532221148
10
-106.90886577507534
20
-191.94642554499111
10
-105.90886577507534
20
-191.94642554499111
0
LINE
5
269
100
AcDbEntity
8
0
100
AcDbLine
10
-113.90886587938347
20
-170.85682532221148
30
0
11
-115.07184003074832
21
-170.85682532221148
31
0
0
LINE
5
270
100
AcDbEntity
8
0
100
AcDbLine
10
-85.07184003074839
20
-170.85682532221148
30
0
11
-86.908865566459127
21
-170.85682532221148
31
0
0
LWPOLYLINE
5
271
100
AcDbEntity
8
0
100
AcDbPolyline
90
4
70
1
43
0.0
10
-141.39012074875001
20
-196.98054415940055
10
-143.39012074875001
20
-196.98054415940055
10
-143.39012074875001
20
-200.81554415940053
10
-141.39012074875001
20
-200.81554415940053
0
LINE
5
272
100
AcDbEntity
8
0
100
AcDbLine
10
-131.90886614760433
20
-227.94642608143283
30
0
11
-131.90886614760433
21
-224.85682532221114
31
0
0
LINE
5
273
100
AcDbEntity
8
0
100
AcDbLine
10
-153.07184003074806
20
-221.85682532221131
30
0
11
-153.07184003074806
21
-224.85682532221114
31
0
0
LINE
5
274
100
AcDbEntity
8
0
100
AcDbLine
10
-131.90886614760433
20
-221.85682532221131
30
0
11
-128.07184003074823
21
-221.85682532221131
31
0
0
LWPOLYLINE
5
275
100
AcDbEntity
8
0
100
AcDbPolyline
90
4
70
1
43
0.0
10
-115.07184003074828
20
-191.98743761988254
10
-113.90886587938347
20
-191.98743761988254
10
-113.90886587938347
20
-170.85682532221148
10
-115.07184003074829
20
-170.85682532221148
0
LINE
5
276
100
AcDbEntity
8
0
100
AcDbLine
10
74.370418079223214
20
-167.54440296850788
30
0
11
74.370418079223214
21
-170.54440296850785
31
0
0
LINE
5
277
100
AcDbEntity
8
0
100
AcDbLine
10
54.370418079223334
20
-170.54440296850785
30
0
11
74.370418079223214
21
-170.54440296850785
31
0
0
LINE
5
278
100
AcDbEntity
8
0
100
AcDbLine
10
70.533391962366949
20
-167.54440296850788
30
0
11
74.370418079223214
21
-167.54440296850788
31
0
0
LINE
5
279
100
AcDbEntity
8
0
100
AcDbLine
10
70.533391962366949
20
-224.54440296850754
30
0
11
74.370418079223199
21
-224.54440296850754
31
0
0
LINE
5
280
100
AcDbEntity
8
0
100
AcDbLine
10
-85.07184003074839
20
-170.85682532221148
30
0
11
-85.071840030748376
21
-221.85682532221131
31
0
0
LWPOLYLINE
5
281
100
AcDbEntity
8
0
100
AcDbPolyline
90
4
70
1
43
0.0
10
-108.90886580487766
20
-176.9464253214737
10
-108.90886580487766
20
-215.94642590261898
10
-107.9088657899765
20
-215.94642590261898
10
-107.9088657899765
20
-176.9464253214737
0
LINE
5
282
100
AcDbEntity
8
0
100
AcDbLine
10
22.370418079223512
20
-170.54440296850782
30
0
11
34.370418079223448
21
-170.54440296850782
31
0
0
LINE
5
283
100
AcDbEntity
8
0
100
AcDbLine
10
51.53339130671587
20
-170.54440296850785
30
0
11
54.370418079223334
21
-170.54440296850785
31
0
0
LINE
5
284
100
AcDbEntity
8
0
100
AcDbLine
10
51.53339130671587
20
-167.63400278895614
30
0
11
51.53339130671587
21
-170.54440296850785
31
0
0
LINE
5
285
100
AcDbEntity
8
0
100
AcDbLine
10
31.533391306715881
20
-224.54440296850751
30
0
11
34.370418079223406
21
-224.54440296850751
31
0
0
LINE
5
286
100
AcDbEntity
8
0
100
AcDbLine
10
-156.9088661476043
20
-167.85682532221153
30
0
11
-153.07184003074806
21
-167.85682532221153
31
0
0
LINE
5
287
100
AcDbEntity
8
0
100
AcDbLine
10
-131.90886614760436
20
-170.85682532221148
30
0
11
-131.90886614760436
21
-167.85682532221153
31
0
0
LINE
5
288
100
AcDbEntity
8
0
100
AcDbLine
10
-156.9088661476043
20
-164.94642514265976
30
0
11
-131.90886614760436
21
-164.94642514265976
31
0
0
LINE
5
289
100
AcDbEntity
8
0
100
AcDbLine
10
-173.07184003074792
20
-170.85682532221148
30
0
11
-153.07184003074806
21
-170.85682532221148
31
0
0
LINE
5
290
100
AcDbEntity
8
0
100
AcDbLine
10
-173.07184003074795
20
-221.85682532221131
30
0
11
-153.07184003074806
21
-221.85682532221131
31
0
0
LINE
5
291
100
AcDbEntity
8
0
100
AcDbLine
10
-156.9088661476043
20
-227.94642608143278
30
0
11
-131.90886614760433
21
-227.94642608143283
31
0
0
LINE
5
292
100
AcDbEntity
8
0
100
AcDbLine
10
-115.07184003074829
20
-170.85682532221148
30
0
11
-128.07184003074823
21
-170.85682532221148
31
0
0
LINE
5
293
100
AcDbEntity
8
0
100
AcDbLine
10
-110.95549524894255
20
-170.85682532221148
30
0
11
-109.95549524894258
21
-170.85682532221148
31
0
0
LINE
5
294
100
AcDbEntity
8
0
100
AcDbLine
10
-85.071840030748376
20
-221.85682532221131
30
0
11
-86.908865566459099
21
-221.85682532221131
31
0
0
LINE
5
295
100
AcDbEntity
8
0
100
AcDbLine
10
-115.07184003074829
20
-221.85682532221131
30
0
11
-128.07184003074823
21
-221.85682532221131
31
0
0
LINE
5
296
100
AcDbEntity
8
0
100
AcDbLine
10
-106.90886577507534
20
-221.85682532221131
30
0
11
-105.90886577507534
21
-221.85682532221131
31
0
0
LINE
5
297
100
AcDbEntity
8
0
100
AcDbLine
10
-110.90886583467999
20
-221.85682532221131
30
0
11
-109.90886583467997
21
-221.85682532221131
31
0
0
LINE
5
298
100
AcDbEntity
8
0
100
AcDbLine
10
-86.908865566459099
20
-224.94642603672935
30
0
11
-92.908865566459127
21
-224.94642603672935
31
0
0
LINE
5
299
100
AcDbEntity
8
0
100
AcDbLine
10
-86.908865566459099
20
-221.85682532221131
30
0
11
-86.908865566459099
21
-224.94642603672935
31
0
0
LINE
5
300
100
AcDbEntity
8
0
100
AcDbLine
10
-92.908865566459127
20
-224.94642603672935
30
0
11
-92.908865566459127
21
-221.85682532221131
31
0
0
LINE
5
301
100
AcDbEntity
8
0
100
AcDbLine
10
-115.07184003074829
20
-221.85682532221131
30
0
11
-113.90886587938347
21
-221.85682532221131
31
0
0
LINE
5
302
100
AcDbEntity
8
0
100
AcDbLine
10
-115.07184003074829
20
-201.92061647471334
30
0
11
-115.07184003074829
21
-221.85682532221131
31
0
0
LINE
5
303
100
AcDbEntity
8
0
100
AcDbLine
10
-113.90886587938347
20
-201.92061647471334
30
0
11
-115.07184003074829
21
-201.92061647471334
31
0
0
LINE
5
304
100
AcDbEntity
8
0
100
AcDbLine
10
-113.90886587938347
20
-221.85682532221131
30
0
11
-113.90886587938347
21
-201.92061647471334
31
0
0
LWPOLYLINE
5
305
100
AcDbEntity
8
0
100
AcDbPolyline
90
4
70
1
43
0.0
10
-219.00000368058681
20
-145.00000312924385
42
-0.99999999999999989
10
-225.00000376999378
20
-145.00000312924385
10
-223.00000374019146
20
-119.00000274181366
42
-0.99999999999999989
10
-221.00000371038914
20
-119.00000274181366
0
LWPOLYLINE
5
306
100
AcDbEntity
8
0
100
AcDbPolyline
90
5
70
1
43
0.0
10
-223.00000368236618
20
-184.00000295863748
42
-0.99999999999999989
10
-221.00000365256386
20
-184.00000295726173
10
-219.30769131624419
20
-206.00006434016774
10
-222.99232007780893
20
-206.00006433998928
10
-224.69231603086928
20
-206.00006433990688
0
LWPOLYLINE
5
307
100
AcDbEntity
8
0
100
AcDbPolyline
90
5
70
1
43
0.0
10
-211.30769131624419
20
-206.00006434016774
10
-214.99232007780893
20
-206.00006433998928
10
-216.69231603086925
20
-206.00006433990688
10
-215.00000368236616
20
-184.00000295863748
42
-0.99999999999999989
10
-213.00000365256383
20
-184.00000295726173
0
LWPOLYLINE
5
308
100
AcDbEntity
8
0
100
AcDbPolyline
90
5
70
1
43
0.0
10
-219.30769131624416
20
-178.00006434016774
10
-222.9923200778089
20
-178.00006433998928
10
-224.69231603086922
20
-178.00006433990688
10
-223.00000368236613
20
-156.00000295863748
42
-0.99999999999999989
10
-221.00000365256381
20
-156.0000029572617
0
LWPOLYLINE
5
309
100
AcDbEntity
8
0
100
AcDbPolyline
90
5
70
1
43
0.0
10
-213.00000365256383
20
-156.0000029572617
10
-211.30769131624419
20
-178.00006434016774
10
-214.99232007780893
20
-178.00006433998928
10
-216.69231603086925
20
-178.00006433990688
10
-215.00000368236616
20
-156.00000295863748
42
-0.99999999999999989
0
LINE
5
310
100
AcDbEntity
8
0
100
AcDbLine
10
86.663227583018895
20
-210.60050996797517
30
0
11
81.000001206994057
21
-210.60050996797517
31
0
0
LINE
5
311
100
AcDbEntity
8
0
100
AcDbLine
10
86.663227583018895
20
-221.5444029685076
30
0
11
81.000001206994057
21
-221.5444029685076
31
0
0
LINE
5
312
100
AcDbEntity
8
0
100
AcDbLine
10
81.000001206994057
20
-221.5444029685076
30
0
11
81.000001206994057
21
-210.60050996797517
31
0
0
CIRCLE
5
313
100
AcDbEntity
8
0
100
AcDbCircle
10
-222.0000037252903
20
-145.00000312924385
30
0
40
2.1999999999999886
0
LINE
5
314
100
AcDbEntity
8
0
100
AcDbLine
10
-222.20685089172076
20
-142.80974874909992
30
0
11
-222.20685089172076
21
-141.00000210106373
31
0
0
LINE
5
315
100
AcDbEntity
8
0
100
AcDbLine
10
-222.20685089172076
20
-141.00000210106373
30
0
11
-221.79999504238367
21
-141.00000210106373
31
0
0
LINE
5
316
100
AcDbEntity
8
0
100
AcDbLine
10
-221.79999504238367
20
-141.00000210106373
30
0
11
-221.79999504238367
21
-142.80911369187785
31
0
0
LWPOLYLINE
5
317
100
AcDbEntity
8
0
100
AcDbPolyline
90
4
70
1
43
0.0
10
-215.00000374019146
20
-119.00000274181366
10
-217.00000376999378
20
-145.00000312924385
42
0.99999999999999989
10
-211.00000368058681
20
-145.00000312924385
10
-213.00000371038914
20
-119.00000274181366
42
0.99999999999999989
0
LINE
5
318
100
AcDbEntity
8
0
100
AcDbLine
10
-213.79999504238367
20
-141.00000210106373
30
0
11
-213.79999504238367
21
-142.80911369187785
31
0
0
CIRCLE
5
319
100
AcDbEntity
8
0
100
AcDbCircle
10
-214.0000037252903
20
-145.00000312924385
30
0
40
2.1999999999999886
0
LINE
5
320
100
AcDbEntity
8
0
100
AcDbLine
10
-214.20685089172076
20
-142.80974874909992
30
0
11
-214.20685089172076
21
-141.00000210106373
31
0
0
LINE
5
321
100
AcDbEntity
8
0
100
AcDbLine
10
-214.20685089172076
20
-141.00000210106373
30
0
11
-213.79999504238367
21
-141.00000210106373
31
0
0
LINE
5
322
100
AcDbEntity
8
0
100
AcDbLine
10
19.873313996097508
20
-192.88138689215737
30
0
11
19.873313996097508
21
-198.00000295042992
31
0
0
LINE
5
323
100
AcDbEntity
8
0
100
AcDbLine
10
19.873313996097508
20
-198.00000295042992
30
0
11
22.873313996097515
21
-198.00000295042992
31
0
0
LINE
5
324
100
AcDbEntity
8
0
100
AcDbLine
10
16.923313996097509
20
-207.367367424956
30
0
11
-10.126686003902492
21
-201.42330172020834
31
0
0
ENDSEC
0
SECTION
2
OBJECTS
0
DICTIONARY
5
C
100
AcDbDictionary
3
ACAD_GROUP
350
D
3
ACAD_MLINESTYLE
350
17
0
DICTIONARY
5
D
100
AcDbDictionary
0
DICTIONARY
5
1A
330
C
100
AcDbDictionary
0
DICTIONARY
5
17
100
AcDbDictionary
0
ENDSEC
0
EOF
