0
SECTION
2
HEADER
9
$INSUNITS
70
4
9
$ACADVER
1
AC1014
9
$HANDSEED
5
FFFF
0
ENDSEC
0
SECTION
2
TABLES
0
TABLE
2
VPORT
5
8
100
AcDbSymbolTable
0
ENDTAB
0
TABLE
2
LTYPE
5
5
100
AcDbSymbolTable
0
LTYPE
5
14
100
AcDbSymbolTableRecord
100
AcDbLinetypeTableRecord
2
BYBLOCK
70
0
0
LTYPE
5
15
100
AcDbSymbolTableRecord
100
AcDbLinetypeTableRecord
2
BYLAYER
70
0
0
ENDTAB
0
TABLE
2
LAYER
5
2
100
AcDbSymbolTable
70
2
0
LAYER
5
50
100
AcDbSymbolTableRecord
100
AcDbLayerTableRecord
2
0
70
0
6
CONTINUOUS
0
ENDTAB
0
TABLE
2
STYLE
5
3
100
AcDbSymbolTable
70
1
0
STYLE
5
11
100
AcDbSymbolTableRecord
100
AcDbTextStyleTableRecord
2
STANDARD
70
0
0
ENDTAB
0
TABLE
2
VIEW
5
6
100
AcDbSymbolTable
70
0
0
ENDTAB
0
TABLE
2
UCS
5
7
100
AcDbSymbolTable
70
0
0
ENDTAB
0
TABLE
2
APPID
5
9
100
AcDbSymbolTable
70
2
0
APPID
5
12
100
AcDbSymbolTableRecord
100
AcDbRegAppTableRecord
2
ACAD
70
0
0
ENDTAB
0
TABLE
2
DIMSTYLE
5
A
100
AcDbSymbolTable
70
1
0
ENDTAB
0
TABLE
2
BLOCK_RECORD
5
1
100
AcDbSymbolTable
70
1
0
BLOCK_RECORD
5
1F
100
AcDbSymbolTableRecord
100
AcDbBlockTableRecord
2
*MODEL_SPACE
0
BLOCK_RECORD
5
1B
100
AcDbSymbolTableRecord
100
AcDbBlockTableRecord
2
*PAPER_SPACE
0
ENDTAB
0
ENDSEC
0
SECTION
2
BLOCKS
0
BLOCK
5
20
100
AcDbEntity
100
AcDbBlockBegin
2
*MODEL_SPACE
0
ENDBLK
5
21
100
AcDbEntity
100
AcDbBlockEnd
0
BLOCK
5
1C
100
AcDbEntity
100
AcDbBlockBegin
2
*PAPER_SPACE
0
ENDBLK
5
1D
100
AcDbEntity
100
AcDbBlockEnd
0
ENDSEC
0
SECTION
2
ENTITIES
0
LWPOLYLINE
5
100
100
AcDbEntity
8
0
100
AcDbPolyline
90
32
70
1
43
0.0
10
-200
20
50
10
-225
20
-25
10
-150
20
-250
10
-240
20
-250
10
-288
20
-180
10
-288
20
-65
10
-288
20
-63.052538624317364
10
-312
20
-63.052538624317364
10
-312
20
-65
10
-312
20
-180
10
-360
20
-250
10
-450
20
-250
10
-375
20
-25
10
-400
20
50
10
-400
20
74
10
-370
20
74
10
-370
20
66
10
-385
20
66
10
-386.5
20
66
10
-385
20
50
10
-350
20
30
10
-338.57142857142856
20
50
10
-312
20
50
10
-288
20
50
10
-261.42857142857144
20
50
10
-250
20
30
10
-215
20
50
10
-213.5
20
66
10
-215
20
66
10
-230
20
66
10
-230
20
74
10
-200
20
74
0
LWPOLYLINE
5
101
100
AcDbEntity
8
0
100
AcDbPolyline
90
32
70
1
43
0.0
10
-150
20
100
10
-240
20
100
10
-288
20
170
10
-312
20
170
10
-360
20
100
10
-450
20
100
10
-375
20
325
10
-400
20
400
10
-400
20
424
10
-370
20
424
10
-370
20
416
10
-385
20
416
10
-386.5
20
416
10
-385
20
400
10
-350
20
380
10
-338.57142857142856
20
400
10
-312
20
400
10
-312
20
285
10
-312
20
282.9999990016222
10
-288
20
282.9999990016222
10
-288
20
285
10
-288
20
400
10
-261.42857142857144
20
400
10
-250
20
380
10
-215
20
400
10
-213.5
20
416
10
-215
20
416
10
-230
20
416
10
-230
20
424
10
-200
20
424
10
-200
20
400
10
-225
20
325
0
LWPOLYLINE
5
102
100
AcDbEntity
8
0
100
AcDbPolyline
90
32
70
1
43
0.0
10
-312
20
282.9999990016222
10
-288
20
282.9999990016222
10
-288
20
285
10
-288
20
400
10
-261.42857142857144
20
400
10
-250
20
380
10
-215
20
400
10
-213.5
20
416
10
-215
20
416
10
-230
20
416
10
-230
20
424
10
-200
20
424
10
-200
20
400
10
-225
20
325
10
-150
20
100
10
-240
20
100
10
-288
20
170
10
-312
20
170
10
-360
20
100
10
-450
20
100
10
-375
20
325
10
-400
20
400
10
-400
20
424
10
-370
20
424
10
-370
20
416
10
-385
20
416
10
-386.5
20
416
10
-385
20
400
10
-350
20
380
10
-338.57142857142856
20
400
10
-312
20
400
10
-312
20
285
0
LWPOLYLINE
5
103
100
AcDbEntity
8
0
100
AcDbPolyline
90
32
70
1
43
0.0
10
-215
20
50
10
-213.5
20
66
10
-215
20
66
10
-230
20
66
10
-230
20
74
10
-200
20
74
10
-200
20
50
10
-225
20
-25
10
-150
20
-250
10
-240
20
-250
10
-288
20
-180
10
-288
20
-65
10
-288
20
-63.052538624317364
10
-312
20
-63.052538624317364
10
-312
20
-65
10
-312
20
-180
10
-360
20
-250
10
-450
20
-250
10
-375
20
-25
10
-400
20
50
10
-400
20
74
10
-370
20
74
10
-370
20
66
10
-385
20
66
10
-386.5
20
66
10
-385
20
50
10
-350
20
30
10
-338.57142857142856
20
50
10
-312
20
50
10
-288
20
50
10
-261.42857142857144
20
50
10
-250
20
30
0
LWPOLYLINE
5
104
100
AcDbEntity
8
0
100
AcDbPolyline
90
32
70
1
43
0.0
10
21.999999999999993
20
50
10
-1.9999999999999929
20
50
10
-28.571428571428541
20
50
10
-40
20
30
10
-75
20
50
10
-76.499999999999986
20
66
10
-75
20
66
10
-60
20
66
10
-60
20
74
10
-90
20
74
10
-90
20
50
10
-65
20
-25
10
-140
20
-250
10
-50
20
-250
10
-1.9999999999999929
20
-180
10
-1.9999999999999929
20
-65
10
-1.9999999999999929
20
-63.052538624317364
10
21.999999999999993
20
-63.052538624317364
10
21.999999999999993
20
-65
10
21.999999999999993
20
-180
10
70
20
-250
10
160
20
-250
10
85
20
-25
10
110
20
50
10
110
20
74
10
80
20
74
10
80
20
66
10
95
20
66
10
96.499999999999986
20
66
10
95
20
50
10
60
20
30
10
48.571428571428577
20
50
0
LWPOLYLINE
5
105
100
AcDbEntity
8
0
100
AcDbPolyline
90
32
70
1
43
0.0
10
110
20
400
10
85
20
325
10
160
20
100
10
70
20
100
10
21.999999999999993
20
170
10
-1.9999999999999929
20
170
10
-50
20
100
10
-140
20
100
10
-65
20
325
10
-90
20
400
10
-90
20
424
10
-60
20
424
10
-60
20
416
10
-75
20
416
10
-76.499999999999986
20
416
10
-75
20
400
10
-40
20
380
10
-28.571428571428541
20
400
10
-1.9999999999999929
20
400
10
-1.9999999999999929
20
285
10
-1.9999999999999929
20
282.9999990016222
10
21.999999999999993
20
282.9999990016222
10
21.999999999999993
20
285
10
21.999999999999993
20
400
10
48.571428571428577
20
400
10
60
20
380
10
95
20
400
10
96.499999999999986
20
416
10
95
20
416
10
80
20
416
10
80
20
424
10
110
20
424
0
LWPOLYLINE
5
106
100
AcDbEntity
8
0
100
AcDbPolyline
90
32
70
1
43
0.0
10
48.571428571428577
20
50
10
60
20
30
10
95
20
50
10
96.499999999999986
20
66
10
95
20
66
10
80
20
66
10
80
20
74
10
110
20
74
10
110
20
50
10
85
20
-25
10
160
20
-250
10
70
20
-250
10
21.999999999999993
20
-180
10
21.999999999999993
20
-65
10
21.999999999999993
20
-63.052538624317364
10
-1.9999999999999929
20
-63.052538624317364
10
-1.9999999999999929
20
-65
10
-1.9999999999999929
20
-180
10
-50
20
-250
10
-140
20
-250
10
-65
20
-25
10
-90
20
50
10
-90
20
74
10
-60
20
74
10
-60
20
66
10
-75
20
66
10
-76.499999999999986
20
66
10
-75
20
50
10
-40
20
30
10
-28.571428571428541
20
50
10
-1.9999999999999929
20
50
10
21.999999999999993
20
50
0
LWPOLYLINE
5
107
100
AcDbEntity
8
0
100
AcDbPolyline
90
32
70
1
43
0.0
10
-40
20
380
10
-75
20
400
10
-76.499999999999986
20
416
10
-75
20
416
10
-60
20
416
10
-60
20
424
10
-90
20
424
10
-90
20
400
10
-65
20
325
10
-140
20
100
10
-50
20
100
10
-1.9999999999999929
20
170
10
21.999999999999993
20
170
10
70
20
100
10
160
20
100
10
85
20
325
10
110
20
400
10
110
20
424
10
80
20
424
10
80
20
416
10
95
20
416
10
96.499999999999986
20
416
10
95
20
400
10
60
20
380
10
48.571428571428577
20
400
10
21.999999999999993
20
400
10
21.999999999999993
20
285
10
21.999999999999993
20
282.9999990016222
10
-1.9999999999999929
20
282.9999990016222
10
-1.9999999999999929
20
285
10
-1.9999999999999929
20
400
10
-28.571428571428541
20
400
0
LWPOLYLINE
5
108
100
AcDbEntity
8
0
100
AcDbPolyline
90
32
70
1
43
0.0
10
332
20
50
10
308
20
50
10
281.42857142857144
20
50
10
270
20
30
10
235
20
50
10
233.5
20
66
10
235
20
66
10
250
20
66
10
250
20
74
10
220
20
74
10
220
20
50
10
245
20
-25
10
170
20
-250
10
260
20
-250
10
308
20
-180
10
308
20
-65
10
308
20
-63.052538624317364
10
332
20
-63.052538624317364
10
332
20
-65
10
332
20
-180
10
380
20
-250
10
470
20
-250
10
395
20
-25
10
420
20
50
10
420
20
74
10
390
20
74
10
390
20
66
10
405
20
66
10
406.5
20
66
10
405
20
50
10
370
20
30
10
358.57142857142861
20
50
0
LWPOLYLINE
5
109
100
AcDbEntity
8
0
100
AcDbPolyline
90
32
70
1
43
0.0
10
420
20
400
10
395
20
325
10
470
20
100
10
380
20
100
10
332
20
170
10
308
20
170
10
260
20
100
10
170
20
100
10
245
20
325
10
220
20
400
10
220
20
424
10
250
20
424
10
250
20
416
10
235
20
416
10
233.5
20
416
10
235
20
400
10
270
20
380
10
281.42857142857144
20
400
10
308
20
400
10
308
20
285
10
308
20
282.9999990016222
10
332
20
282.9999990016222
10
332
20
285
10
332
20
400
10
358.57142857142861
20
400
10
370
20
380
10
405
20
400
10
406.5
20
416
10
405
20
416
10
390
20
416
10
390
20
424
10
420
20
424
0
LWPOLYLINE
5
110
100
AcDbEntity
8
0
100
AcDbPolyline
90
32
70
1
43
0.0
10
358.57142857142861
20
50
10
370
20
30
10
405
20
50
10
406.5
20
66
10
405
20
66
10
390
20
66
10
390
20
74
10
420
20
74
10
420
20
50
10
395
20
-25
10
470
20
-250
10
380
20
-250
10
332
20
-180
10
332
20
-65
10
332
20
-63.052538624317364
10
308
20
-63.052538624317364
10
308
20
-65
10
308
20
-180
10
260
20
-250
10
170
20
-250
10
245
20
-25
10
220
20
50
10
220
20
74
10
250
20
74
10
250
20
66
10
235
20
66
10
233.5
20
66
10
235
20
50
10
270
20
30
10
281.42857142857144
20
50
10
308
20
50
10
332
20
50
0
LWPOLYLINE
5
111
100
AcDbEntity
8
0
100
AcDbPolyline
90
32
70
1
43
0.0
10
270
20
380
10
235
20
400
10
233.5
20
416
10
235
20
416
10
250
20
416
10
250
20
424
10
220
20
424
10
220
20
400
10
245
20
325
10
170
20
100
10
260
20
100
10
308
20
170
10
332
20
170
10
380
20
100
10
470
20
100
10
395
20
325
10
420
20
400
10
420
20
424
10
390
20
424
10
390
20
416
10
405
20
416
10
406.5
20
416
10
405
20
400
10
370
20
380
10
358.57142857142861
20
400
10
332
20
400
10
332
20
285
10
332
20
282.9999990016222
10
308
20
282.9999990016222
10
308
20
285
10
308
20
400
10
281.42857142857144
20
400
0
LINE
5
112
100
AcDbEntity
8
0
100
AcDbLine
10
-12.000000000000028
20
496
30
0
11
11.999999999999957
21
466
31
0
0
LINE
5
113
100
AcDbEntity
8
0
100
AcDbLine
10
100
20
554
30
0
11
100
21
551.9999988079071
31
0
0
LINE
5
114
100
AcDbEntity
8
0
100
AcDbLine
10
11.99999919533731
20
497.99999451637268
30
0
11
12.000000000000028
21
496
31
0
0
CIRCLE
5
115
100
AcDbEntity
8
0
100
AcDbCircle
10
0
20
566
30
0
40
140.00000000000003
0
ARC
5
116
100
AcDbEntity
8
0
100
AcDbCircle
10
0
20
566
30
0
40
100.71742649611336
100
AcDbArc
50
6.8427734126309163
51
29.684301399407072
0
ARC
5
117
100
AcDbEntity
8
0
100
AcDbCircle
10
0
20
566
30
0
40
100.71742649611338
100
AcDbArc
50
-6.842773412630895
51
6.8427734126309163
0
ARC
5
118
100
AcDbEntity
8
0
100
AcDbCircle
10
0
20
566
30
0
40
85.842879728024016
100
AcDbArc
50
8.03571071053479
51
28.035710710534829
0
ARC
5
119
100
AcDbEntity
8
0
100
AcDbCircle
10
0
20
566
30
0
40
100.71742649611329
100
AcDbArc
50
83.157226587369081
51
96.842773412630962
0
ARC
5
120
100
AcDbEntity
8
0
100
AcDbCircle
10
0
20
566
30
0
40
100.71742649611336
100
AcDbArc
50
276.84277341263095
51
299.6843013994071
0
ARC
5
121
100
AcDbEntity
8
0
100
AcDbCircle
10
0
20
566
30
0
40
100.71742649611338
100
AcDbArc
50
263.15722658736905
51
276.84277341263095
0
ARC
5
122
100
AcDbEntity
8
0
100
AcDbCircle
10
0
20
566
30
0
40
85.842879728024016
100
AcDbArc
50
278.03571071053477
51
298.03571071053477
0
LINE
5
123
100
AcDbEntity
8
0
100
AcDbLine
10
-12.000000000000028
20
636
30
0
11
-12.000000000000028
21
651
31
0
0
LINE
5
124
100
AcDbEntity
8
0
100
AcDbLine
10
11.999999999999957
20
636
30
0
11
-12.000000000000028
21
666
31
0
0
LINE
5
125
100
AcDbEntity
8
0
100
AcDbLine
10
11.999999999999957
20
666
30
0
11
-12.000000000000028
21
636
31
0
0
LINE
5
126
100
AcDbEntity
8
0
100
AcDbLine
10
11.999999999999957
20
666
30
0
11
14.000001192092881
21
666
31
0
0
LINE
5
127
100
AcDbEntity
8
0
100
AcDbLine
10
14.000001192092881
20
666
30
0
11
14.000001192092881
21
636.00000551342964
31
0
0
LINE
5
128
100
AcDbEntity
8
0
100
AcDbLine
10
14.000001192092881
20
636.00000551342964
30
0
11
14.000001192092881
21
634.00000548362732
31
0
0
LINE
5
129
100
AcDbEntity
8
0
100
AcDbLine
10
14.000001192092881
20
634.00000548362732
30
0
11
-11.99999919533731
21
634.00000548362732
31
0
0
LINE
5
130
100
AcDbEntity
8
0
100
AcDbLine
10
-11.99999919533731
20
634.00000548362732
30
0
11
-12.000000000000028
21
636
31
0
0
LINE
5
131
100
AcDbEntity
8
0
100
AcDbLine
10
70.000005513429642
20
551.9999988079071
30
0
11
68.000005483627319
21
551.9999988079071
31
0
0
LINE
5
132
100
AcDbEntity
8
0
100
AcDbLine
10
40.348023632112735
20
490.23036895310582
30
0
11
49.03682240241519
21
478.00315439175984
31
0
0
LINE
5
133
100
AcDbEntity
8
0
100
AcDbLine
10
12.000000000000028
20
496
30
0
11
11.999999999999957
21
481
31
0
0
LINE
5
134
100
AcDbEntity
8
0
100
AcDbLine
10
-12.000000000000028
20
466
30
0
11
12.000000000000028
21
496
31
0
0
LINE
5
135
100
AcDbEntity
8
0
100
AcDbLine
10
-12.000000000000028
20
466
30
0
11
-14.000001192092881
21
466
31
0
0
LINE
5
136
100
AcDbEntity
8
0
100
AcDbLine
10
-14.000001192092881
20
466
30
0
11
-14.000001192092881
21
495.99999448657036
31
0
0
CIRCLE
5
137
100
AcDbEntity
8
0
100
AcDbCircle
10
-300
20
566
30
0
40
140.00000000000003
0
LINE
5
138
100
AcDbEntity
8
0
100
AcDbLine
10
100
20
551.9999988079071
30
0
11
70.000005513429642
21
551.9999988079071
31
0
0
LINE
5
139
100
AcDbEntity
8
0
100
AcDbLine
10
288
20
466
30
0
11
312
21
496
31
0
0
LINE
5
140
100
AcDbEntity
8
0
100
AcDbLine
10
288
20
498.0000034570694
30
0
11
311.9999991953373
21
497.99999451637268
31
0
0
ARC
5
141
100
AcDbEntity
8
0
100
AcDbCircle
10
300
20
566
30
0
40
100.71742649611336
100
AcDbArc
50
173.15722658736908
51
186.84277341263092
0
LINE
5
142
100
AcDbEntity
8
0
100
AcDbLine
10
70
20
554
30
0
11
100
21
578
31
0
0
LINE
5
143
100
AcDbEntity
8
0
100
AcDbLine
10
75.76963104689419
20
606.34802363211281
30
0
11
87.996845608240193
21
615.03682240241517
31
0
0
ARC
5
144
100
AcDbEntity
8
0
100
AcDbCircle
10
300
20
566
30
0
40
100.71742649611338
100
AcDbArc
50
-6.842773412630895
51
6.8427734126309163
0
ARC
5
145
100
AcDbEntity
8
0
100
AcDbCircle
10
300
20
566
30
0
40
100.7174264961133
100
AcDbArc
50
83.157226587369053
51
96.842773412630947
0
LINE
5
146
100
AcDbEntity
8
0
100
AcDbLine
10
-14.000001192092881
20
497.99999451637268
30
0
11
11.99999919533731
21
497.99999451637268
31
0
0
LINE
5
147
100
AcDbEntity
8
0
100
AcDbLine
10
-14.000001192092881
20
495.99999448657036
30
0
11
-14.000001192092881
21
497.99999451637268
31
0
0
LINE
5
148
100
AcDbEntity
8
0
100
AcDbLine
10
100
20
554
30
0
11
70
21
578
31
0
0
ARC
5
149
100
AcDbEntity
8
0
100
AcDbCircle
10
0
20
566
30
0
40
85.84287972802403
100
AcDbArc
50
188.0357107105348
51
208.03571071053474
0
LINE
5
150
100
AcDbEntity
8
0
100
AcDbLine
10
-40.348023632112771
20
641.76963104689423
30
0
11
-49.036822402415225
21
653.99684560824028
31
0
0
LINE
5
151
100
AcDbEntity
8
0
100
AcDbLine
10
-68.000005483627319
20
554.0000008046627
30
0
11
-70
21
554
31
0
0
LINE
5
152
100
AcDbEntity
8
0
100
AcDbLine
10
-68.000005483627319
20
580.0000011920929
30
0
11
-68.000005483627319
21
554.0000008046627
31
0
0
LINE
5
153
100
AcDbEntity
8
0
100
AcDbLine
10
-70.000005513429642
20
580.0000011920929
30
0
11
-68.000005483627319
21
580.0000011920929
31
0
0
LINE
5
154
100
AcDbEntity
8
0
100
AcDbLine
10
-100
20
580.0000011920929
30
0
11
-70.000005513429642
21
580.0000011920929
31
0
0
LINE
5
155
100
AcDbEntity
8
0
100
AcDbLine
10
-100
20
578
30
0
11
-100
21
580.0000011920929
31
0
0
LINE
5
156
100
AcDbEntity
8
0
100
AcDbLine
10
68.000005483627319
20
577.9999991953373
30
0
11
70
21
578
31
0
0
LINE
5
157
100
AcDbEntity
8
0
100
AcDbLine
10
-314.0000011920929
20
466
30
0
11
-314.0000011920929
21
495.99999448657036
31
0
0
LINE
5
158
100
AcDbEntity
8
0
100
AcDbLine
10
-314.0000011920929
20
495.99999448657036
30
0
11
-314.0000011920929
21
497.99999451637268
31
0
0
LINE
5
159
100
AcDbEntity
8
0
100
AcDbLine
10
-314.0000011920929
20
497.99999451637268
30
0
11
-288.0000008046627
21
497.99999451637268
31
0
0
LINE
5
160
100
AcDbEntity
8
0
100
AcDbLine
10
-288.0000008046627
20
497.99999451637268
30
0
11
-288
21
496
31
0
0
LINE
5
161
100
AcDbEntity
8
0
100
AcDbLine
10
-368.00000548362732
20
554.0000008046627
30
0
11
-370
21
554
31
0
0
LINE
5
162
100
AcDbEntity
8
0
100
AcDbLine
10
-368.00000548362732
20
580.0000011920929
30
0
11
-368.00000548362732
21
554.0000008046627
31
0
0
LINE
5
163
100
AcDbEntity
8
0
100
AcDbLine
10
-370.00000551342964
20
580.0000011920929
30
0
11
-368.00000548362732
21
580.0000011920929
31
0
0
LINE
5
164
100
AcDbEntity
8
0
100
AcDbLine
10
-400
20
580.0000011920929
30
0
11
-370.00000551342964
21
580.0000011920929
31
0
0
LINE
5
165
100
AcDbEntity
8
0
100
AcDbLine
10
-400
20
578
30
0
11
-400
21
580.0000011920929
31
0
0
LINE
5
166
100
AcDbEntity
8
0
100
AcDbLine
10
-370
20
554
30
0
11
-385
21
554
31
0
0
LINE
5
167
100
AcDbEntity
8
0
100
AcDbLine
10
-375.76963104689418
20
525.6519763678873
30
0
11
-387.99684560824016
21
516.96317759758483
31
0
0
LINE
5
168
100
AcDbEntity
8
0
100
AcDbLine
10
-400
20
578
30
0
11
-370
21
554
31
0
0
LINE
5
169
100
AcDbEntity
8
0
100
AcDbLine
10
-370
20
578
30
0
11
-400
21
554
31
0
0
LINE
5
170
100
AcDbEntity
8
0
100
AcDbLine
10
-70
20
554
30
0
11
-85
21
554
31
0
0
LINE
5
171
100
AcDbEntity
8
0
100
AcDbLine
10
-100
20
578
30
0
11
-70
21
554
31
0
0
LINE
5
172
100
AcDbEntity
8
0
100
AcDbLine
10
-70
20
578
30
0
11
-100
21
554
31
0
0
LINE
5
173
100
AcDbEntity
8
0
100
AcDbLine
10
-75.76963104689419
20
525.6519763678873
30
0
11
-87.996845608240193
21
516.96317759758483
31
0
0
LINE
5
174
100
AcDbEntity
8
0
100
AcDbLine
10
-224.23036895310582
20
606.34802363211281
30
0
11
-212.00315439175981
21
615.03682240241517
31
0
0
LINE
5
175
100
AcDbEntity
8
0
100
AcDbLine
10
-230
20
578
30
0
11
-215
21
578
31
0
0
LINE
5
176
100
AcDbEntity
8
0
100
AcDbLine
10
-230
20
554
30
0
11
-200
21
578
31
0
0
LINE
5
177
100
AcDbEntity
8
0
100
AcDbLine
10
-200
20
554
30
0
11
-230
21
578
31
0
0
LINE
5
178
100
AcDbEntity
8
0
100
AcDbLine
10
-200
20
554
30
0
11
-200
21
551.9999988079071
31
0
0
LINE
5
179
100
AcDbEntity
8
0
100
AcDbLine
10
-200
20
551.9999988079071
30
0
11
-229.99999448657036
21
551.9999988079071
31
0
0
LINE
5
180
100
AcDbEntity
8
0
100
AcDbLine
10
-229.99999448657036
20
551.9999988079071
30
0
11
-231.99999451637268
21
551.9999988079071
31
0
0
LINE
5
181
100
AcDbEntity
8
0
100
AcDbLine
10
-231.99999451637268
20
551.9999988079071
30
0
11
-231.99999451637268
21
577.9999991953373
31
0
0
LINE
5
182
100
AcDbEntity
8
0
100
AcDbLine
10
-231.99999451637268
20
577.9999991953373
30
0
11
-230
21
578
31
0
0
LINE
5
183
100
AcDbEntity
8
0
100
AcDbLine
10
-259.65197636788724
20
490.23036895310582
30
0
11
-250.9631775975848
21
478.00315439175984
31
0
0
ARC
5
184
100
AcDbEntity
8
0
100
AcDbCircle
10
-300
20
566
30
0
40
85.84287972802403
100
AcDbArc
50
188.0357107105348
51
208.03571071053474
0
ARC
5
185
100
AcDbEntity
8
0
100
AcDbCircle
10
-300
20
566
30
0
40
100.71742649611336
100
AcDbArc
50
173.15722658736908
51
186.84277341263092
0
ARC
5
186
100
AcDbEntity
8
0
100
AcDbCircle
10
-300
20
566
30
0
40
100.71742649611338
100
AcDbArc
50
186.84277341263092
51
209.68430139940708
0
ARC
5
187
100
AcDbEntity
8
0
100
AcDbCircle
10
-300
20
566
30
0
40
100.71742649611338
100
AcDbArc
50
263.15722658736905
51
276.84277341263089
0
ARC
5
188
100
AcDbEntity
8
0
100
AcDbCircle
10
-300
20
566
30
0
40
85.842879728023988
100
AcDbArc
50
98.035710710534786
51
118.03571071053479
0
ARC
5
189
100
AcDbEntity
8
0
100
AcDbCircle
10
-300
20
566
30
0
40
100.71742649611329
100
AcDbArc
50
83.157226587369095
51
96.842773412630947
0
ARC
5
190
100
AcDbEntity
8
0
100
AcDbCircle
10
-300
20
566
30
0
40
100.7174264961133
100
AcDbArc
50
96.842773412630947
51
119.68430139940709
0
LINE
5
191
100
AcDbEntity
8
0
100
AcDbLine
10
-340.34802363211276
20
641.76963104689423
30
0
11
-349.03682240241523
21
653.99684560824028
31
0
0
LINE
5
192
100
AcDbEntity
8
0
100
AcDbLine
10
-312
20
636
30
0
11
-312
21
651
31
0
0
LINE
5
193
100
AcDbEntity
8
0
100
AcDbLine
10
-288.00000000000006
20
636
30
0
11
-312
21
666
31
0
0
LINE
5
194
100
AcDbEntity
8
0
100
AcDbLine
10
-288.00000000000006
20
666
30
0
11
-312
21
636
31
0
0
LINE
5
195
100
AcDbEntity
8
0
100
AcDbLine
10
-288.00000000000006
20
666
30
0
11
-285.9999988079071
21
666
31
0
0
LINE
5
196
100
AcDbEntity
8
0
100
AcDbLine
10
-285.9999988079071
20
666
30
0
11
-285.9999988079071
21
636.00000551342964
31
0
0
LINE
5
197
100
AcDbEntity
8
0
100
AcDbLine
10
-285.9999988079071
20
636.00000551342964
30
0
11
-285.9999988079071
21
634.00000548362732
31
0
0
LINE
5
198
100
AcDbEntity
8
0
100
AcDbLine
10
-285.9999988079071
20
634.00000548362732
30
0
11
-311.9999991953373
21
634.00000548362732
31
0
0
LINE
5
199
100
AcDbEntity
8
0
100
AcDbLine
10
-311.9999991953373
20
634.00000548362732
30
0
11
-312
21
636
31
0
0
LINE
5
200
100
AcDbEntity
8
0
100
AcDbLine
10
-288
20
496
30
0
11
-288.00000000000006
21
481
31
0
0
LINE
5
201
100
AcDbEntity
8
0
100
AcDbLine
10
-312
20
496
30
0
11
-288.00000000000006
21
466
31
0
0
LINE
5
202
100
AcDbEntity
8
0
100
AcDbLine
10
-312
20
466
30
0
11
-288
21
496
31
0
0
LINE
5
203
100
AcDbEntity
8
0
100
AcDbLine
10
-312
20
466
30
0
11
-314.0000011920929
21
466
31
0
0
CIRCLE
5
204
100
AcDbEntity
8
0
100
AcDbCircle
10
300
20
566
30
0
40
140.00000000000003
0
ARC
5
205
100
AcDbEntity
8
0
100
AcDbCircle
10
-300
20
566
30
0
40
85.842879728024016
100
AcDbArc
50
278.03571071053477
51
298.03571071053483
0
ARC
5
206
100
AcDbEntity
8
0
100
AcDbCircle
10
-300
20
566
30
0
40
100.71742649611336
100
AcDbArc
50
276.84277341263089
51
299.6843013994071
0
LINE
5
207
100
AcDbEntity
8
0
100
AcDbLine
10
200
20
578
30
0
11
232.0000034570694
21
578
31
0
0
LINE
5
208
100
AcDbEntity
8
0
100
AcDbLine
10
215
20
554
30
0
11
200
21
554
31
0
0
LINE
5
209
100
AcDbEntity
8
0
100
AcDbLine
10
231.99999451637268
20
554.0000008046627
30
0
11
230
21
554
31
0
0
LINE
5
210
100
AcDbEntity
8
0
100
AcDbLine
10
230
20
554
30
0
11
215
21
554
31
0
0
LINE
5
211
100
AcDbEntity
8
0
100
AcDbLine
10
200
20
578
30
0
11
230
21
554
31
0
0
LINE
5
212
100
AcDbEntity
8
0
100
AcDbLine
10
230
20
578
30
0
11
200
21
554
31
0
0
LINE
5
213
100
AcDbEntity
8
0
100
AcDbLine
10
288
20
466
30
0
11
288
21
498.0000034570694
31
0
0
LINE
5
214
100
AcDbEntity
8
0
100
AcDbLine
10
288
20
496
30
0
11
312
21
466
31
0
0
LINE
5
215
100
AcDbEntity
8
0
100
AcDbLine
10
312
20
481
30
0
11
312
21
466
31
0
0
LINE
5
216
100
AcDbEntity
8
0
100
AcDbLine
10
311.9999991953373
20
497.99999451637268
30
0
11
312
21
496
31
0
0
LINE
5
217
100
AcDbEntity
8
0
100
AcDbLine
10
312
20
496
30
0
11
312
21
481
31
0
0
LINE
5
218
100
AcDbEntity
8
0
100
AcDbLine
10
232.0000034570694
20
578
30
0
11
231.99999451637268
21
554.0000008046627
31
0
0
LINE
5
219
100
AcDbEntity
8
0
100
AcDbLine
10
288.0000008046627
20
634.00000548362732
30
0
11
288
21
636
31
0
0
LINE
5
220
100
AcDbEntity
8
0
100
AcDbLine
10
288
20
636
30
0
11
288
21
651
31
0
0
LINE
5
221
100
AcDbEntity
8
0
100
AcDbLine
10
400
20
554
30
0
11
370
21
578
31
0
0
LINE
5
222
100
AcDbEntity
8
0
100
AcDbLine
10
367.9999965429306
20
554
30
0
11
368.00000548362732
21
577.9999991953373
31
0
0
LINE
5
223
100
AcDbEntity
8
0
100
AcDbLine
10
400
20
554
30
0
11
367.9999965429306
21
554
31
0
0
LINE
5
224
100
AcDbEntity
8
0
100
AcDbLine
10
370
20
554
30
0
11
400
21
578
31
0
0
LINE
5
225
100
AcDbEntity
8
0
100
AcDbLine
10
385
20
578
30
0
11
400
21
578
31
0
0
LINE
5
226
100
AcDbEntity
8
0
100
AcDbLine
10
368.00000548362732
20
577.9999991953373
30
0
11
370
21
578
31
0
0
LINE
5
227
100
AcDbEntity
8
0
100
AcDbLine
10
370
20
578
30
0
11
385
21
578
31
0
0
LINE
5
228
100
AcDbEntity
8
0
100
AcDbLine
10
68.000005483627319
20
551.9999988079071
30
0
11
68.000005483627319
21
577.9999991953373
31
0
0
ARC
5
229
100
AcDbEntity
8
0
100
AcDbCircle
10
-300
20
566
30
0
40
85.842879728024016
100
AcDbArc
50
8.03571071053479
51
28.035710710534843
0
ARC
5
230
100
AcDbEntity
8
0
100
AcDbCircle
10
-300
20
566
30
0
40
100.71742649611338
100
AcDbArc
50
-6.842773412630895
51
6.8427734126309163
0
ARC
5
231
100
AcDbEntity
8
0
100
AcDbCircle
10
-300
20
566
30
0
40
100.71742649611336
100
AcDbArc
50
6.8427734126309163
51
29.684301399407072
0
ARC
5
232
100
AcDbEntity
8
0
100
AcDbCircle
10
0
20
566
30
0
40
100.7174264961133
100
AcDbArc
50
96.842773412630962
51
119.6843013994071
0
ARC
5
233
100
AcDbEntity
8
0
100
AcDbCircle
10
0
20
566
30
0
40
85.842879728023988
100
AcDbArc
50
98.035710710534815
51
118.03571071053479
0
ARC
5
234
100
AcDbEntity
8
0
100
AcDbCircle
10
0
20
566
30
0
40
100.71742649611336
100
AcDbArc
50
173.15722658736908
51
186.84277341263092
0
ARC
5
235
100
AcDbEntity
8
0
100
AcDbCircle
10
0
20
566
30
0
40
100.71742649611338
100
AcDbArc
50
186.84277341263092
51
209.68430139940708
0
LINE
5
236
100
AcDbEntity
8
0
100
AcDbLine
10
312
20
666
30
0
11
288
21
636
31
0
0
LINE
5
237
100
AcDbEntity
8
0
100
AcDbLine
10
312
20
633.9999965429306
30
0
11
288.0000008046627
21
634.00000548362732
31
0
0
LINE
5
238
100
AcDbEntity
8
0
100
AcDbLine
10
312
20
666
30
0
11
312
21
633.9999965429306
31
0
0
LINE
5
239
100
AcDbEntity
8
0
100
AcDbLine
10
312
20
636
30
0
11
288
21
666
31
0
0
LINE
5
240
100
AcDbEntity
8
0
100
AcDbLine
10
288
20
651
30
0
11
288
21
666
31
0
0
LINE
5
241
100
AcDbEntity
8
0
100
AcDbLine
10
70
20
578
30
0
11
85
21
578
31
0
0
ARC
5
242
100
AcDbEntity
8
0
100
AcDbCircle
10
300
20
566
30
0
40
100.71742649611338
100
AcDbArc
50
263.15722658736905
51
276.84277341263095
0
ENDSEC
0
SECTION
2
OBJECTS
0
DICTIONARY
5
C
100
AcDbDictionary
3
ACAD_GROUP
350
D
3
ACAD_MLINESTYLE
350
17
0
DICTIONARY
5
D
100
AcDbDictionary
0
DICTIONARY
5
1A
330
C
100
AcDbDictionary
0
DICTIONARY
5
17
100
AcDbDictionary
0
ENDSEC
0
EOF
