  0
SECTION
  2
HEADER
  9
$ACADVER
  1
AC1012
  9
$DWGCODEPAGE
  3
ansi_1256
  9
$INSBASE
 10
0.0
 20
0.0
 30
0.0
  9
$EXTMIN
 10
1.000000000000000E+20
 20
1.000000000000000E+20
 30
1.000000000000000E+20
  9
$EXTMAX
 10
-1.000000000000000E+20
 20
-1.000000000000000E+20
 30
-1.000000000000000E+20
  9
$LIMMIN
 10
0.0
 20
0.0
  9
$LIMMAX
 10
12.0
 20
9.0
  9
$ORTHOMODE
 70
     0
  9
$REGENMODE
 70
     1
  9
$FILLMODE
 70
     1
  9
$QTEXTMODE
 70
     0
  9
$MIRRTEXT
 70
     1
  9
$DRAGMODE
 70
     2
  9
$LTSCALE
 40
1.0
  9
$OSMODE
 70
    37
  9
$ATTMODE
 70
     1
  9
$TEXTSIZE
 40
0.2
  9
$TRACEWID
 40
0.05
  9
$TEXTSTYLE
  7
STANDARD
  9
$CLAYER
  8
0
  9
$CELTYPE
  6
BYLAYER
  9
$CECOLOR
 62
   256
  9
$CELTSCALE
 40
1.0
  9
$DELOBJ
 70
     1
  9
$DISPSILH
 70
     0
  9
$DIMSCALE
 40
1.0
  9
$DIMASZ
 40
0.18
  9
$DIMEXO
 40
0.0625
  9
$DIMDLI
 40
0.38
  9
$DIMRND
 40
0.0
  9
$DIMDLE
 40
0.0
  9
$DIMEXE
 40
0.18
  9
$DIMTP
 40
0.0
  9
$DIMTM
 40
0.0
  9
$DIMTXT
 40
0.18
  9
$DIMCEN
 40
0.09
  9
$DIMTSZ
 40
0.0
  9
$DIMTOL
 70
     0
  9
$DIMLIM
 70
     0
  9
$DIMTIH
 70
     1
  9
$DIMTOH
 70
     1
  9
$DIMSE1
 70
     0
  9
$DIMSE2
 70
     0
  9
$DIMTAD
 70
     0
  9
$DIMZIN
 70
     0
  9
$DIMBLK
  1

  9
$DIMASO
 70
     1
  9
$DIMSHO
 70
     1
  9
$DIMPOST
  1

  9
$DIMAPOST
  1

  9
$DIMALT
 70
     0
  9
$DIMALTD
 70
     2
  9
$DIMALTF
 40
25.4
  9
$DIMLFAC
 40
1.0
  9
$DIMTOFL
 70
     0
  9
$DIMTVP
 40
0.0
  9
$DIMTIX
 70
     0
  9
$DIMSOXD
 70
     0
  9
$DIMSAH
 70
     0
  9
$DIMBLK1
  1

  9
$DIMBLK2
  1

  9
$DIMSTYLE
  2
STANDARD
  9
$DIMCLRD
 70
     0
  9
$DIMCLRE
 70
     0
  9
$DIMCLRT
 70
     0
  9
$DIMTFAC
 40
1.0
  9
$DIMGAP
 40
0.09
  9
$DIMJUST
 70
     0
  9
$DIMSD1
 70
     0
  9
$DIMSD2
 70
     0
  9
$DIMTOLJ
 70
     1
  9
$DIMTZIN
 70
     0
  9
$DIMALTZ
 70
     0
  9
$DIMALTTZ
 70
     0
  9
$DIMFIT
 70
     3
  9
$DIMUPT
 70
     0
  9
$DIMUNIT
 70
     2
  9
$DIMDEC
 70
     4
  9
$DIMTDEC
 70
     4
  9
$DIMALTU
 70
     2
  9
$DIMALTTD
 70
     2
  9
$DIMTXSTY
  7
STANDARD
  9
$DIMAUNIT
 70
     0
  9
$LUNITS
 70
     2
  9
$LUPREC
 70
     4
  9
$SKETCHINC
 40
0.1
  9
$FILLETRAD
 40
0.5
  9
$AUNITS
 70
     0
  9
$AUPREC
 70
     0
  9
$MENU
  1
.
  9
$ELEVATION
 40
0.0
  9
$PELEVATION
 40
0.0
  9
$THICKNESS
 40
0.0
  9
$LIMCHECK
 70
     0
  9
$CHAMFERA
 40
0.5
  9
$CHAMFERB
 40
0.5
  9
$CHAMFERC
 40
1.0
  9
$CHAMFERD
 40
0.0
  9
$SKPOLY
 70
     0
  9
$TDCREATE
 40
2458274.437870208
  9
$TDUPDATE
 40
2458274.437870428
  9
$TDINDWG
 40
0.0000000116
  9
$TDUSRTIMER
 40
0.0000000116
  9
$USRTIMER
 70
     1
  9
$ANGBASE
 50
0.0
  9
$ANGDIR
 70
     0
  9
$PDMODE
 70
     0
  9
$PDSIZE
 40
0.0
  9
$PLINEWID
 40
0.0
  9
$COORDS
 70
     1
  9
$SPLFRAME
 70
     0
  9
$SPLINETYPE
 70
     6
  9
$SPLINESEGS
 70
     8
  9
$ATTDIA
 70
     0
  9
$ATTREQ
 70
     1
  9
$HANDLING
 70
     1
  9
$HANDSEED
  5
240
  9
$SURFTAB1
 70
     6
  9
$SURFTAB2
 70
     6
  9
$SURFTYPE
 70
     6
  9
$SURFU
 70
     6
  9
$SURFV
 70
     6
  9
$UCSNAME
  2

  9
$UCSORG
 10
0.0
 20
0.0
 30
0.0
  9
$UCSXDIR
 10
1.0
 20
0.0
 30
0.0
  9
$UCSYDIR
 10
0.0
 20
1.0
 30
0.0
  9
$PUCSNAME
  2

  9
$PUCSORG
 10
0.0
 20
0.0
 30
0.0
  9
$PUCSXDIR
 10
1.0
 20
0.0
 30
0.0
  9
$PUCSYDIR
 10
0.0
 20
1.0
 30
0.0
  9
$USERI1
 70
     0
  9
$USERI2
 70
     0
  9
$USERI3
 70
     0
  9
$USERI4
 70
     0
  9
$USERI5
 70
     0
  9
$USERR1
 40
0.0
  9
$USERR2
 40
0.0
  9
$USERR3
 40
0.0
  9
$USERR4
 40
0.0
  9
$USERR5
 40
0.0
  9
$WORLDVIEW
 70
     1
  9
$SHADEDGE
 70
     3
  9
$SHADEDIF
 70
    70
  9
$TILEMODE
 70
     1
  9
$MAXACTVP
 70
    64
  9
$PINSBASE
 10
0.0
 20
0.0
 30
0.0
  9
$PLIMCHECK
 70
     0
  9
$PEXTMIN
 10
1.000000000000000E+20
 20
1.000000000000000E+20
 30
1.000000000000000E+20
  9
$PEXTMAX
 10
-1.000000000000000E+20
 20
-1.000000000000000E+20
 30
-1.000000000000000E+20
  9
$PLIMMIN
 10
0.0
 20
0.0
  9
$PLIMMAX
 10
12.0
 20
9.0
  9
$UNITMODE
 70
     0
  9
$VISRETAIN
 70
     1
  9
$PLINEGEN
 70
     0
  9
$PSLTSCALE
 70
     1
  9
$TREEDEPTH
 70
  3020
  9
$PICKSTYLE
 70
     1
  9
$CMLSTYLE
  2
STANDARD
  9
$CMLJUST
 70
     0
  9
$CMLSCALE
 40
1.0
  9
$SAVEIMAGES
 70
     1
  0
ENDSEC
  0
SECTION
  2
CLASSES
  0
CLASS
  1
ACDBDICTIONARYWDFLT
  2
AcDbDictionaryWithDefault
  3
ObjectDBX Classes
 90
    32768
280
     0
281
     0
  0
CLASS
  1
VISUALSTYLE
  2
AcDbVisualStyle
  3
ObjectDBX Classes
 90
     4095
280
     0
281
     0
  0
CLASS
  1
MATERIAL
  2
AcDbMaterial
  3
ObjectDBX Classes
 90
     1153
280
     0
281
     0
  0
CLASS
  1
SUN
  2
AcDbSun
  3
SCENEOE
 90
     1024
280
     0
281
     0
  0
CLASS
  1
DICTIONARYVAR
  2
AcDbDictionaryVar
  3
ObjectDBX Classes
 90
        0
280
     0
281
     0
  0
CLASS
  1
XRECORD
  2
AcDbXrecord
  3
AutoCAD 2000
 90
    32768
280
     0
281
     0
  0
CLASS
  1
LWPOLYLINE
  2
AcDbPolyline
  3
AutoCAD 2000
 90
    32768
280
     0
281
     1
  0
CLASS
  1
HATCH
  2
AcDbHatch
  3
AutoCAD 2000
 90
    32768
280
     0
281
     1
  0
CLASS
  1
ACDBPLACEHOLDER
  2
AcDbPlaceHolder
  3
ObjectDBX Classes
 90
        0
280
     0
281
     0
  0
CLASS
  1
LAYOUT
  2
AcDbLayout
  3
ObjectDBX Classes
 90
        0
280
     0
281
     0
  0
ENDSEC
  0
SECTION
  2
TABLES
  0
TABLE
  2
VPORT
  5
8
330
0
100
AcDbSymbolTable
 70
     1
  0
VPORT
  5
29
330
8
100
AcDbSymbolTableRecord
100
AcDbViewportTableRecord
  2
*ACTIVE
 70
     0
 10
0.0
 20
0.0
 11
1.0
 21
1.0
 12
0.0
 22
0.0
 13
0.0
 23
0.0
 14
0.5
 24
0.5
 15
0.5
 25
0.5
 16
0.0
 26
0.0
 36
1.0
 17
1041.421052631579
 27
1410.817151521381
 37
0.0
 40
2034.210526315792
 41
1.108667529107372
 42
50.0
 43
0.0
 44
0.0
 50
0.0
 51
0.0
 71
     0
 72
   100
 73
     1
 74
     3
 75
     0
 76
     0
 77
     0
 78
     0
  0
ENDTAB
  0
TABLE
  2
LTYPE
  5
5
330
0
100
AcDbSymbolTable
 70
     1
  0
LTYPE
  5
14
330
5
100
AcDbSymbolTableRecord
100
AcDbLinetypeTableRecord
  2
BYBLOCK
 70
     0
  3

 72
    65
 73
     0
 40
0.0
  0
LTYPE
  5
15
330
5
100
AcDbSymbolTableRecord
100
AcDbLinetypeTableRecord
  2
BYLAYER
 70
     0
  3

 72
    65
 73
     0
 40
0.0
  0
LTYPE
  5
16
330
5
100
AcDbSymbolTableRecord
100
AcDbLinetypeTableRecord
  2
CONTINUOUS
 70
     0
  3
Solid line
 72
    65
 73
     0
 40
0.0
  0
ENDTAB
  0
TABLE
  2
LAYER
  5
2
330
0
100
AcDbSymbolTable
 70
     2
  0
LAYER
  5
10
330
2
100
AcDbSymbolTableRecord
100
AcDbLayerTableRecord
  2
0
 70
     0
 62
     7
  6
CONTINUOUS
  0
LAYER
  5
40
330
2
100
AcDbSymbolTableRecord
100
AcDbLayerTableRecord
  2
LAYER_1
 70
     0
 62
     7
  6
CONTINUOUS
  0
ENDTAB
  0
TABLE
  2
STYLE
  5
3
330
0
100
AcDbSymbolTable
 70
     1
  0
STYLE
  5
11
330
3
100
AcDbSymbolTableRecord
100
AcDbTextStyleTableRecord
  2
STANDARD
 70
     0
 40
0.0
 41
1.0
 50
0.0
 71
     0
 42
0.2
  3
txt
  4

  0
ENDTAB
  0
TABLE
  2
VIEW
  5
6
330
0
100
AcDbSymbolTable
 70
     0
  0
ENDTAB
  0
TABLE
  2
UCS
  5
7
330
0
100
AcDbSymbolTable
 70
     0
  0
ENDTAB
  0
TABLE
  2
APPID
  5
9
330
0
100
AcDbSymbolTable
 70
     1
  0
APPID
  5
12
330
9
100
AcDbSymbolTableRecord
100
AcDbRegAppTableRecord
  2
ACAD
 70
     0
  0
ENDTAB
  0
TABLE
  2
DIMSTYLE
  5
A
330
0
100
AcDbSymbolTable
 70
     1
  0
DIMSTYLE
105
27
330
A
100
AcDbSymbolTableRecord
100
AcDbDimStyleTableRecord
  2
STANDARD
 70
     0
  3

  4

  5

  6

  7

 40
1.0
 41
0.18
 42
0.0625
 43
0.38
 44
0.18
 45
0.0
 46
0.0
 47
0.0
 48
0.0
140
0.18
141
0.09
142
0.0
143
25.4
144
1.0
145
0.0
146
1.0
147
0.09
 71
     0
 72
     0
 73
     1
 74
     1
 75
     0
 76
     0
 77
     0
 78
     0
170
     0
171
     2
172
     0
173
     0
174
     0
175
     0
176
     0
177
     0
178
     0
270
     2
271
     4
272
     4
273
     2
274
     2
340
11
275
     0
280
     0
281
     0
282
     0
283
     1
284
     0
285
     0
286
     0
287
     3
288
     0
  0
ENDTAB
  0
TABLE
  2
BLOCK_RECORD
  5
1
330
0
100
AcDbSymbolTable
 70
     1
  0
BLOCK_RECORD
  5
1F
330
1
100
AcDbSymbolTableRecord
100
AcDbBlockTableRecord
  2
*MODEL_SPACE
  0
BLOCK_RECORD
  5
1B
330
1
100
AcDbSymbolTableRecord
100
AcDbBlockTableRecord
  2
*PAPER_SPACE
  0
ENDTAB
  0
ENDSEC
  0
SECTION
  2
BLOCKS
  0
BLOCK
  5
20
330
1F
100
AcDbEntity
  8
0
100
AcDbBlockBegin
  2
*MODEL_SPACE
 70
     0
 10
0.0
 20
0.0
 30
0.0
  3
*MODEL_SPACE
  1

  0
ENDBLK
  5
21
330
1F
100
AcDbEntity
  8
0
100
AcDbBlockEnd
  0
BLOCK
  5
1C
330
1B
100
AcDbEntity
 67
     1
  8
0
100
AcDbBlockBegin
  2
*PAPER_SPACE
 70
     0
 10
0.0
 20
0.0
 30
0.0
  3
*PAPER_SPACE
  1

  0
ENDBLK
  5
1D
330
1B
100
AcDbEntity
 67
     1
  8
0
100
AcDbBlockEnd
  0
ENDSEC
  0
SECTION
  2
ENTITIES
  0
POLYLINE
  5
41
330
1F
100
AcDbEntity
  8
LAYER_1
 62
     7
100
AcDb2dPolyline
 66
     1
 10
0.0
 20
0.0
 30
0.0
  0
VERTEX
  5
42
330
41
100
AcDbEntity
  8
LAYER_1
 62
     7
100
AcDbVertex
100
AcDb2dVertex
 10
2033.824560755791
 20
910.5403758372959
 30
0.0
  0
VERTEX
  5
43
330
41
100
AcDbEntity
  8
LAYER_1
 62
     7
100
AcDbVertex
100
AcDb2dVertex
 10
1835.399375075402
 20
910.5403758194789
 30
0.0
  0
SEQEND
  5
44
330
41
100
AcDbEntity
  8
LAYER_1
 62
     7
  0
SPLINE
  5
45
330
1F
100
AcDbEntity
  8
LAYER_1
 62
     7
100
AcDbSpline
210
0.0
220
0.0
230
1.0
 70
     8
 71
     3
 72
     8
 73
     4
 74
     0
 42
0.0000000001
 43
0.0000000001
 12
1.0
 22
0.0
 32
0.0
 13
1.0
 23
0.0
 33
0.0
 40
0.0
 40
0.0
 40
0.0
 40
0.0
 40
1.0
 40
1.0
 40
1.0
 40
1.0
 10
1835.399375075402
 20
910.5403758194789
 30
0.0
 10
1835.244355399089
 20
910.5403758194643
 30
0.0
 10
1835.111481390832
 20
910.4185745079267
 30
0.0
 10
1835.111481390846
 20
910.2524835498916
 30
0.0
  0
SPLINE
  5
46
330
1F
100
AcDbEntity
  8
LAYER_1
 62
     7
100
AcDbSpline
210
0.0
220
0.0
230
1.0
 70
     8
 71
     3
 72
    11
 73
     7
 74
     0
 42
0.0000000001
 43
0.0000000001
 12
1.0
 22
0.0
 32
0.0
 13
1.0
 23
0.0
 33
0.0
 40
0.0
 40
0.0
 40
0.0
 40
0.0
 40
1.0
 40
1.0
 40
1.0
 40
2.0
 40
2.0
 40
2.0
 40
2.0
 10
1835.111481390846
 20
910.2524835498916
 30
0.0
 10
1835.111481390846
 20
910.2524835498916
 30
0.0
 10
1835.111481394664
 20
867.732802192404
 30
0.0
 10
1835.111481394664
 20
867.732802192404
 30
0.0
 10
1835.111481394651
 20
867.8878191653857
 30
0.0
 10
1835.233282568885
 20
868.0206931736666
 30
0.0
 10
1835.39937507922
 20
868.0206931736811
 30
0.0
  0
SPLINE
  5
47
330
1F
100
AcDbEntity
  8
LAYER_1
 62
     7
100
AcDbSpline
210
0.0
220
0.0
230
1.0
 70
     8
 71
     3
 72
    11
 73
     7
 74
     0
 42
0.0000000001
 43
0.0000000001
 12
1.0
 22
0.0
 32
0.0
 13
1.0
 23
0.0
 33
0.0
 40
0.0
 40
0.0
 40
0.0
 40
0.0
 40
1.0
 40
1.0
 40
1.0
 40
2.0
 40
2.0
 40
2.0
 40
2.0
 10
1835.39937507922
 20
868.0206931736811
 30
0.0
 10
1835.39937507922
 20
868.0206931736811
 30
0.0
 10
1622.800961850231
 20
868.0206931545908
 30
0.0
 10
1622.800961850231
 20
868.0206931545908
 30
0.0
 10
1622.955981526544
 20
868.0206931546036
 30
0.0
 10
1623.088855534823
 20
867.8988919803705
 30
0.0
 10
1623.088855534837
 20
867.7328021733665
 30
0.0
  0
SPLINE
  5
48
330
1F
100
AcDbEntity
  8
LAYER_1
 62
     7
100
AcDbSpline
210
0.0
220
0.0
230
1.0
 70
     8
 71
     3
 72
    11
 73
     7
 74
     0
 42
0.0000000001
 43
0.0000000001
 12
1.0
 22
0.0
 32
0.0
 13
1.0
 23
0.0
 33
0.0
 40
0.0
 40
0.0
 40
0.0
 40
0.0
 40
1.0
 40
1.0
 40
1.0
 40
2.0
 40
2.0
 40
2.0
 40
2.0
 10
1623.088855534837
 20
867.7328021733665
 30
0.0
 10
1623.088855534837
 20
867.7328021733665
 30
0.0
 10
1623.088855531019
 20
910.2524835308541
 30
0.0
 10
1623.088855531019
 20
910.2524835308541
 30
0.0
 10
1623.088855531005
 20
910.4075017921459
 30
0.0
 10
1622.967054356748
 20
910.5403758004031
 30
0.0
 10
1622.800961846413
 20
910.5403758003886
 30
0.0
  0
POLYLINE
  5
49
330
1F
100
AcDbEntity
  8
LAYER_1
 62
     7
100
AcDb2dPolyline
 66
     1
 10
0.0
 20
0.0
 30
0.0
  0
VERTEX
  5
4A
330
49
100
AcDbEntity
  8
LAYER_1
 62
     7
100
AcDbVertex
100
AcDb2dVertex
 10
1622.800961846413
 20
910.5403758003886
 30
0.0
  0
VERTEX
  5
4B
330
49
100
AcDbEntity
  8
LAYER_1
 62
     7
100
AcDbVertex
100
AcDb2dVertex
 10
1537.761596554818
 20
910.5403757927525
 30
0.0
  0
SEQEND
  5
4C
330
49
100
AcDbEntity
  8
LAYER_1
 62
     7
  0
SPLINE
  5
4D
330
1F
100
AcDbEntity
  8
LAYER_1
 62
     7
100
AcDbSpline
210
0.0
220
0.0
230
1.0
 70
     8
 71
     3
 72
     8
 73
     4
 74
     0
 42
0.0000000001
 43
0.0000000001
 12
1.0
 22
0.0
 32
0.0
 13
1.0
 23
0.0
 33
0.0
 40
0.0
 40
0.0
 40
0.0
 40
0.0
 40
1.0
 40
1.0
 40
1.0
 40
1.0
 10
1537.761596554818
 20
910.5403757927525
 30
0.0
 10
1537.606576878505
 20
910.5403757927379
 30
0.0
 10
1537.473702870248
 20
910.4185744812021
 30
0.0
 10
1537.473702870262
 20
910.252483523167
 30
0.0
  0
SPLINE
  5
4E
330
1F
100
AcDbEntity
  8
LAYER_1
 62
     7
100
AcDbSpline
210
0.0
220
0.0
230
1.0
 70
     8
 71
     3
 72
    11
 73
     7
 74
     0
 42
0.0000000001
 43
0.0000000001
 12
1.0
 22
0.0
 32
0.0
 13
1.0
 23
0.0
 33
0.0
 40
0.0
 40
0.0
 40
0.0
 40
0.0
 40
1.0
 40
1.0
 40
1.0
 40
2.0
 40
2.0
 40
2.0
 40
2.0
 10
1537.473702870262
 20
910.252483523167
 30
0.0
 10
1537.473702870262
 20
910.252483523167
 30
0.0
 10
1537.47370287408
 20
867.7328021656795
 30
0.0
 10
1537.47370287408
 20
867.7328021656795
 30
0.0
 10
1537.473702874067
 20
867.8878191386611
 30
0.0
 10
1537.5955040483
 20
868.0206931469402
 30
0.0
 10
1537.761596558636
 20
868.0206931469547
 30
0.0
  0
SPLINE
  5
4F
330
1F
100
AcDbEntity
  8
LAYER_1
 62
     7
100
AcDbSpline
210
0.0
220
0.0
230
1.0
 70
     8
 71
     3
 72
    11
 73
     7
 74
     0
 42
0.0000000001
 43
0.0000000001
 12
1.0
 22
0.0
 32
0.0
 13
1.0
 23
0.0
 33
0.0
 40
0.0
 40
0.0
 40
0.0
 40
0.0
 40
1.0
 40
1.0
 40
1.0
 40
2.0
 40
2.0
 40
2.0
 40
2.0
 10
1537.761596558636
 20
868.0206931469547
 30
0.0
 10
1537.761596558636
 20
868.0206931469547
 30
0.0
 10
1325.163183329647
 20
868.0206931278644
 30
0.0
 10
1325.163183329647
 20
868.0206931278644
 30
0.0
 10
1325.31820300596
 20
868.020693127879
 30
0.0
 10
1325.451077014239
 20
867.8988919536441
 30
0.0
 10
1325.451077014253
 20
867.7328021466401
 30
0.0
  0
SPLINE
  5
50
330
1F
100
AcDbEntity
  8
LAYER_1
 62
     7
100
AcDbSpline
210
0.0
220
0.0
230
1.0
 70
     8
 71
     3
 72
    11
 73
     7
 74
     0
 42
0.0000000001
 43
0.0000000001
 12
1.0
 22
0.0
 32
0.0
 13
1.0
 23
0.0
 33
0.0
 40
0.0
 40
0.0
 40
0.0
 40
0.0
 40
1.0
 40
1.0
 40
1.0
 40
2.0
 40
2.0
 40
2.0
 40
2.0
 10
1325.451077014253
 20
867.7328021466401
 30
0.0
 10
1325.451077014253
 20
867.7328021466401
 30
0.0
 10
1325.451077010435
 20
910.2524835041277
 30
0.0
 10
1325.451077010435
 20
910.2524835041277
 30
0.0
 10
1325.451077010421
 20
910.4075017654195
 30
0.0
 10
1325.329275836164
 20
910.5403757736767
 30
0.0
 10
1325.163183325829
 20
910.5403757736622
 30
0.0
  0
POLYLINE
  5
51
330
1F
100
AcDbEntity
  8
LAYER_1
 62
     7
100
AcDb2dPolyline
 66
     1
 10
0.0
 20
0.0
 30
0.0
  0
VERTEX
  5
52
330
51
100
AcDbEntity
  8
LAYER_1
 62
     7
100
AcDbVertex
100
AcDb2dVertex
 10
1325.163183325829
 20
910.5403757736622
 30
0.0
  0
VERTEX
  5
53
330
51
100
AcDbEntity
  8
LAYER_1
 62
     7
100
AcDbVertex
100
AcDb2dVertex
 10
1126.737997645439
 20
910.5403757558452
 30
0.0
  0
SEQEND
  5
54
330
51
100
AcDbEntity
  8
LAYER_1
 62
     7
  0
SPLINE
  5
55
330
1F
100
AcDbEntity
  8
LAYER_1
 62
     7
100
AcDbSpline
210
0.0
220
0.0
230
1.0
 70
     8
 71
     3
 72
    11
 73
     7
 74
     0
 42
0.0000000001
 43
0.0000000001
 12
1.0
 22
0.0
 32
0.0
 13
1.0
 23
0.0
 33
0.0
 40
0.0
 40
0.0
 40
0.0
 40
0.0
 40
1.0
 40
1.0
 40
1.0
 40
2.0
 40
2.0
 40
2.0
 40
2.0
 10
1126.737997645439
 20
910.5403757558452
 30
0.0
 10
1126.737997645439
 20
910.5403757558452
 30
0.0
 10
1084.218314999642
 20
910.5403757520271
 30
0.0
 10
1084.218314999642
 20
910.5403757520271
 30
0.0
 10
1084.063295323329
 20
910.5403757520126
 30
0.0
 10
1083.930421315072
 20
910.4185744404767
 30
0.0
 10
1083.930421315086
 20
910.2524834824417
 30
0.0
  0
POLYLINE
  5
56
330
1F
100
AcDbEntity
  8
LAYER_1
 62
     7
100
AcDb2dPolyline
 66
     1
 10
0.0
 20
0.0
 30
0.0
  0
VERTEX
  5
57
330
56
100
AcDbEntity
  8
LAYER_1
 62
     7
100
AcDbVertex
100
AcDb2dVertex
 10
1083.930421315086
 20
910.2524834824417
 30
0.0
  0
VERTEX
  5
58
330
56
100
AcDbEntity
  8
LAYER_1
 62
     7
100
AcDbVertex
100
AcDb2dVertex
 10
1083.930421318904
 20
867.7328021249541
 30
0.0
  0
SEQEND
  5
59
330
56
100
AcDbEntity
  8
LAYER_1
 62
     7
  0
POLYLINE
  5
5A
330
1F
100
AcDbEntity
  8
LAYER_1
 62
     7
100
AcDb2dPolyline
 66
     1
 10
0.0
 20
0.0
 30
0.0
  0
VERTEX
  5
5B
330
5A
100
AcDbEntity
  8
LAYER_1
 62
     7
100
AcDbVertex
100
AcDb2dVertex
 10
1083.930421318904
 20
867.7328021249541
 30
0.0
  0
VERTEX
  5
5C
330
5A
100
AcDbEntity
  8
LAYER_1
 62
     7
100
AcDbVertex
100
AcDb2dVertex
 10
1083.930421334177
 20
697.6540688384321
 30
0.0
  0
SEQEND
  5
5D
330
5A
100
AcDbEntity
  8
LAYER_1
 62
     7
  0
POLYLINE
  5
5E
330
1F
100
AcDbEntity
  8
LAYER_1
 62
     7
100
AcDb2dPolyline
 66
     1
 10
0.0
 20
0.0
 30
0.0
  0
VERTEX
  5
5F
330
5E
100
AcDbEntity
  8
LAYER_1
 62
     7
100
AcDbVertex
100
AcDb2dVertex
 10
1083.930421334177
 20
697.6540688384321
 30
0.0
  0
VERTEX
  5
60
330
5E
100
AcDbEntity
  8
LAYER_1
 62
     7
100
AcDbVertex
100
AcDb2dVertex
 10
1083.930421349448
 20
527.5753382552411
 30
0.0
  0
SEQEND
  5
61
330
5E
100
AcDbEntity
  8
LAYER_1
 62
     7
  0
SPLINE
  5
62
330
1F
100
AcDbEntity
  8
LAYER_1
 62
     7
100
AcDbSpline
210
0.0
220
0.0
230
1.0
 70
     8
 71
     3
 72
    11
 73
     7
 74
     0
 42
0.0000000001
 43
0.0000000001
 12
1.0
 22
0.0
 32
0.0
 13
1.0
 23
0.0
 33
0.0
 40
0.0
 40
0.0
 40
0.0
 40
0.0
 40
1.0
 40
1.0
 40
1.0
 40
2.0
 40
2.0
 40
2.0
 40
2.0
 10
1083.930421349448
 20
527.5753382552411
 30
0.0
 10
1083.930421349448
 20
527.5753382552411
 30
0.0
 10
1083.930421353266
 20
485.0556556094434
 30
0.0
 10
1083.930421353266
 20
485.0556556094434
 30
0.0
 10
1083.930421353281
 20
484.9006359331306
 30
0.0
 10
1084.052222527538
 20
484.7677619248734
 30
0.0
 10
1084.218315037873
 20
484.767761924888
 30
0.0
  0
POLYLINE
  5
63
330
1F
100
AcDbEntity
  8
LAYER_1
 62
     7
100
AcDb2dPolyline
 66
     1
 10
0.0
 20
0.0
 30
0.0
  0
VERTEX
  5
64
330
63
100
AcDbEntity
  8
LAYER_1
 62
     7
100
AcDbVertex
100
AcDb2dVertex
 10
1084.218315037873
 20
484.767761924888
 30
0.0
  0
VERTEX
  5
65
330
63
100
AcDbEntity
  8
LAYER_1
 62
     7
100
AcDbVertex
100
AcDb2dVertex
 10
1126.737997683671
 20
484.767761928706
 30
0.0
  0
SEQEND
  5
66
330
63
100
AcDbEntity
  8
LAYER_1
 62
     7
  0
POLYLINE
  5
67
330
1F
100
AcDbEntity
  8
LAYER_1
 62
     7
100
AcDb2dPolyline
 66
     1
 10
0.0
 20
0.0
 30
0.0
  0
VERTEX
  5
68
330
67
100
AcDbEntity
  8
LAYER_1
 62
     7
100
AcDbVertex
100
AcDb2dVertex
 10
1126.737997683671
 20
484.767761928706
 30
0.0
  0
VERTEX
  5
69
330
67
100
AcDbEntity
  8
LAYER_1
 62
     7
100
AcDbVertex
100
AcDb2dVertex
 10
1325.16318336406
 20
484.767761946523
 30
0.0
  0
SEQEND
  5
6A
330
67
100
AcDbEntity
  8
LAYER_1
 62
     7
  0
SPLINE
  5
6B
330
1F
100
AcDbEntity
  8
LAYER_1
 62
     7
100
AcDbSpline
210
0.0
220
0.0
230
1.0
 70
     8
 71
     3
 72
     8
 73
     4
 74
     0
 42
0.0000000001
 43
0.0000000001
 12
1.0
 22
0.0
 32
0.0
 13
1.0
 23
0.0
 33
0.0
 40
0.0
 40
0.0
 40
0.0
 40
0.0
 40
1.0
 40
1.0
 40
1.0
 40
1.0
 10
1325.16318336406
 20
484.767761946523
 30
0.0
 10
1325.318203040373
 20
484.7677619465376
 30
0.0
 10
1325.45107704863
 20
484.8895631207943
 30
0.0
 10
1325.451077048616
 20
485.0556556311294
 30
0.0
  0
SPLINE
  5
6C
330
1F
100
AcDbEntity
  8
LAYER_1
 62
     7
100
AcDbSpline
210
0.0
220
0.0
230
1.0
 70
     8
 71
     3
 72
    11
 73
     7
 74
     0
 42
0.0000000001
 43
0.0000000001
 12
1.0
 22
0.0
 32
0.0
 13
1.0
 23
0.0
 33
0.0
 40
0.0
 40
0.0
 40
0.0
 40
0.0
 40
1.0
 40
1.0
 40
1.0
 40
2.0
 40
2.0
 40
2.0
 40
2.0
 10
1325.451077048616
 20
485.0556556311294
 30
0.0
 10
1325.451077048616
 20
485.0556556311294
 30
0.0
 10
1325.451077044796
 20
527.5753382769271
 30
0.0
 10
1325.451077044796
 20
527.5753382769271
 30
0.0
 10
1325.451077044811
 20
527.4203186006143
 30
0.0
 10
1325.329275870577
 20
527.2874445923353
 30
0.0
 10
1325.163183360242
 20
527.2874445923208
 30
0.0
  0
SPLINE
  5
6D
330
1F
100
AcDbEntity
  8
LAYER_1
 62
     7
100
AcDbSpline
210
0.0
220
0.0
230
1.0
 70
     8
 71
     3
 72
    11
 73
     7
 74
     0
 42
0.0000000001
 43
0.0000000001
 12
1.0
 22
0.0
 32
0.0
 13
1.0
 23
0.0
 33
0.0
 40
0.0
 40
0.0
 40
0.0
 40
0.0
 40
1.0
 40
1.0
 40
1.0
 40
2.0
 40
2.0
 40
2.0
 40
2.0
 10
1325.163183360242
 20
527.2874445923208
 30
0.0
 10
1325.163183360242
 20
527.2874445923208
 30
0.0
 10
1537.761596589231
 20
527.287444611411
 30
0.0
 10
1537.761596589231
 20
527.287444611411
 30
0.0
 10
1537.606576912918
 20
527.2874446113965
 30
0.0
 10
1537.473702904639
 20
527.4092457856314
 30
0.0
 10
1537.473702904623
 20
527.5753382959665
 30
0.0
  0
SPLINE
  5
6E
330
1F
100
AcDbEntity
  8
LAYER_1
 62
     7
100
AcDbSpline
210
0.0
220
0.0
230
1.0
 70
     8
 71
     3
 72
    11
 73
     7
 74
     0
 42
0.0000000001
 43
0.0000000001
 12
1.0
 22
0.0
 32
0.0
 13
1.0
 23
0.0
 33
0.0
 40
0.0
 40
0.0
 40
0.0
 40
0.0
 40
1.0
 40
1.0
 40
1.0
 40
2.0
 40
2.0
 40
2.0
 40
2.0
 10
1537.473702904623
 20
527.5753382959665
 30
0.0
 10
1537.473702904623
 20
527.5753382959665
 30
0.0
 10
1537.473702908443
 20
485.0556556501688
 30
0.0
 10
1537.473702908443
 20
485.0556556501688
 30
0.0
 10
1537.473702908457
 20
484.900635973856
 30
0.0
 10
1537.595504082714
 20
484.7677619655988
 30
0.0
 10
1537.761596593049
 20
484.7677619656133
 30
0.0
  0
POLYLINE
  5
6F
330
1F
100
AcDbEntity
  8
LAYER_1
 62
     7
100
AcDb2dPolyline
 66
     1
 10
0.0
 20
0.0
 30
0.0
  0
VERTEX
  5
70
330
6F
100
AcDbEntity
  8
LAYER_1
 62
     7
100
AcDbVertex
100
AcDb2dVertex
 10
1537.761596593049
 20
484.7677619656133
 30
0.0
  0
VERTEX
  5
71
330
6F
100
AcDbEntity
  8
LAYER_1
 62
     7
100
AcDbVertex
100
AcDb2dVertex
 10
1622.800961884644
 20
484.7677619732494
 30
0.0
  0
SEQEND
  5
72
330
6F
100
AcDbEntity
  8
LAYER_1
 62
     7
  0
SPLINE
  5
73
330
1F
100
AcDbEntity
  8
LAYER_1
 62
     7
100
AcDbSpline
210
0.0
220
0.0
230
1.0
 70
     8
 71
     3
 72
     8
 73
     4
 74
     0
 42
0.0000000001
 43
0.0000000001
 12
1.0
 22
0.0
 32
0.0
 13
1.0
 23
0.0
 33
0.0
 40
0.0
 40
0.0
 40
0.0
 40
0.0
 40
1.0
 40
1.0
 40
1.0
 40
1.0
 10
1622.800961884644
 20
484.7677619732494
 30
0.0
 10
1622.955981560957
 20
484.7677619732622
 30
0.0
 10
1623.088855569215
 20
484.8895631475207
 30
0.0
 10
1623.0888555692
 20
485.0556556578558
 30
0.0
  0
SPLINE
  5
74
330
1F
100
AcDbEntity
  8
LAYER_1
 62
     7
100
AcDbSpline
210
0.0
220
0.0
230
1.0
 70
     8
 71
     3
 72
    11
 73
     7
 74
     0
 42
0.0000000001
 43
0.0000000001
 12
1.0
 22
0.0
 32
0.0
 13
1.0
 23
0.0
 33
0.0
 40
0.0
 40
0.0
 40
0.0
 40
0.0
 40
1.0
 40
1.0
 40
1.0
 40
2.0
 40
2.0
 40
2.0
 40
2.0
 10
1623.0888555692
 20
485.0556556578558
 30
0.0
 10
1623.0888555692
 20
485.0556556578558
 30
0.0
 10
1623.08885556538
 20
527.5753383036536
 30
0.0
 10
1623.08885556538
 20
527.5753383036536
 30
0.0
 10
1623.088855565395
 20
527.4203186273407
 30
0.0
 10
1622.967054391162
 20
527.2874446190617
 30
0.0
 10
1622.800961880826
 20
527.2874446190472
 30
0.0
  0
SPLINE
  5
75
330
1F
100
AcDbEntity
  8
LAYER_1
 62
     7
100
AcDbSpline
210
0.0
220
0.0
230
1.0
 70
     8
 71
     3
 72
    11
 73
     7
 74
     0
 42
0.0000000001
 43
0.0000000001
 12
1.0
 22
0.0
 32
0.0
 13
1.0
 23
0.0
 33
0.0
 40
0.0
 40
0.0
 40
0.0
 40
0.0
 40
1.0
 40
1.0
 40
1.0
 40
2.0
 40
2.0
 40
2.0
 40
2.0
 10
1622.800961880826
 20
527.2874446190472
 30
0.0
 10
1622.800961880826
 20
527.2874446190472
 30
0.0
 10
1835.399375109815
 20
527.2874446381375
 30
0.0
 10
1835.399375109815
 20
527.2874446381375
 30
0.0
 10
1835.244355433502
 20
527.2874446381229
 30
0.0
 10
1835.111481425223
 20
527.409245812356
 30
0.0
 10
1835.111481425207
 20
527.5753383226911
 30
0.0
  0
SPLINE
  5
76
330
1F
100
AcDbEntity
  8
LAYER_1
 62
     7
100
AcDbSpline
210
0.0
220
0.0
230
1.0
 70
     8
 71
     3
 72
    11
 73
     7
 74
     0
 42
0.0000000001
 43
0.0000000001
 12
1.0
 22
0.0
 32
0.0
 13
1.0
 23
0.0
 33
0.0
 40
0.0
 40
0.0
 40
0.0
 40
0.0
 40
1.0
 40
1.0
 40
1.0
 40
2.0
 40
2.0
 40
2.0
 40
2.0
 10
1835.111481425207
 20
527.5753383226911
 30
0.0
 10
1835.111481425207
 20
527.5753383226911
 30
0.0
 10
1835.111481429027
 20
485.0556556768934
 30
0.0
 10
1835.111481429027
 20
485.0556556768934
 30
0.0
 10
1835.111481429041
 20
484.9006360005806
 30
0.0
 10
1835.233282603298
 20
484.7677619923252
 30
0.0
 10
1835.399375113633
 20
484.7677619923397
 30
0.0
  0
POLYLINE
  5
77
330
1F
100
AcDbEntity
  8
LAYER_1
 62
     7
100
AcDb2dPolyline
 66
     1
 10
0.0
 20
0.0
 30
0.0
  0
VERTEX
  5
78
330
77
100
AcDbEntity
  8
LAYER_1
 62
     7
100
AcDbVertex
100
AcDb2dVertex
 10
1835.399375113633
 20
484.7677619923397
 30
0.0
  0
VERTEX
  5
79
330
77
100
AcDbEntity
  8
LAYER_1
 62
     7
100
AcDbVertex
100
AcDb2dVertex
 10
2033.824560794023
 20
484.7677620101567
 30
0.0
  0
SEQEND
  5
7A
330
77
100
AcDbEntity
  8
LAYER_1
 62
     7
  0
SPLINE
  5
7B
330
1F
100
AcDbEntity
  8
LAYER_1
 62
     7
100
AcDbSpline
210
0.0
220
0.0
230
1.0
 70
     8
 71
     3
 72
    11
 73
     7
 74
     0
 42
0.0000000001
 43
0.0000000001
 12
1.0
 22
0.0
 32
0.0
 13
1.0
 23
0.0
 33
0.0
 40
0.0
 40
0.0
 40
0.0
 40
0.0
 40
1.0
 40
1.0
 40
1.0
 40
2.0
 40
2.0
 40
2.0
 40
2.0
 10
2033.824560794023
 20
484.7677620101567
 30
0.0
 10
2033.824560794023
 20
484.7677620101567
 30
0.0
 10
2076.34424343982
 20
484.7677620139748
 30
0.0
 10
2076.34424343982
 20
484.7677620139748
 30
0.0
 10
2076.499265819461
 20
484.7677620139875
 30
0.0
 10
2076.632139827718
 20
484.889563188246
 30
0.0
 10
2076.632139827703
 20
485.0556556985812
 30
0.0
  0
POLYLINE
  5
7C
330
1F
100
AcDbEntity
  8
LAYER_1
 62
     7
100
AcDb2dPolyline
 66
     1
 10
0.0
 20
0.0
 30
0.0
  0
VERTEX
  5
7D
330
7C
100
AcDbEntity
  8
LAYER_1
 62
     7
100
AcDbVertex
100
AcDb2dVertex
 10
2076.632139827703
 20
485.0556556985812
 30
0.0
  0
VERTEX
  5
7E
330
7C
100
AcDbEntity
  8
LAYER_1
 62
     7
100
AcDbVertex
100
AcDb2dVertex
 10
2076.632139823885
 20
527.5753383443789
 30
0.0
  0
SEQEND
  5
7F
330
7C
100
AcDbEntity
  8
LAYER_1
 62
     7
  0
POLYLINE
  5
80
330
1F
100
AcDbEntity
  8
LAYER_1
 62
     7
100
AcDb2dPolyline
 66
     1
 10
0.0
 20
0.0
 30
0.0
  0
VERTEX
  5
81
330
80
100
AcDbEntity
  8
LAYER_1
 62
     7
100
AcDbVertex
100
AcDb2dVertex
 10
2076.632139823885
 20
527.5753383443789
 30
0.0
  0
VERTEX
  5
82
330
80
100
AcDbEntity
  8
LAYER_1
 62
     7
100
AcDbVertex
100
AcDb2dVertex
 10
2076.632139808613
 20
697.6540689275698
 30
0.0
  0
SEQEND
  5
83
330
80
100
AcDbEntity
  8
LAYER_1
 62
     7
  0
POLYLINE
  5
84
330
1F
100
AcDbEntity
  8
LAYER_1
 62
     7
100
AcDb2dPolyline
 66
     1
 10
0.0
 20
0.0
 30
0.0
  0
VERTEX
  5
85
330
84
100
AcDbEntity
  8
LAYER_1
 62
     7
100
AcDbVertex
100
AcDb2dVertex
 10
2076.632139808613
 20
697.6540689275698
 30
0.0
  0
VERTEX
  5
86
330
84
100
AcDbEntity
  8
LAYER_1
 62
     7
100
AcDbVertex
100
AcDb2dVertex
 10
2076.632139793341
 20
867.7328022140919
 30
0.0
  0
SEQEND
  5
87
330
84
100
AcDbEntity
  8
LAYER_1
 62
     7
  0
SPLINE
  5
88
330
1F
100
AcDbEntity
  8
LAYER_1
 62
     7
100
AcDbSpline
210
0.0
220
0.0
230
1.0
 70
     8
 71
     3
 72
    11
 73
     7
 74
     0
 42
0.0000000001
 43
0.0000000001
 12
1.0
 22
0.0
 32
0.0
 13
1.0
 23
0.0
 33
0.0
 40
0.0
 40
0.0
 40
0.0
 40
0.0
 40
1.0
 40
1.0
 40
1.0
 40
2.0
 40
2.0
 40
2.0
 40
2.0
 10
2076.632139793341
 20
867.7328022140919
 30
0.0
 10
2076.632139793341
 20
867.7328022140919
 30
0.0
 10
2076.632134382868
 20
910.2524835715794
 30
0.0
 10
2076.632134382868
 20
910.2524835715794
 30
0.0
 10
2076.632134382853
 20
910.4075018328713
 30
0.0
 10
2076.510335911924
 20
910.5403758411285
 30
0.0
 10
2076.344243401589
 20
910.5403758411139
 30
0.0
  0
POLYLINE
  5
89
330
1F
100
AcDbEntity
  8
LAYER_1
 62
     7
100
AcDb2dPolyline
 66
     1
 10
0.0
 20
0.0
 30
0.0
  0
VERTEX
  5
8A
330
89
100
AcDbEntity
  8
LAYER_1
 62
     7
100
AcDbVertex
100
AcDb2dVertex
 10
2076.344243401589
 20
910.5403758411139
 30
0.0
  0
VERTEX
  5
8B
330
89
100
AcDbEntity
  8
LAYER_1
 62
     7
100
AcDbVertex
100
AcDb2dVertex
 10
2033.824560755791
 20
910.5403758372959
 30
0.0
  0
SEQEND
  5
8C
330
89
100
AcDbEntity
  8
LAYER_1
 62
     7
  0
POLYLINE
  5
8D
330
1F
100
AcDbEntity
  8
LAYER_1
 62
     7
100
AcDb2dPolyline
 66
     1
 10
0.0
 20
0.0
 30
0.0
  0
VERTEX
  5
8E
330
8D
100
AcDbEntity
  8
LAYER_1
 62
     7
100
AcDbVertex
100
AcDb2dVertex
 10
1110.743475550948
 20
2322.887177328817
 30
0.0
  0
VERTEX
  5
8F
330
8D
100
AcDbEntity
  8
LAYER_1
 62
     7
100
AcDbVertex
100
AcDb2dVertex
 10
1110.743475556039
 20
2209.501356940023
 30
0.0
  0
SEQEND
  5
90
330
8D
100
AcDbEntity
  8
LAYER_1
 62
     7
  0
SPLINE
  5
91
330
1F
100
AcDbEntity
  8
LAYER_1
 62
     7
100
AcDbSpline
210
0.0
220
0.0
230
1.0
 70
     8
 71
     3
 72
     8
 73
     4
 74
     0
 42
0.0000000001
 43
0.0000000001
 12
1.0
 22
0.0
 32
0.0
 13
1.0
 23
0.0
 33
0.0
 40
0.0
 40
0.0
 40
0.0
 40
0.0
 40
1.0
 40
1.0
 40
1.0
 40
1.0
 10
1110.743475556039
 20
2209.501356940023
 30
0.0
 10
1110.743475556045
 20
2209.346337263711
 30
0.0
 10
1110.865276867577
 20
2209.213463255448
 30
0.0
 10
1111.031367825612
 20
2209.213463255455
 30
0.0
  0
SPLINE
  5
92
330
1F
100
AcDbEntity
  8
LAYER_1
 62
     7
100
AcDbSpline
210
0.0
220
0.0
230
1.0
 70
     8
 71
     3
 72
    11
 73
     7
 74
     0
 42
0.0000000001
 43
0.0000000001
 12
1.0
 22
0.0
 32
0.0
 13
1.0
 23
0.0
 33
0.0
 40
0.0
 40
0.0
 40
0.0
 40
0.0
 40
1.0
 40
1.0
 40
1.0
 40
2.0
 40
2.0
 40
2.0
 40
2.0
 10
1111.031367825612
 20
2209.213463255455
 30
0.0
 10
1111.031367825612
 20
2209.213463255455
 30
0.0
 10
1153.551049183099
 20
2209.213463257365
 30
0.0
 10
1153.551049183099
 20
2209.213463257365
 30
0.0
 10
1153.396032210117
 20
2209.213463257358
 30
0.0
 10
1153.263158201844
 20
2209.335264431598
 30
0.0
 10
1153.263158201837
 20
2209.501356941933
 30
0.0
  0
SPLINE
  5
93
330
1F
100
AcDbEntity
  8
LAYER_1
 62
     7
100
AcDbSpline
210
0.0
220
0.0
230
1.0
 70
     8
 71
     3
 72
    11
 73
     7
 74
     0
 42
0.0000000001
 43
0.0000000001
 12
1.0
 22
0.0
 32
0.0
 13
1.0
 23
0.0
 33
0.0
 40
0.0
 40
0.0
 40
0.0
 40
0.0
 40
1.0
 40
1.0
 40
1.0
 40
2.0
 40
2.0
 40
2.0
 40
2.0
 10
1153.263158201837
 20
2209.501356941933
 30
0.0
 10
1153.263158201837
 20
2209.501356941933
 30
0.0
 10
1153.263158211381
 20
1996.902943712945
 30
0.0
 10
1153.263158211381
 20
1996.902943712945
 30
0.0
 10
1153.263158211375
 20
1997.057963389258
 30
0.0
 10
1153.384959385614
 20
1997.190837397531
 30
0.0
 10
1153.551049192618
 20
1997.190837397538
 30
0.0
  0
SPLINE
  5
94
330
1F
100
AcDbEntity
  8
LAYER_1
 62
     7
100
AcDbSpline
210
0.0
220
0.0
230
1.0
 70
     8
 71
     3
 72
    11
 73
     7
 74
     0
 42
0.0000000001
 43
0.0000000001
 12
1.0
 22
0.0
 32
0.0
 13
1.0
 23
0.0
 33
0.0
 40
0.0
 40
0.0
 40
0.0
 40
0.0
 40
1.0
 40
1.0
 40
1.0
 40
2.0
 40
2.0
 40
2.0
 40
2.0
 10
1153.551049192618
 20
1997.190837397538
 30
0.0
 10
1153.551049192618
 20
1997.190837397538
 30
0.0
 10
1111.03136783513
 20
1997.190837395628
 30
0.0
 10
1111.03136783513
 20
1997.190837395628
 30
0.0
 10
1110.876349573839
 20
1997.190837395621
 30
0.0
 10
1110.743475565576
 20
1997.06903622137
 30
0.0
 10
1110.743475565583
 20
1996.902943711035
 30
0.0
  0
POLYLINE
  5
95
330
1F
100
AcDbEntity
  8
LAYER_1
 62
     7
100
AcDb2dPolyline
 66
     1
 10
0.0
 20
0.0
 30
0.0
  0
VERTEX
  5
96
330
95
100
AcDbEntity
  8
LAYER_1
 62
     7
100
AcDbVertex
100
AcDb2dVertex
 10
1110.743475565583
 20
1996.902943711035
 30
0.0
  0
VERTEX
  5
97
330
95
100
AcDbEntity
  8
LAYER_1
 62
     7
100
AcDbVertex
100
AcDb2dVertex
 10
1110.743475569401
 20
1911.863578419439
 30
0.0
  0
SEQEND
  5
98
330
95
100
AcDbEntity
  8
LAYER_1
 62
     7
  0
SPLINE
  5
99
330
1F
100
AcDbEntity
  8
LAYER_1
 62
     7
100
AcDbSpline
210
0.0
220
0.0
230
1.0
 70
     8
 71
     3
 72
     8
 73
     4
 74
     0
 42
0.0000000001
 43
0.0000000001
 12
1.0
 22
0.0
 32
0.0
 13
1.0
 23
0.0
 33
0.0
 40
0.0
 40
0.0
 40
0.0
 40
0.0
 40
1.0
 40
1.0
 40
1.0
 40
1.0
 10
1110.743475569401
 20
1911.863578419439
 30
0.0
 10
1110.743475569408
 20
1911.708558743127
 30
0.0
 10
1110.865276880939
 20
1911.575684734864
 30
0.0
 10
1111.031367838974
 20
1911.575684734871
 30
0.0
  0
SPLINE
  5
9A
330
1F
100
AcDbEntity
  8
LAYER_1
 62
     7
100
AcDbSpline
210
0.0
220
0.0
230
1.0
 70
     8
 71
     3
 72
    11
 73
     7
 74
     0
 42
0.0000000001
 43
0.0000000001
 12
1.0
 22
0.0
 32
0.0
 13
1.0
 23
0.0
 33
0.0
 40
0.0
 40
0.0
 40
0.0
 40
0.0
 40
1.0
 40
1.0
 40
1.0
 40
2.0
 40
2.0
 40
2.0
 40
2.0
 10
1111.031367838974
 20
1911.575684734871
 30
0.0
 10
1111.031367838974
 20
1911.575684734871
 30
0.0
 10
1153.551049196461
 20
1911.575684736781
 30
0.0
 10
1153.551049196461
 20
1911.575684736781
 30
0.0
 10
1153.39603222348
 20
1911.575684736774
 30
0.0
 10
1153.263158215206
 20
1911.697485911014
 30
0.0
 10
1153.263158215199
 20
1911.863578421349
 30
0.0
  0
SPLINE
  5
9B
330
1F
100
AcDbEntity
  8
LAYER_1
 62
     7
100
AcDbSpline
210
0.0
220
0.0
230
1.0
 70
     8
 71
     3
 72
    11
 73
     7
 74
     0
 42
0.0000000001
 43
0.0000000001
 12
1.0
 22
0.0
 32
0.0
 13
1.0
 23
0.0
 33
0.0
 40
0.0
 40
0.0
 40
0.0
 40
0.0
 40
1.0
 40
1.0
 40
1.0
 40
2.0
 40
2.0
 40
2.0
 40
2.0
 10
1153.263158215199
 20
1911.863578421349
 30
0.0
 10
1153.263158215199
 20
1911.863578421349
 30
0.0
 10
1153.263158224745
 20
1699.265165192361
 30
0.0
 10
1153.263158224745
 20
1699.265165192361
 30
0.0
 10
1153.263158224738
 20
1699.420184868673
 30
0.0
 10
1153.384959398976
 20
1699.553058876947
 30
0.0
 10
1153.55104920598
 20
1699.553058876954
 30
0.0
  0
SPLINE
  5
9C
330
1F
100
AcDbEntity
  8
LAYER_1
 62
     7
100
AcDbSpline
210
0.0
220
0.0
230
1.0
 70
     8
 71
     3
 72
    11
 73
     7
 74
     0
 42
0.0000000001
 43
0.0000000001
 12
1.0
 22
0.0
 32
0.0
 13
1.0
 23
0.0
 33
0.0
 40
0.0
 40
0.0
 40
0.0
 40
0.0
 40
1.0
 40
1.0
 40
1.0
 40
2.0
 40
2.0
 40
2.0
 40
2.0
 10
1153.55104920598
 20
1699.553058876954
 30
0.0
 10
1153.55104920598
 20
1699.553058876954
 30
0.0
 10
1111.031367848494
 20
1699.553058875044
 30
0.0
 10
1111.031367848494
 20
1699.553058875044
 30
0.0
 10
1110.876349587202
 20
1699.553058875037
 30
0.0
 10
1110.743475578939
 20
1699.431257700786
 30
0.0
 10
1110.743475578946
 20
1699.265165190451
 30
0.0
  0
POLYLINE
  5
9D
330
1F
100
AcDbEntity
  8
LAYER_1
 62
     7
100
AcDb2dPolyline
 66
     1
 10
0.0
 20
0.0
 30
0.0
  0
VERTEX
  5
9E
330
9D
100
AcDbEntity
  8
LAYER_1
 62
     7
100
AcDbVertex
100
AcDb2dVertex
 10
1110.743475578946
 20
1699.265165190451
 30
0.0
  0
VERTEX
  5
9F
330
9D
100
AcDbEntity
  8
LAYER_1
 62
     7
100
AcDbVertex
100
AcDb2dVertex
 10
1110.743475582764
 20
1614.225799898855
 30
0.0
  0
SEQEND
  5
A0
330
9D
100
AcDbEntity
  8
LAYER_1
 62
     7
  0
SPLINE
  5
A1
330
1F
100
AcDbEntity
  8
LAYER_1
 62
     7
100
AcDbSpline
210
0.0
220
0.0
230
1.0
 70
     8
 71
     3
 72
     8
 73
     4
 74
     0
 42
0.0000000001
 43
0.0000000001
 12
1.0
 22
0.0
 32
0.0
 13
1.0
 23
0.0
 33
0.0
 40
0.0
 40
0.0
 40
0.0
 40
0.0
 40
1.0
 40
1.0
 40
1.0
 40
1.0
 10
1110.743475582764
 20
1614.225799898855
 30
0.0
 10
1110.743475582772
 20
1614.070780222542
 30
0.0
 10
1110.865276894302
 20
1613.93790621428
 30
0.0
 10
1111.031367852337
 20
1613.937906214287
 30
0.0
  0
SPLINE
  5
A2
330
1F
100
AcDbEntity
  8
LAYER_1
 62
     7
100
AcDbSpline
210
0.0
220
0.0
230
1.0
 70
     8
 71
     3
 72
    11
 73
     7
 74
     0
 42
0.0000000001
 43
0.0000000001
 12
1.0
 22
0.0
 32
0.0
 13
1.0
 23
0.0
 33
0.0
 40
0.0
 40
0.0
 40
0.0
 40
0.0
 40
1.0
 40
1.0
 40
1.0
 40
2.0
 40
2.0
 40
2.0
 40
2.0
 10
1111.031367852337
 20
1613.937906214287
 30
0.0
 10
1111.031367852337
 20
1613.937906214287
 30
0.0
 10
1153.551049209826
 20
1613.937906216197
 30
0.0
 10
1153.551049209826
 20
1613.937906216197
 30
0.0
 10
1153.396032236844
 20
1613.93790621619
 30
0.0
 10
1153.263158228568
 20
1614.05970739043
 30
0.0
 10
1153.263158228561
 20
1614.225799900765
 30
0.0
  0
SPLINE
  5
A3
330
1F
100
AcDbEntity
  8
LAYER_1
 62
     7
100
AcDbSpline
210
0.0
220
0.0
230
1.0
 70
     8
 71
     3
 72
    11
 73
     7
 74
     0
 42
0.0000000001
 43
0.0000000001
 12
1.0
 22
0.0
 32
0.0
 13
1.0
 23
0.0
 33
0.0
 40
0.0
 40
0.0
 40
0.0
 40
0.0
 40
1.0
 40
1.0
 40
1.0
 40
2.0
 40
2.0
 40
2.0
 40
2.0
 10
1153.263158228561
 20
1614.225799900765
 30
0.0
 10
1153.263158228561
 20
1614.225799900765
 30
0.0
 10
1153.263158238107
 20
1401.627386671777
 30
0.0
 10
1153.263158238107
 20
1401.627386671777
 30
0.0
 10
1153.2631582381
 20
1401.782406348089
 30
0.0
 10
1153.384959412339
 20
1401.915280356363
 30
0.0
 10
1153.551049219343
 20
1401.91528035637
 30
0.0
  0
SPLINE
  5
A4
330
1F
100
AcDbEntity
  8
LAYER_1
 62
     7
100
AcDbSpline
210
0.0
220
0.0
230
1.0
 70
     8
 71
     3
 72
    11
 73
     7
 74
     0
 42
0.0000000001
 43
0.0000000001
 12
1.0
 22
0.0
 32
0.0
 13
1.0
 23
0.0
 33
0.0
 40
0.0
 40
0.0
 40
0.0
 40
0.0
 40
1.0
 40
1.0
 40
1.0
 40
2.0
 40
2.0
 40
2.0
 40
2.0
 10
1153.551049219343
 20
1401.91528035637
 30
0.0
 10
1153.551049219343
 20
1401.91528035637
 30
0.0
 10
1111.031367861856
 20
1401.91528035446
 30
0.0
 10
1111.031367861856
 20
1401.91528035446
 30
0.0
 10
1110.876349600564
 20
1401.915280354453
 30
0.0
 10
1110.743475592301
 20
1401.793479180202
 30
0.0
 10
1110.74347559231
 20
1401.627386669867
 30
0.0
  0
POLYLINE
  5
A5
330
1F
100
AcDbEntity
  8
LAYER_1
 62
     7
100
AcDb2dPolyline
 66
     1
 10
0.0
 20
0.0
 30
0.0
  0
VERTEX
  5
A6
330
A5
100
AcDbEntity
  8
LAYER_1
 62
     7
100
AcDbVertex
100
AcDb2dVertex
 10
1110.74347559231
 20
1401.627386669867
 30
0.0
  0
VERTEX
  5
A7
330
A5
100
AcDbEntity
  8
LAYER_1
 62
     7
100
AcDbVertex
100
AcDb2dVertex
 10
1110.743475596128
 20
1316.588021378271
 30
0.0
  0
SEQEND
  5
A8
330
A5
100
AcDbEntity
  8
LAYER_1
 62
     7
  0
SPLINE
  5
A9
330
1F
100
AcDbEntity
  8
LAYER_1
 62
     7
100
AcDbSpline
210
0.0
220
0.0
230
1.0
 70
     8
 71
     3
 72
     8
 73
     4
 74
     0
 42
0.0000000001
 43
0.0000000001
 12
1.0
 22
0.0
 32
0.0
 13
1.0
 23
0.0
 33
0.0
 40
0.0
 40
0.0
 40
0.0
 40
0.0
 40
1.0
 40
1.0
 40
1.0
 40
1.0
 10
1110.743475596128
 20
1316.588021378271
 30
0.0
 10
1110.743475596134
 20
1316.433001701958
 30
0.0
 10
1110.865276907665
 20
1316.300127693696
 30
0.0
 10
1111.0313678657
 20
1316.300127693703
 30
0.0
  0
SPLINE
  5
AA
330
1F
100
AcDbEntity
  8
LAYER_1
 62
     7
100
AcDbSpline
210
0.0
220
0.0
230
1.0
 70
     8
 71
     3
 72
    11
 73
     7
 74
     0
 42
0.0000000001
 43
0.0000000001
 12
1.0
 22
0.0
 32
0.0
 13
1.0
 23
0.0
 33
0.0
 40
0.0
 40
0.0
 40
0.0
 40
0.0
 40
1.0
 40
1.0
 40
1.0
 40
2.0
 40
2.0
 40
2.0
 40
2.0
 10
1111.0313678657
 20
1316.300127693703
 30
0.0
 10
1111.0313678657
 20
1316.300127693703
 30
0.0
 10
1153.551049223188
 20
1316.300127695613
 30
0.0
 10
1153.551049223188
 20
1316.300127695613
 30
0.0
 10
1153.396032250206
 20
1316.300127695606
 30
0.0
 10
1153.263158241933
 20
1316.421928869844
 30
0.0
 10
1153.263158241925
 20
1316.588021380179
 30
0.0
  0
SPLINE
  5
AB
330
1F
100
AcDbEntity
  8
LAYER_1
 62
     7
100
AcDbSpline
210
0.0
220
0.0
230
1.0
 70
     8
 71
     3
 72
    11
 73
     7
 74
     0
 42
0.0000000001
 43
0.0000000001
 12
1.0
 22
0.0
 32
0.0
 13
1.0
 23
0.0
 33
0.0
 40
0.0
 40
0.0
 40
0.0
 40
0.0
 40
1.0
 40
1.0
 40
1.0
 40
2.0
 40
2.0
 40
2.0
 40
2.0
 10
1153.263158241925
 20
1316.588021380179
 30
0.0
 10
1153.263158241925
 20
1316.588021380179
 30
0.0
 10
1153.26315825147
 20
1103.989608151191
 30
0.0
 10
1153.26315825147
 20
1103.989608151191
 30
0.0
 10
1153.263158251462
 20
1104.144627827503
 30
0.0
 10
1153.384959425703
 20
1104.277501835779
 30
0.0
 10
1153.551049232707
 20
1104.277501835786
 30
0.0
  0
SPLINE
  5
AC
330
1F
100
AcDbEntity
  8
LAYER_1
 62
     7
100
AcDbSpline
210
0.0
220
0.0
230
1.0
 70
     8
 71
     3
 72
    11
 73
     7
 74
     0
 42
0.0000000001
 43
0.0000000001
 12
1.0
 22
0.0
 32
0.0
 13
1.0
 23
0.0
 33
0.0
 40
0.0
 40
0.0
 40
0.0
 40
0.0
 40
1.0
 40
1.0
 40
1.0
 40
2.0
 40
2.0
 40
2.0
 40
2.0
 10
1153.551049232707
 20
1104.277501835786
 30
0.0
 10
1153.551049232707
 20
1104.277501835786
 30
0.0
 10
1111.031367875219
 20
1104.277501833876
 30
0.0
 10
1111.031367875219
 20
1104.277501833876
 30
0.0
 10
1110.876349613927
 20
1104.277501833869
 30
0.0
 10
1110.743475605665
 20
1104.155700659618
 30
0.0
 10
1110.743475605672
 20
1103.989608149283
 30
0.0
  0
POLYLINE
  5
AD
330
1F
100
AcDbEntity
  8
LAYER_1
 62
     7
100
AcDb2dPolyline
 66
     1
 10
0.0
 20
0.0
 30
0.0
  0
VERTEX
  5
AE
330
AD
100
AcDbEntity
  8
LAYER_1
 62
     7
100
AcDbVertex
100
AcDb2dVertex
 10
1110.743475605672
 20
1103.989608149283
 30
0.0
  0
VERTEX
  5
AF
330
AD
100
AcDbEntity
  8
LAYER_1
 62
     7
100
AcDbVertex
100
AcDb2dVertex
 10
1110.743475610763
 20
990.6037877604886
 30
0.0
  0
SEQEND
  5
B0
330
AD
100
AcDbEntity
  8
LAYER_1
 62
     7
  0
SPLINE
  5
B1
330
1F
100
AcDbEntity
  8
LAYER_1
 62
     7
100
AcDbSpline
210
0.0
220
0.0
230
1.0
 70
     8
 71
     3
 72
     8
 73
     4
 74
     0
 42
0.0000000001
 43
0.0000000001
 12
1.0
 22
0.0
 32
0.0
 13
1.0
 23
0.0
 33
0.0
 40
0.0
 40
0.0
 40
0.0
 40
0.0
 40
1.0
 40
1.0
 40
1.0
 40
1.0
 10
1110.743475610763
 20
990.6037877604886
 30
0.0
 10
1110.74347561077
 20
990.4487680841758
 30
0.0
 10
1110.865276922301
 20
990.3158940759131
 30
0.0
 10
1111.031367880336
 20
990.3158940759204
 30
0.0
  0
POLYLINE
  5
B2
330
1F
100
AcDbEntity
  8
LAYER_1
 62
     7
100
AcDb2dPolyline
 66
     1
 10
0.0
 20
0.0
 30
0.0
  0
VERTEX
  5
B3
330
B2
100
AcDbEntity
  8
LAYER_1
 62
     7
100
AcDbVertex
100
AcDb2dVertex
 10
1111.031367880336
 20
990.3158940759204
 30
0.0
  0
VERTEX
  5
B4
330
B2
100
AcDbEntity
  8
LAYER_1
 62
     7
100
AcDbVertex
100
AcDb2dVertex
 10
1153.551049237823
 20
990.3158940778303
 30
0.0
  0
SEQEND
  5
B5
330
B2
100
AcDbEntity
  8
LAYER_1
 62
     7
  0
POLYLINE
  5
B6
330
1F
100
AcDbEntity
  8
LAYER_1
 62
     7
100
AcDb2dPolyline
 66
     1
 10
0.0
 20
0.0
 30
0.0
  0
VERTEX
  5
B7
330
B6
100
AcDbEntity
  8
LAYER_1
 62
     7
100
AcDbVertex
100
AcDb2dVertex
 10
1153.551049237823
 20
990.3158940778303
 30
0.0
  0
VERTEX
  5
B8
330
B6
100
AcDbEntity
  8
LAYER_1
 62
     7
100
AcDbVertex
100
AcDb2dVertex
 10
1323.629782524346
 20
990.3158940854664
 30
0.0
  0
SEQEND
  5
B9
330
B6
100
AcDbEntity
  8
LAYER_1
 62
     7
  0
POLYLINE
  5
BA
330
1F
100
AcDbEntity
  8
LAYER_1
 62
     7
100
AcDb2dPolyline
 66
     1
 10
0.0
 20
0.0
 30
0.0
  0
VERTEX
  5
BB
330
BA
100
AcDbEntity
  8
LAYER_1
 62
     7
100
AcDbVertex
100
AcDb2dVertex
 10
1323.629782524346
 20
990.3158940854664
 30
0.0
  0
VERTEX
  5
BC
330
BA
100
AcDbEntity
  8
LAYER_1
 62
     7
100
AcDbVertex
100
AcDb2dVertex
 10
1493.708513107536
 20
990.3158940931025
 30
0.0
  0
SEQEND
  5
BD
330
BA
100
AcDbEntity
  8
LAYER_1
 62
     7
  0
SPLINE
  5
BE
330
1F
100
AcDbEntity
  8
LAYER_1
 62
     7
100
AcDbSpline
210
0.0
220
0.0
230
1.0
 70
     8
 71
     3
 72
    11
 73
     7
 74
     0
 42
0.0000000001
 43
0.0000000001
 12
1.0
 22
0.0
 32
0.0
 13
1.0
 23
0.0
 33
0.0
 40
0.0
 40
0.0
 40
0.0
 40
0.0
 40
1.0
 40
1.0
 40
1.0
 40
2.0
 40
2.0
 40
2.0
 40
2.0
 10
1493.708513107536
 20
990.3158940931025
 30
0.0
 10
1493.708513107536
 20
990.3158940931025
 30
0.0
 10
1536.228195753334
 20
990.3158940950107
 30
0.0
 10
1536.228195753334
 20
990.3158940950107
 30
0.0
 10
1536.383215429647
 20
990.3158940950179
 30
0.0
 10
1536.51608943791
 20
990.4376952692692
 30
0.0
 10
1536.516089437902
 20
990.6037877796043
 30
0.0
  0
POLYLINE
  5
BF
330
1F
100
AcDbEntity
  8
LAYER_1
 62
     7
100
AcDb2dPolyline
 66
     1
 10
0.0
 20
0.0
 30
0.0
  0
VERTEX
  5
C0
330
BF
100
AcDbEntity
  8
LAYER_1
 62
     7
100
AcDbVertex
100
AcDb2dVertex
 10
1536.516089437902
 20
990.6037877796043
 30
0.0
  0
VERTEX
  5
C1
330
BF
100
AcDbEntity
  8
LAYER_1
 62
     7
100
AcDbVertex
100
AcDb2dVertex
 10
1536.516089437902
 20
990.6037877796043
 30
0.0
  0
SEQEND
  5
C2
330
BF
100
AcDbEntity
  8
LAYER_1
 62
     7
  0
POLYLINE
  5
C3
330
1F
100
AcDbEntity
  8
LAYER_1
 62
     7
100
AcDb2dPolyline
 66
     1
 10
0.0
 20
0.0
 30
0.0
  0
VERTEX
  5
C4
330
C3
100
AcDbEntity
  8
LAYER_1
 62
     7
100
AcDbVertex
100
AcDb2dVertex
 10
1536.516089437902
 20
990.6037877796043
 30
0.0
  0
VERTEX
  5
C5
330
C3
100
AcDbEntity
  8
LAYER_1
 62
     7
100
AcDbVertex
100
AcDb2dVertex
 10
1536.516089432811
 20
1103.989608168398
 30
0.0
  0
SEQEND
  5
C6
330
C3
100
AcDbEntity
  8
LAYER_1
 62
     7
  0
SPLINE
  5
C7
330
1F
100
AcDbEntity
  8
LAYER_1
 62
     7
100
AcDbSpline
210
0.0
220
0.0
230
1.0
 70
     8
 71
     3
 72
     8
 73
     4
 74
     0
 42
0.0000000001
 43
0.0000000001
 12
1.0
 22
0.0
 32
0.0
 13
1.0
 23
0.0
 33
0.0
 40
0.0
 40
0.0
 40
0.0
 40
0.0
 40
1.0
 40
1.0
 40
1.0
 40
1.0
 10
1536.516089432811
 20
1103.989608168398
 30
0.0
 10
1536.516089432804
 20
1104.144627844711
 30
0.0
 10
1536.394288258552
 20
1104.277501852974
 30
0.0
 10
1536.228195748217
 20
1104.277501852966
 30
0.0
  0
SPLINE
  5
C8
330
1F
100
AcDbEntity
  8
LAYER_1
 62
     7
100
AcDbSpline
210
0.0
220
0.0
230
1.0
 70
     8
 71
     3
 72
    11
 73
     7
 74
     0
 42
0.0000000001
 43
0.0000000001
 12
1.0
 22
0.0
 32
0.0
 13
1.0
 23
0.0
 33
0.0
 40
0.0
 40
0.0
 40
0.0
 40
0.0
 40
1.0
 40
1.0
 40
1.0
 40
2.0
 40
2.0
 40
2.0
 40
2.0
 10
1536.228195748217
 20
1104.277501852966
 30
0.0
 10
1536.228195748217
 20
1104.277501852966
 30
0.0
 10
1493.70851310242
 20
1104.277501851058
 30
0.0
 10
1493.70851310242
 20
1104.277501851058
 30
0.0
 10
1493.863532778732
 20
1104.277501851064
 30
0.0
 10
1493.996406787006
 20
1104.155700676823
 30
0.0
 10
1493.996406787013
 20
1103.989608166488
 30
0.0
  0
SPLINE
  5
C9
330
1F
100
AcDbEntity
  8
LAYER_1
 62
     7
100
AcDbSpline
210
0.0
220
0.0
230
1.0
 70
     8
 71
     3
 72
    11
 73
     7
 74
     0
 42
0.0000000001
 43
0.0000000001
 12
1.0
 22
0.0
 32
0.0
 13
1.0
 23
0.0
 33
0.0
 40
0.0
 40
0.0
 40
0.0
 40
0.0
 40
1.0
 40
1.0
 40
1.0
 40
2.0
 40
2.0
 40
2.0
 40
2.0
 10
1493.996406787013
 20
1103.989608166488
 30
0.0
 10
1493.996406787013
 20
1103.989608166488
 30
0.0
 10
1493.996406777469
 20
1316.588021395477
 30
0.0
 10
1493.996406777469
 20
1316.588021395477
 30
0.0
 10
1493.996406777474
 20
1316.433001719164
 30
0.0
 10
1493.874605603236
 20
1316.300127710892
 30
0.0
 10
1493.708513092901
 20
1316.300127710885
 30
0.0
  0
SPLINE
  5
CA
330
1F
100
AcDbEntity
  8
LAYER_1
 62
     7
100
AcDbSpline
210
0.0
220
0.0
230
1.0
 70
     8
 71
     3
 72
    11
 73
     7
 74
     0
 42
0.0000000001
 43
0.0000000001
 12
1.0
 22
0.0
 32
0.0
 13
1.0
 23
0.0
 33
0.0
 40
0.0
 40
0.0
 40
0.0
 40
0.0
 40
1.0
 40
1.0
 40
1.0
 40
2.0
 40
2.0
 40
2.0
 40
2.0
 10
1493.708513092901
 20
1316.300127710885
 30
0.0
 10
1493.708513092901
 20
1316.300127710885
 30
0.0
 10
1536.228195738699
 20
1316.300127712793
 30
0.0
 10
1536.228195738699
 20
1316.300127712793
 30
0.0
 10
1536.383215415011
 20
1316.300127712801
 30
0.0
 10
1536.516089423274
 20
1316.421928887052
 30
0.0
 10
1536.516089423267
 20
1316.588021397387
 30
0.0
  0
POLYLINE
  5
CB
330
1F
100
AcDbEntity
  8
LAYER_1
 62
     7
100
AcDb2dPolyline
 66
     1
 10
0.0
 20
0.0
 30
0.0
  0
VERTEX
  5
CC
330
CB
100
AcDbEntity
  8
LAYER_1
 62
     7
100
AcDbVertex
100
AcDb2dVertex
 10
1536.516089423267
 20
1316.588021397387
 30
0.0
  0
VERTEX
  5
CD
330
CB
100
AcDbEntity
  8
LAYER_1
 62
     7
100
AcDbVertex
100
AcDb2dVertex
 10
1536.516089419449
 20
1401.627386688982
 30
0.0
  0
SEQEND
  5
CE
330
CB
100
AcDbEntity
  8
LAYER_1
 62
     7
  0
SPLINE
  5
CF
330
1F
100
AcDbEntity
  8
LAYER_1
 62
     7
100
AcDbSpline
210
0.0
220
0.0
230
1.0
 70
     8
 71
     3
 72
     8
 73
     4
 74
     0
 42
0.0000000001
 43
0.0000000001
 12
1.0
 22
0.0
 32
0.0
 13
1.0
 23
0.0
 33
0.0
 40
0.0
 40
0.0
 40
0.0
 40
0.0
 40
1.0
 40
1.0
 40
1.0
 40
1.0
 10
1536.516089419449
 20
1401.627386688982
 30
0.0
 10
1536.516089419441
 20
1401.782406365295
 30
0.0
 10
1536.39428824519
 20
1401.915280373558
 30
0.0
 10
1536.228195734855
 20
1401.915280373551
 30
0.0
  0
SPLINE
  5
D0
330
1F
100
AcDbEntity
  8
LAYER_1
 62
     7
100
AcDbSpline
210
0.0
220
0.0
230
1.0
 70
     8
 71
     3
 72
    11
 73
     7
 74
     0
 42
0.0000000001
 43
0.0000000001
 12
1.0
 22
0.0
 32
0.0
 13
1.0
 23
0.0
 33
0.0
 40
0.0
 40
0.0
 40
0.0
 40
0.0
 40
1.0
 40
1.0
 40
1.0
 40
2.0
 40
2.0
 40
2.0
 40
2.0
 10
1536.228195734855
 20
1401.915280373551
 30
0.0
 10
1536.228195734855
 20
1401.915280373551
 30
0.0
 10
1493.708513089057
 20
1401.915280371642
 30
0.0
 10
1493.708513089057
 20
1401.915280371642
 30
0.0
 10
1493.86353276537
 20
1401.915280371648
 30
0.0
 10
1493.996406773644
 20
1401.793479197409
 30
0.0
 10
1493.996406773651
 20
1401.627386687074
 30
0.0
  0
SPLINE
  5
D1
330
1F
100
AcDbEntity
  8
LAYER_1
 62
     7
100
AcDbSpline
210
0.0
220
0.0
230
1.0
 70
     8
 71
     3
 72
    11
 73
     7
 74
     0
 42
0.0000000001
 43
0.0000000001
 12
1.0
 22
0.0
 32
0.0
 13
1.0
 23
0.0
 33
0.0
 40
0.0
 40
0.0
 40
0.0
 40
0.0
 40
1.0
 40
1.0
 40
1.0
 40
2.0
 40
2.0
 40
2.0
 40
2.0
 10
1493.996406773651
 20
1401.627386687074
 30
0.0
 10
1493.996406773651
 20
1401.627386687074
 30
0.0
 10
1493.996406764105
 20
1614.225799916063
 30
0.0
 10
1493.996406764105
 20
1614.225799916063
 30
0.0
 10
1493.996406764112
 20
1614.07078023975
 30
0.0
 10
1493.874605589874
 20
1613.937906231477
 30
0.0
 10
1493.708513079539
 20
1613.937906231469
 30
0.0
  0
SPLINE
  5
D2
330
1F
100
AcDbEntity
  8
LAYER_1
 62
     7
100
AcDbSpline
210
0.0
220
0.0
230
1.0
 70
     8
 71
     3
 72
    11
 73
     7
 74
     0
 42
0.0000000001
 43
0.0000000001
 12
1.0
 22
0.0
 32
0.0
 13
1.0
 23
0.0
 33
0.0
 40
0.0
 40
0.0
 40
0.0
 40
0.0
 40
1.0
 40
1.0
 40
1.0
 40
2.0
 40
2.0
 40
2.0
 40
2.0
 10
1493.708513079539
 20
1613.937906231469
 30
0.0
 10
1493.708513079539
 20
1613.937906231469
 30
0.0
 10
1536.228195725336
 20
1613.937906233377
 30
0.0
 10
1536.228195725336
 20
1613.937906233377
 30
0.0
 10
1536.383215401649
 20
1613.937906233385
 30
0.0
 10
1536.51608940991
 20
1614.059707407636
 30
0.0
 10
1536.516089409903
 20
1614.225799917971
 30
0.0
  0
POLYLINE
  5
D3
330
1F
100
AcDbEntity
  8
LAYER_1
 62
     7
100
AcDb2dPolyline
 66
     1
 10
0.0
 20
0.0
 30
0.0
  0
VERTEX
  5
D4
330
D3
100
AcDbEntity
  8
LAYER_1
 62
     7
100
AcDbVertex
100
AcDb2dVertex
 10
1536.516089409903
 20
1614.225799917971
 30
0.0
  0
VERTEX
  5
D5
330
D3
100
AcDbEntity
  8
LAYER_1
 62
     7
100
AcDbVertex
100
AcDb2dVertex
 10
1536.516089406086
 20
1699.265165209566
 30
0.0
  0
SEQEND
  5
D6
330
D3
100
AcDbEntity
  8
LAYER_1
 62
     7
  0
SPLINE
  5
D7
330
1F
100
AcDbEntity
  8
LAYER_1
 62
     7
100
AcDbSpline
210
0.0
220
0.0
230
1.0
 70
     8
 71
     3
 72
     8
 73
     4
 74
     0
 42
0.0000000001
 43
0.0000000001
 12
1.0
 22
0.0
 32
0.0
 13
1.0
 23
0.0
 33
0.0
 40
0.0
 40
0.0
 40
0.0
 40
0.0
 40
1.0
 40
1.0
 40
1.0
 40
1.0
 10
1536.516089406086
 20
1699.265165209566
 30
0.0
 10
1536.516089406079
 20
1699.420184885879
 30
0.0
 10
1536.394288231826
 20
1699.553058894142
 30
0.0
 10
1536.228195721491
 20
1699.553058894135
 30
0.0
  0
SPLINE
  5
D8
330
1F
100
AcDbEntity
  8
LAYER_1
 62
     7
100
AcDbSpline
210
0.0
220
0.0
230
1.0
 70
     8
 71
     3
 72
    11
 73
     7
 74
     0
 42
0.0000000001
 43
0.0000000001
 12
1.0
 22
0.0
 32
0.0
 13
1.0
 23
0.0
 33
0.0
 40
0.0
 40
0.0
 40
0.0
 40
0.0
 40
1.0
 40
1.0
 40
1.0
 40
2.0
 40
2.0
 40
2.0
 40
2.0
 10
1536.228195721491
 20
1699.553058894135
 30
0.0
 10
1536.228195721491
 20
1699.553058894135
 30
0.0
 10
1493.708513075693
 20
1699.553058892227
 30
0.0
 10
1493.708513075693
 20
1699.553058892227
 30
0.0
 10
1493.863532752006
 20
1699.553058892232
 30
0.0
 10
1493.996406760281
 20
1699.431257717994
 30
0.0
 10
1493.996406760289
 20
1699.265165207658
 30
0.0
  0
SPLINE
  5
D9
330
1F
100
AcDbEntity
  8
LAYER_1
 62
     7
100
AcDbSpline
210
0.0
220
0.0
230
1.0
 70
     8
 71
     3
 72
    11
 73
     7
 74
     0
 42
0.0000000001
 43
0.0000000001
 12
1.0
 22
0.0
 32
0.0
 13
1.0
 23
0.0
 33
0.0
 40
0.0
 40
0.0
 40
0.0
 40
0.0
 40
1.0
 40
1.0
 40
1.0
 40
2.0
 40
2.0
 40
2.0
 40
2.0
 10
1493.996406760289
 20
1699.265165207658
 30
0.0
 10
1493.996406760289
 20
1699.265165207658
 30
0.0
 10
1493.996406750743
 20
1911.863578436647
 30
0.0
 10
1493.996406750743
 20
1911.863578436647
 30
0.0
 10
1493.99640675075
 20
1911.708558760334
 30
0.0
 10
1493.87460557651
 20
1911.575684752061
 30
0.0
 10
1493.708513066174
 20
1911.575684752053
 30
0.0
  0
SPLINE
  5
DA
330
1F
100
AcDbEntity
  8
LAYER_1
 62
     7
100
AcDbSpline
210
0.0
220
0.0
230
1.0
 70
     8
 71
     3
 72
    11
 73
     7
 74
     0
 42
0.0000000001
 43
0.0000000001
 12
1.0
 22
0.0
 32
0.0
 13
1.0
 23
0.0
 33
0.0
 40
0.0
 40
0.0
 40
0.0
 40
0.0
 40
1.0
 40
1.0
 40
1.0
 40
2.0
 40
2.0
 40
2.0
 40
2.0
 10
1493.708513066174
 20
1911.575684752053
 30
0.0
 10
1493.708513066174
 20
1911.575684752053
 30
0.0
 10
1536.228195711972
 20
1911.575684753961
 30
0.0
 10
1536.228195711972
 20
1911.575684753961
 30
0.0
 10
1536.383215388285
 20
1911.575684753969
 30
0.0
 10
1536.516089396548
 20
1911.69748592822
 30
0.0
 10
1536.51608939654
 20
1911.863578438555
 30
0.0
  0
POLYLINE
  5
DB
330
1F
100
AcDbEntity
  8
LAYER_1
 62
     7
100
AcDb2dPolyline
 66
     1
 10
0.0
 20
0.0
 30
0.0
  0
VERTEX
  5
DC
330
DB
100
AcDbEntity
  8
LAYER_1
 62
     7
100
AcDbVertex
100
AcDb2dVertex
 10
1536.51608939654
 20
1911.863578438555
 30
0.0
  0
VERTEX
  5
DD
330
DB
100
AcDbEntity
  8
LAYER_1
 62
     7
100
AcDbVertex
100
AcDb2dVertex
 10
1536.516089392722
 20
1996.902943730151
 30
0.0
  0
SEQEND
  5
DE
330
DB
100
AcDbEntity
  8
LAYER_1
 62
     7
  0
SPLINE
  5
DF
330
1F
100
AcDbEntity
  8
LAYER_1
 62
     7
100
AcDbSpline
210
0.0
220
0.0
230
1.0
 70
     8
 71
     3
 72
     8
 73
     4
 74
     0
 42
0.0000000001
 43
0.0000000001
 12
1.0
 22
0.0
 32
0.0
 13
1.0
 23
0.0
 33
0.0
 40
0.0
 40
0.0
 40
0.0
 40
0.0
 40
1.0
 40
1.0
 40
1.0
 40
1.0
 10
1536.516089392722
 20
1996.902943730151
 30
0.0
 10
1536.516089392717
 20
1997.057963406463
 30
0.0
 10
1536.394288218464
 20
1997.190837414726
 30
0.0
 10
1536.228195708129
 20
1997.190837414719
 30
0.0
  0
SPLINE
  5
E0
330
1F
100
AcDbEntity
  8
LAYER_1
 62
     7
100
AcDbSpline
210
0.0
220
0.0
230
1.0
 70
     8
 71
     3
 72
    11
 73
     7
 74
     0
 42
0.0000000001
 43
0.0000000001
 12
1.0
 22
0.0
 32
0.0
 13
1.0
 23
0.0
 33
0.0
 40
0.0
 40
0.0
 40
0.0
 40
0.0
 40
1.0
 40
1.0
 40
1.0
 40
2.0
 40
2.0
 40
2.0
 40
2.0
 10
1536.228195708129
 20
1997.190837414719
 30
0.0
 10
1536.228195708129
 20
1997.190837414719
 30
0.0
 10
1493.708513062331
 20
1997.190837412811
 30
0.0
 10
1493.708513062331
 20
1997.190837412811
 30
0.0
 10
1493.863532738644
 20
1997.190837412816
 30
0.0
 10
1493.996406746917
 20
1997.069036238578
 30
0.0
 10
1493.996406746925
 20
1996.902943728242
 30
0.0
  0
SPLINE
  5
E1
330
1F
100
AcDbEntity
  8
LAYER_1
 62
     7
100
AcDbSpline
210
0.0
220
0.0
230
1.0
 70
     8
 71
     3
 72
    11
 73
     7
 74
     0
 42
0.0000000001
 43
0.0000000001
 12
1.0
 22
0.0
 32
0.0
 13
1.0
 23
0.0
 33
0.0
 40
0.0
 40
0.0
 40
0.0
 40
0.0
 40
1.0
 40
1.0
 40
1.0
 40
2.0
 40
2.0
 40
2.0
 40
2.0
 10
1493.996406746925
 20
1996.902943728242
 30
0.0
 10
1493.996406746925
 20
1996.902943728242
 30
0.0
 10
1493.99640673738
 20
2209.501356957231
 30
0.0
 10
1493.99640673738
 20
2209.501356957231
 30
0.0
 10
1493.996406737388
 20
2209.346337280918
 30
0.0
 10
1493.874605563147
 20
2209.213463272645
 30
0.0
 10
1493.708513052812
 20
2209.213463272637
 30
0.0
  0
SPLINE
  5
E2
330
1F
100
AcDbEntity
  8
LAYER_1
 62
     7
100
AcDbSpline
210
0.0
220
0.0
230
1.0
 70
     8
 71
     3
 72
    11
 73
     7
 74
     0
 42
0.0000000001
 43
0.0000000001
 12
1.0
 22
0.0
 32
0.0
 13
1.0
 23
0.0
 33
0.0
 40
0.0
 40
0.0
 40
0.0
 40
0.0
 40
1.0
 40
1.0
 40
1.0
 40
2.0
 40
2.0
 40
2.0
 40
2.0
 10
1493.708513052812
 20
2209.213463272637
 30
0.0
 10
1493.708513052812
 20
2209.213463272637
 30
0.0
 10
1536.22819569861
 20
2209.213463274546
 30
0.0
 10
1536.22819569861
 20
2209.213463274546
 30
0.0
 10
1536.383215374923
 20
2209.213463274553
 30
0.0
 10
1536.516089383185
 20
2209.335264448804
 30
0.0
 10
1536.516089383178
 20
2209.501356959139
 30
0.0
  0
POLYLINE
  5
E3
330
1F
100
AcDbEntity
  8
LAYER_1
 62
     7
100
AcDb2dPolyline
 66
     1
 10
0.0
 20
0.0
 30
0.0
  0
VERTEX
  5
E4
330
E3
100
AcDbEntity
  8
LAYER_1
 62
     7
100
AcDbVertex
100
AcDb2dVertex
 10
1536.516089383178
 20
2209.501356959139
 30
0.0
  0
VERTEX
  5
E5
330
E3
100
AcDbEntity
  8
LAYER_1
 62
     7
100
AcDbVertex
100
AcDb2dVertex
 10
1536.516089378087
 20
2322.887177347933
 30
0.0
  0
SEQEND
  5
E6
330
E3
100
AcDbEntity
  8
LAYER_1
 62
     7
  0
SPLINE
  5
E7
330
1F
100
AcDbEntity
  8
LAYER_1
 62
     7
100
AcDbSpline
210
0.0
220
0.0
230
1.0
 70
     8
 71
     3
 72
     8
 73
     4
 74
     0
 42
0.0000000001
 43
0.0000000001
 12
1.0
 22
0.0
 32
0.0
 13
1.0
 23
0.0
 33
0.0
 40
0.0
 40
0.0
 40
0.0
 40
0.0
 40
1.0
 40
1.0
 40
1.0
 40
1.0
 10
1536.516089378087
 20
2322.887177347933
 30
0.0
 10
1536.516089378081
 20
2323.042197024246
 30
0.0
 10
1536.394288203828
 20
2323.175072447531
 30
0.0
 10
1536.228195693493
 20
2323.175072447524
 30
0.0
  0
POLYLINE
  5
E8
330
1F
100
AcDbEntity
  8
LAYER_1
 62
     7
100
AcDb2dPolyline
 66
     1
 10
0.0
 20
0.0
 30
0.0
  0
VERTEX
  5
E9
330
E8
100
AcDbEntity
  8
LAYER_1
 62
     7
100
AcDbVertex
100
AcDb2dVertex
 10
1536.228195693493
 20
2323.175072447524
 30
0.0
  0
VERTEX
  5
EA
330
E8
100
AcDbEntity
  8
LAYER_1
 62
     7
100
AcDbVertex
100
AcDb2dVertex
 10
1493.708513047695
 20
2323.175072445615
 30
0.0
  0
SEQEND
  5
EB
330
E8
100
AcDbEntity
  8
LAYER_1
 62
     7
  0
POLYLINE
  5
EC
330
1F
100
AcDbEntity
  8
LAYER_1
 62
     7
100
AcDb2dPolyline
 66
     1
 10
0.0
 20
0.0
 30
0.0
  0
VERTEX
  5
ED
330
EC
100
AcDbEntity
  8
LAYER_1
 62
     7
100
AcDbVertex
100
AcDb2dVertex
 10
1493.708513047695
 20
2323.175072445615
 30
0.0
  0
VERTEX
  5
EE
330
EC
100
AcDbEntity
  8
LAYER_1
 62
     7
100
AcDbVertex
100
AcDb2dVertex
 10
1323.629782464504
 20
2323.175069607933
 30
0.0
  0
SEQEND
  5
EF
330
EC
100
AcDbEntity
  8
LAYER_1
 62
     7
  0
POLYLINE
  5
F0
330
1F
100
AcDbEntity
  8
LAYER_1
 62
     7
100
AcDb2dPolyline
 66
     1
 10
0.0
 20
0.0
 30
0.0
  0
VERTEX
  5
F1
330
F0
100
AcDbEntity
  8
LAYER_1
 62
     7
100
AcDbVertex
100
AcDb2dVertex
 10
1323.629782464504
 20
2323.175069607933
 30
0.0
  0
VERTEX
  5
F2
330
F0
100
AcDbEntity
  8
LAYER_1
 62
     7
100
AcDbVertex
100
AcDb2dVertex
 10
1153.551049177982
 20
2323.175069600297
 30
0.0
  0
SEQEND
  5
F3
330
F0
100
AcDbEntity
  8
LAYER_1
 62
     7
  0
SPLINE
  5
F4
330
1F
100
AcDbEntity
  8
LAYER_1
 62
     7
100
AcDbSpline
210
0.0
220
0.0
230
1.0
 70
     8
 71
     3
 72
    11
 73
     7
 74
     0
 42
0.0000000001
 43
0.0000000001
 12
1.0
 22
0.0
 32
0.0
 13
1.0
 23
0.0
 33
0.0
 40
0.0
 40
0.0
 40
0.0
 40
0.0
 40
1.0
 40
1.0
 40
1.0
 40
2.0
 40
2.0
 40
2.0
 40
2.0
 10
1153.551049177982
 20
2323.175069600297
 30
0.0
 10
1153.551049177982
 20
2323.175069600297
 30
0.0
 10
1111.031367820495
 20
2323.175069598388
 30
0.0
 10
1111.031367820495
 20
2323.175069598388
 30
0.0
 10
1110.876349559203
 20
2323.175069598382
 30
0.0
 10
1110.74347555094
 20
2323.053269976432
 30
0.0
 10
1110.743475550948
 20
2322.887177328817
 30
0.0
  0
POLYLINE
  5
F5
330
1F
100
AcDbEntity
  8
LAYER_1
 62
     7
100
AcDb2dPolyline
 66
     1
 10
0.0
 20
0.0
 30
0.0
  0
VERTEX
  5
F6
330
F5
100
AcDbEntity
  8
LAYER_1
 62
     7
100
AcDbVertex
100
AcDb2dVertex
 10
1110.743475550948
 20
2322.887177328817
 30
0.0
  0
VERTEX
  5
F7
330
F5
100
AcDbEntity
  8
LAYER_1
 62
     7
100
AcDbVertex
100
AcDb2dVertex
 10
1110.743475550948
 20
2322.887177328817
 30
0.0
  0
SEQEND
  5
F8
330
F5
100
AcDbEntity
  8
LAYER_1
 62
     7
  0
POLYLINE
  5
F9
330
1F
100
AcDbEntity
  8
LAYER_1
 62
     7
100
AcDb2dPolyline
 66
     1
 10
0.0
 20
0.0
 30
0.0
  0
VERTEX
  5
FA
330
F9
100
AcDbEntity
  8
LAYER_1
 62
     7
100
AcDbVertex
100
AcDb2dVertex
 10
1620.922752001485
 20
2322.887177348887
 30
0.0
  0
VERTEX
  5
FB
330
F9
100
AcDbEntity
  8
LAYER_1
 62
     7
100
AcDbVertex
100
AcDb2dVertex
 10
1620.922752006576
 20
2209.501356960092
 30
0.0
  0
SEQEND
  5
FC
330
F9
100
AcDbEntity
  8
LAYER_1
 62
     7
  0
SPLINE
  5
FD
330
1F
100
AcDbEntity
  8
LAYER_1
 62
     7
100
AcDbSpline
210
0.0
220
0.0
230
1.0
 70
     8
 71
     3
 72
     8
 73
     4
 74
     0
 42
0.0000000001
 43
0.0000000001
 12
1.0
 22
0.0
 32
0.0
 13
1.0
 23
0.0
 33
0.0
 40
0.0
 40
0.0
 40
0.0
 40
0.0
 40
1.0
 40
1.0
 40
1.0
 40
1.0
 10
1620.922752006576
 20
2209.501356960092
 30
0.0
 10
1620.922752006583
 20
2209.34633728378
 30
0.0
 10
1621.044553318114
 20
2209.213463275519
 30
0.0
 10
1621.210644276149
 20
2209.213463275526
 30
0.0
  0
SPLINE
  5
FE
330
1F
100
AcDbEntity
  8
LAYER_1
 62
     7
100
AcDbSpline
210
0.0
220
0.0
230
1.0
 70
     8
 71
     3
 72
    11
 73
     7
 74
     0
 42
0.0000000001
 43
0.0000000001
 12
1.0
 22
0.0
 32
0.0
 13
1.0
 23
0.0
 33
0.0
 40
0.0
 40
0.0
 40
0.0
 40
0.0
 40
1.0
 40
1.0
 40
1.0
 40
2.0
 40
2.0
 40
2.0
 40
2.0
 10
1621.210644276149
 20
2209.213463275526
 30
0.0
 10
1621.210644276149
 20
2209.213463275526
 30
0.0
 10
1663.730325633636
 20
2209.213463277434
 30
0.0
 10
1663.730325633636
 20
2209.213463277434
 30
0.0
 10
1663.575308660655
 20
2209.213463277427
 30
0.0
 10
1663.442434652381
 20
2209.335264451667
 30
0.0
 10
1663.442434652374
 20
2209.501356962002
 30
0.0
  0
SPLINE
  5
FF
330
1F
100
AcDbEntity
  8
LAYER_1
 62
     7
100
AcDbSpline
210
0.0
220
0.0
230
1.0
 70
     8
 71
     3
 72
    11
 73
     7
 74
     0
 42
0.0000000001
 43
0.0000000001
 12
1.0
 22
0.0
 32
0.0
 13
1.0
 23
0.0
 33
0.0
 40
0.0
 40
0.0
 40
0.0
 40
0.0
 40
1.0
 40
1.0
 40
1.0
 40
2.0
 40
2.0
 40
2.0
 40
2.0
 10
1663.442434652374
 20
2209.501356962002
 30
0.0
 10
1663.442434652374
 20
2209.501356962002
 30
0.0
 10
1663.442434661918
 20
1996.902943733014
 30
0.0
 10
1663.442434661918
 20
1996.902943733014
 30
0.0
 10
1663.442434661913
 20
1997.057963409326
 30
0.0
 10
1663.564235836151
 20
1997.1908374176
 30
0.0
 10
1663.730325643155
 20
1997.190837417607
 30
0.0
  0
SPLINE
  5
100
330
1F
100
AcDbEntity
  8
LAYER_1
 62
     7
100
AcDbSpline
210
0.0
220
0.0
230
1.0
 70
     8
 71
     3
 72
    11
 73
     7
 74
     0
 42
0.0000000001
 43
0.0000000001
 12
1.0
 22
0.0
 32
0.0
 13
1.0
 23
0.0
 33
0.0
 40
0.0
 40
0.0
 40
0.0
 40
0.0
 40
1.0
 40
1.0
 40
1.0
 40
2.0
 40
2.0
 40
2.0
 40
2.0
 10
1663.730325643155
 20
1997.190837417607
 30
0.0
 10
1663.730325643155
 20
1997.190837417607
 30
0.0
 10
1621.210644285668
 20
1997.190837415699
 30
0.0
 10
1621.210644285668
 20
1997.190837415699
 30
0.0
 10
1621.055626024376
 20
1997.190837415692
 30
0.0
 10
1620.922752016113
 20
1997.069036241439
 30
0.0
 10
1620.92275201612
 20
1996.902943731104
 30
0.0
  0
POLYLINE
  5
101
330
1F
100
AcDbEntity
  8
LAYER_1
 62
     7
100
AcDb2dPolyline
 66
     1
 10
0.0
 20
0.0
 30
0.0
  0
VERTEX
  5
102
330
101
100
AcDbEntity
  8
LAYER_1
 62
     7
100
AcDbVertex
100
AcDb2dVertex
 10
1620.92275201612
 20
1996.902943731104
 30
0.0
  0
VERTEX
  5
103
330
101
100
AcDbEntity
  8
LAYER_1
 62
     7
100
AcDbVertex
100
AcDb2dVertex
 10
1620.922752019938
 20
1911.863578439508
 30
0.0
  0
SEQEND
  5
104
330
101
100
AcDbEntity
  8
LAYER_1
 62
     7
  0
SPLINE
  5
105
330
1F
100
AcDbEntity
  8
LAYER_1
 62
     7
100
AcDbSpline
210
0.0
220
0.0
230
1.0
 70
     8
 71
     3
 72
     8
 73
     4
 74
     0
 42
0.0000000001
 43
0.0000000001
 12
1.0
 22
0.0
 32
0.0
 13
1.0
 23
0.0
 33
0.0
 40
0.0
 40
0.0
 40
0.0
 40
0.0
 40
1.0
 40
1.0
 40
1.0
 40
1.0
 10
1620.922752019938
 20
1911.863578439508
 30
0.0
 10
1620.922752019946
 20
1911.708558763195
 30
0.0
 10
1621.044553331476
 20
1911.575684754935
 30
0.0
 10
1621.210644289511
 20
1911.575684754942
 30
0.0
  0
SPLINE
  5
106
330
1F
100
AcDbEntity
  8
LAYER_1
 62
     7
100
AcDbSpline
210
0.0
220
0.0
230
1.0
 70
     8
 71
     3
 72
    11
 73
     7
 74
     0
 42
0.0000000001
 43
0.0000000001
 12
1.0
 22
0.0
 32
0.0
 13
1.0
 23
0.0
 33
0.0
 40
0.0
 40
0.0
 40
0.0
 40
0.0
 40
1.0
 40
1.0
 40
1.0
 40
2.0
 40
2.0
 40
2.0
 40
2.0
 10
1621.210644289511
 20
1911.575684754942
 30
0.0
 10
1621.210644289511
 20
1911.575684754942
 30
0.0
 10
1663.730325646999
 20
1911.57568475685
 30
0.0
 10
1663.730325646999
 20
1911.57568475685
 30
0.0
 10
1663.575308674017
 20
1911.575684756843
 30
0.0
 10
1663.442434665743
 20
1911.697485931083
 30
0.0
 10
1663.442434665736
 20
1911.863578441418
 30
0.0
  0
SPLINE
  5
107
330
1F
100
AcDbEntity
  8
LAYER_1
 62
     7
100
AcDbSpline
210
0.0
220
0.0
230
1.0
 70
     8
 71
     3
 72
    11
 73
     7
 74
     0
 42
0.0000000001
 43
0.0000000001
 12
1.0
 22
0.0
 32
0.0
 13
1.0
 23
0.0
 33
0.0
 40
0.0
 40
0.0
 40
0.0
 40
0.0
 40
1.0
 40
1.0
 40
1.0
 40
2.0
 40
2.0
 40
2.0
 40
2.0
 10
1663.442434665736
 20
1911.863578441418
 30
0.0
 10
1663.442434665736
 20
1911.863578441418
 30
0.0
 10
1663.442434675282
 20
1699.26516521243
 30
0.0
 10
1663.442434675282
 20
1699.26516521243
 30
0.0
 10
1663.442434675275
 20
1699.420184888742
 30
0.0
 10
1663.564235849513
 20
1699.553058897016
 30
0.0
 10
1663.730325656517
 20
1699.553058897023
 30
0.0
  0
SPLINE
  5
108
330
1F
100
AcDbEntity
  8
LAYER_1
 62
     7
100
AcDbSpline
210
0.0
220
0.0
230
1.0
 70
     8
 71
     3
 72
    11
 73
     7
 74
     0
 42
0.0000000001
 43
0.0000000001
 12
1.0
 22
0.0
 32
0.0
 13
1.0
 23
0.0
 33
0.0
 40
0.0
 40
0.0
 40
0.0
 40
0.0
 40
1.0
 40
1.0
 40
1.0
 40
2.0
 40
2.0
 40
2.0
 40
2.0
 10
1663.730325656517
 20
1699.553058897023
 30
0.0
 10
1663.730325656517
 20
1699.553058897023
 30
0.0
 10
1621.21064429903
 20
1699.553058895115
 30
0.0
 10
1621.21064429903
 20
1699.553058895115
 30
0.0
 10
1621.055626037738
 20
1699.553058895108
 30
0.0
 10
1620.922752029477
 20
1699.431257720855
 30
0.0
 10
1620.922752029484
 20
1699.26516521052
 30
0.0
  0
POLYLINE
  5
109
330
1F
100
AcDbEntity
  8
LAYER_1
 62
     7
100
AcDb2dPolyline
 66
     1
 10
0.0
 20
0.0
 30
0.0
  0
VERTEX
  5
10A
330
109
100
AcDbEntity
  8
LAYER_1
 62
     7
100
AcDbVertex
100
AcDb2dVertex
 10
1620.922752029484
 20
1699.26516521052
 30
0.0
  0
VERTEX
  5
10B
330
109
100
AcDbEntity
  8
LAYER_1
 62
     7
100
AcDbVertex
100
AcDb2dVertex
 10
1620.922752033301
 20
1614.225799918924
 30
0.0
  0
SEQEND
  5
10C
330
109
100
AcDbEntity
  8
LAYER_1
 62
     7
  0
SPLINE
  5
10D
330
1F
100
AcDbEntity
  8
LAYER_1
 62
     7
100
AcDbSpline
210
0.0
220
0.0
230
1.0
 70
     8
 71
     3
 72
     8
 73
     4
 74
     0
 42
0.0000000001
 43
0.0000000001
 12
1.0
 22
0.0
 32
0.0
 13
1.0
 23
0.0
 33
0.0
 40
0.0
 40
0.0
 40
0.0
 40
0.0
 40
1.0
 40
1.0
 40
1.0
 40
1.0
 10
1620.922752033301
 20
1614.225799918924
 30
0.0
 10
1620.922752033308
 20
1614.070780242611
 30
0.0
 10
1621.04455334484
 20
1613.937906234351
 30
0.0
 10
1621.210644302875
 20
1613.937906234358
 30
0.0
  0
SPLINE
  5
10E
330
1F
100
AcDbEntity
  8
LAYER_1
 62
     7
100
AcDbSpline
210
0.0
220
0.0
230
1.0
 70
     8
 71
     3
 72
    11
 73
     7
 74
     0
 42
0.0000000001
 43
0.0000000001
 12
1.0
 22
0.0
 32
0.0
 13
1.0
 23
0.0
 33
0.0
 40
0.0
 40
0.0
 40
0.0
 40
0.0
 40
1.0
 40
1.0
 40
1.0
 40
2.0
 40
2.0
 40
2.0
 40
2.0
 10
1621.210644302875
 20
1613.937906234358
 30
0.0
 10
1621.210644302875
 20
1613.937906234358
 30
0.0
 10
1663.730325660363
 20
1613.937906236266
 30
0.0
 10
1663.730325660363
 20
1613.937906236266
 30
0.0
 10
1663.575308687381
 20
1613.937906236259
 30
0.0
 10
1663.442434679106
 20
1614.059707410499
 30
0.0
 10
1663.442434679098
 20
1614.225799920834
 30
0.0
  0
SPLINE
  5
10F
330
1F
100
AcDbEntity
  8
LAYER_1
 62
     7
100
AcDbSpline
210
0.0
220
0.0
230
1.0
 70
     8
 71
     3
 72
    11
 73
     7
 74
     0
 42
0.0000000001
 43
0.0000000001
 12
1.0
 22
0.0
 32
0.0
 13
1.0
 23
0.0
 33
0.0
 40
0.0
 40
0.0
 40
0.0
 40
0.0
 40
1.0
 40
1.0
 40
1.0
 40
2.0
 40
2.0
 40
2.0
 40
2.0
 10
1663.442434679098
 20
1614.225799920834
 30
0.0
 10
1663.442434679098
 20
1614.225799920834
 30
0.0
 10
1663.442434688644
 20
1401.627386691845
 30
0.0
 10
1663.442434688644
 20
1401.627386691845
 30
0.0
 10
1663.442434688637
 20
1401.782406368158
 30
0.0
 10
1663.564235862877
 20
1401.915280376432
 30
0.0
 10
1663.730325669881
 20
1401.915280376439
 30
0.0
  0
SPLINE
  5
110
330
1F
100
AcDbEntity
  8
LAYER_1
 62
     7
100
AcDbSpline
210
0.0
220
0.0
230
1.0
 70
     8
 71
     3
 72
    11
 73
     7
 74
     0
 42
0.0000000001
 43
0.0000000001
 12
1.0
 22
0.0
 32
0.0
 13
1.0
 23
0.0
 33
0.0
 40
0.0
 40
0.0
 40
0.0
 40
0.0
 40
1.0
 40
1.0
 40
1.0
 40
2.0
 40
2.0
 40
2.0
 40
2.0
 10
1663.730325669881
 20
1401.915280376439
 30
0.0
 10
1663.730325669881
 20
1401.915280376439
 30
0.0
 10
1621.210644312394
 20
1401.915280374531
 30
0.0
 10
1621.210644312394
 20
1401.915280374531
 30
0.0
 10
1621.055626051102
 20
1401.915280374524
 30
0.0
 10
1620.922752042839
 20
1401.793479200271
 30
0.0
 10
1620.922752042847
 20
1401.627386689936
 30
0.0
  0
POLYLINE
  5
111
330
1F
100
AcDbEntity
  8
LAYER_1
 62
     7
100
AcDb2dPolyline
 66
     1
 10
0.0
 20
0.0
 30
0.0
  0
VERTEX
  5
112
330
111
100
AcDbEntity
  8
LAYER_1
 62
     7
100
AcDbVertex
100
AcDb2dVertex
 10
1620.922752042847
 20
1401.627386689936
 30
0.0
  0
VERTEX
  5
113
330
111
100
AcDbEntity
  8
LAYER_1
 62
     7
100
AcDbVertex
100
AcDb2dVertex
 10
1620.922752046665
 20
1316.58802139834
 30
0.0
  0
SEQEND
  5
114
330
111
100
AcDbEntity
  8
LAYER_1
 62
     7
  0
SPLINE
  5
115
330
1F
100
AcDbEntity
  8
LAYER_1
 62
     7
100
AcDbSpline
210
0.0
220
0.0
230
1.0
 70
     8
 71
     3
 72
     8
 73
     4
 74
     0
 42
0.0000000001
 43
0.0000000001
 12
1.0
 22
0.0
 32
0.0
 13
1.0
 23
0.0
 33
0.0
 40
0.0
 40
0.0
 40
0.0
 40
0.0
 40
1.0
 40
1.0
 40
1.0
 40
1.0
 10
1620.922752046665
 20
1316.58802139834
 30
0.0
 10
1620.92275204667
 20
1316.433001722027
 30
0.0
 10
1621.044553358202
 20
1316.300127713766
 30
0.0
 10
1621.210644316237
 20
1316.300127713774
 30
0.0
  0
SPLINE
  5
116
330
1F
100
AcDbEntity
  8
LAYER_1
 62
     7
100
AcDbSpline
210
0.0
220
0.0
230
1.0
 70
     8
 71
     3
 72
    11
 73
     7
 74
     0
 42
0.0000000001
 43
0.0000000001
 12
1.0
 22
0.0
 32
0.0
 13
1.0
 23
0.0
 33
0.0
 40
0.0
 40
0.0
 40
0.0
 40
0.0
 40
1.0
 40
1.0
 40
1.0
 40
2.0
 40
2.0
 40
2.0
 40
2.0
 10
1621.210644316237
 20
1316.300127713774
 30
0.0
 10
1621.210644316237
 20
1316.300127713774
 30
0.0
 10
1663.730325673725
 20
1316.300127715682
 30
0.0
 10
1663.730325673725
 20
1316.300127715682
 30
0.0
 10
1663.575308700743
 20
1316.300127715675
 30
0.0
 10
1663.44243469247
 20
1316.421928889915
 30
0.0
 10
1663.442434692462
 20
1316.58802140025
 30
0.0
  0
SPLINE
  5
117
330
1F
100
AcDbEntity
  8
LAYER_1
 62
     7
100
AcDbSpline
210
0.0
220
0.0
230
1.0
 70
     8
 71
     3
 72
    11
 73
     7
 74
     0
 42
0.0000000001
 43
0.0000000001
 12
1.0
 22
0.0
 32
0.0
 13
1.0
 23
0.0
 33
0.0
 40
0.0
 40
0.0
 40
0.0
 40
0.0
 40
1.0
 40
1.0
 40
1.0
 40
2.0
 40
2.0
 40
2.0
 40
2.0
 10
1663.442434692462
 20
1316.58802140025
 30
0.0
 10
1663.442434692462
 20
1316.58802140025
 30
0.0
 10
1663.442434702007
 20
1103.989608171261
 30
0.0
 10
1663.442434702007
 20
1103.989608171261
 30
0.0
 10
1663.442434701999
 20
1104.144627847574
 30
0.0
 10
1663.56423587624
 20
1104.277501855848
 30
0.0
 10
1663.730325683244
 20
1104.277501855855
 30
0.0
  0
SPLINE
  5
118
330
1F
100
AcDbEntity
  8
LAYER_1
 62
     7
100
AcDbSpline
210
0.0
220
0.0
230
1.0
 70
     8
 71
     3
 72
    11
 73
     7
 74
     0
 42
0.0000000001
 43
0.0000000001
 12
1.0
 22
0.0
 32
0.0
 13
1.0
 23
0.0
 33
0.0
 40
0.0
 40
0.0
 40
0.0
 40
0.0
 40
1.0
 40
1.0
 40
1.0
 40
2.0
 40
2.0
 40
2.0
 40
2.0
 10
1663.730325683244
 20
1104.277501855855
 30
0.0
 10
1663.730325683244
 20
1104.277501855855
 30
0.0
 10
1621.210644325756
 20
1104.277501853947
 30
0.0
 10
1621.210644325756
 20
1104.277501853947
 30
0.0
 10
1621.055626064464
 20
1104.27750185394
 30
0.0
 10
1620.922752056202
 20
1104.155700679687
 30
0.0
 10
1620.922752056209
 20
1103.989608169351
 30
0.0
  0
POLYLINE
  5
119
330
1F
100
AcDbEntity
  8
LAYER_1
 62
     7
100
AcDb2dPolyline
 66
     1
 10
0.0
 20
0.0
 30
0.0
  0
VERTEX
  5
11A
330
119
100
AcDbEntity
  8
LAYER_1
 62
     7
100
AcDbVertex
100
AcDb2dVertex
 10
1620.922752056209
 20
1103.989608169351
 30
0.0
  0
VERTEX
  5
11B
330
119
100
AcDbEntity
  8
LAYER_1
 62
     7
100
AcDbVertex
100
AcDb2dVertex
 10
1620.9227520613
 20
990.6037877805575
 30
0.0
  0
SEQEND
  5
11C
330
119
100
AcDbEntity
  8
LAYER_1
 62
     7
  0
SPLINE
  5
11D
330
1F
100
AcDbEntity
  8
LAYER_1
 62
     7
100
AcDbSpline
210
0.0
220
0.0
230
1.0
 70
     8
 71
     3
 72
     8
 73
     4
 74
     0
 42
0.0000000001
 43
0.0000000001
 12
1.0
 22
0.0
 32
0.0
 13
1.0
 23
0.0
 33
0.0
 40
0.0
 40
0.0
 40
0.0
 40
0.0
 40
1.0
 40
1.0
 40
1.0
 40
1.0
 10
1620.9227520613
 20
990.6037877805575
 30
0.0
 10
1620.922752061306
 20
990.4487681042447
 30
0.0
 10
1621.044553372838
 20
990.3158940959838
 30
0.0
 10
1621.210644330873
 20
990.3158940959911
 30
0.0
  0
POLYLINE
  5
11E
330
1F
100
AcDbEntity
  8
LAYER_1
 62
     7
100
AcDb2dPolyline
 66
     1
 10
0.0
 20
0.0
 30
0.0
  0
VERTEX
  5
11F
330
11E
100
AcDbEntity
  8
LAYER_1
 62
     7
100
AcDbVertex
100
AcDb2dVertex
 10
1621.210644330873
 20
990.3158940959911
 30
0.0
  0
VERTEX
  5
120
330
11E
100
AcDbEntity
  8
LAYER_1
 62
     7
100
AcDbVertex
100
AcDb2dVertex
 10
1663.730325688361
 20
990.3158940978992
 30
0.0
  0
SEQEND
  5
121
330
11E
100
AcDbEntity
  8
LAYER_1
 62
     7
  0
POLYLINE
  5
122
330
1F
100
AcDbEntity
  8
LAYER_1
 62
     7
100
AcDb2dPolyline
 66
     1
 10
0.0
 20
0.0
 30
0.0
  0
VERTEX
  5
123
330
122
100
AcDbEntity
  8
LAYER_1
 62
     7
100
AcDbVertex
100
AcDb2dVertex
 10
1663.730325688361
 20
990.3158940978992
 30
0.0
  0
VERTEX
  5
124
330
122
100
AcDbEntity
  8
LAYER_1
 62
     7
100
AcDbVertex
100
AcDb2dVertex
 10
1833.809058974883
 20
990.3158941055353
 30
0.0
  0
SEQEND
  5
125
330
122
100
AcDbEntity
  8
LAYER_1
 62
     7
  0
POLYLINE
  5
126
330
1F
100
AcDbEntity
  8
LAYER_1
 62
     7
100
AcDb2dPolyline
 66
     1
 10
0.0
 20
0.0
 30
0.0
  0
VERTEX
  5
127
330
126
100
AcDbEntity
  8
LAYER_1
 62
     7
100
AcDbVertex
100
AcDb2dVertex
 10
1833.809058974883
 20
990.3158941055353
 30
0.0
  0
VERTEX
  5
128
330
126
100
AcDbEntity
  8
LAYER_1
 62
     7
100
AcDbVertex
100
AcDb2dVertex
 10
2003.887789558074
 20
990.3158941131715
 30
0.0
  0
SEQEND
  5
129
330
126
100
AcDbEntity
  8
LAYER_1
 62
     7
  0
SPLINE
  5
12A
330
1F
100
AcDbEntity
  8
LAYER_1
 62
     7
100
AcDbSpline
210
0.0
220
0.0
230
1.0
 70
     8
 71
     3
 72
    11
 73
     7
 74
     0
 42
0.0000000001
 43
0.0000000001
 12
1.0
 22
0.0
 32
0.0
 13
1.0
 23
0.0
 33
0.0
 40
0.0
 40
0.0
 40
0.0
 40
0.0
 40
1.0
 40
1.0
 40
1.0
 40
2.0
 40
2.0
 40
2.0
 40
2.0
 10
2003.887789558074
 20
990.3158941131715
 30
0.0
 10
2003.887789558074
 20
990.3158941131715
 30
0.0
 10
2046.407472203871
 20
990.3158941150796
 30
0.0
 10
2046.407472203871
 20
990.3158941150796
 30
0.0
 10
2046.562491880184
 20
990.3158941150868
 30
0.0
 10
2046.695365888447
 20
990.4376952893399
 30
0.0
 10
2046.695365888439
 20
990.603787799675
 30
0.0
  0
POLYLINE
  5
12B
330
1F
100
AcDbEntity
  8
LAYER_1
 62
     7
100
AcDb2dPolyline
 66
     1
 10
0.0
 20
0.0
 30
0.0
  0
VERTEX
  5
12C
330
12B
100
AcDbEntity
  8
LAYER_1
 62
     7
100
AcDbVertex
100
AcDb2dVertex
 10
2046.695365888439
 20
990.603787799675
 30
0.0
  0
VERTEX
  5
12D
330
12B
100
AcDbEntity
  8
LAYER_1
 62
     7
100
AcDbVertex
100
AcDb2dVertex
 10
2046.695365888439
 20
990.603787799675
 30
0.0
  0
SEQEND
  5
12E
330
12B
100
AcDbEntity
  8
LAYER_1
 62
     7
  0
POLYLINE
  5
12F
330
1F
100
AcDbEntity
  8
LAYER_1
 62
     7
100
AcDb2dPolyline
 66
     1
 10
0.0
 20
0.0
 30
0.0
  0
VERTEX
  5
130
330
12F
100
AcDbEntity
  8
LAYER_1
 62
     7
100
AcDbVertex
100
AcDb2dVertex
 10
2046.695365888439
 20
990.603787799675
 30
0.0
  0
VERTEX
  5
131
330
12F
100
AcDbEntity
  8
LAYER_1
 62
     7
100
AcDbVertex
100
AcDb2dVertex
 10
2046.695365883348
 20
1103.989608188469
 30
0.0
  0
SEQEND
  5
132
330
12F
100
AcDbEntity
  8
LAYER_1
 62
     7
  0
SPLINE
  5
133
330
1F
100
AcDbEntity
  8
LAYER_1
 62
     7
100
AcDbSpline
210
0.0
220
0.0
230
1.0
 70
     8
 71
     3
 72
     8
 73
     4
 74
     0
 42
0.0000000001
 43
0.0000000001
 12
1.0
 22
0.0
 32
0.0
 13
1.0
 23
0.0
 33
0.0
 40
0.0
 40
0.0
 40
0.0
 40
0.0
 40
1.0
 40
1.0
 40
1.0
 40
1.0
 10
2046.695365883348
 20
1103.989608188469
 30
0.0
 10
2046.695365883341
 20
1104.144627864782
 30
0.0
 10
2046.57356470909
 20
1104.277501873043
 30
0.0
 10
2046.407472198754
 20
1104.277501873035
 30
0.0
  0
SPLINE
  5
134
330
1F
100
AcDbEntity
  8
LAYER_1
 62
     7
100
AcDbSpline
210
0.0
220
0.0
230
1.0
 70
     8
 71
     3
 72
    11
 73
     7
 74
     0
 42
0.0000000001
 43
0.0000000001
 12
1.0
 22
0.0
 32
0.0
 13
1.0
 23
0.0
 33
0.0
 40
0.0
 40
0.0
 40
0.0
 40
0.0
 40
1.0
 40
1.0
 40
1.0
 40
2.0
 40
2.0
 40
2.0
 40
2.0
 10
2046.407472198754
 20
1104.277501873035
 30
0.0
 10
2046.407472198754
 20
1104.277501873035
 30
0.0
 10
2003.887789552957
 20
1104.277501871127
 30
0.0
 10
2003.887789552957
 20
1104.277501871127
 30
0.0
 10
2004.04280922927
 20
1104.277501871135
 30
0.0
 10
2004.175683237543
 20
1104.155700696894
 30
0.0
 10
2004.17568323755
 20
1103.989608186559
 30
0.0
  0
SPLINE
  5
135
330
1F
100
AcDbEntity
  8
LAYER_1
 62
     7
100
AcDbSpline
210
0.0
220
0.0
230
1.0
 70
     8
 71
     3
 72
    11
 73
     7
 74
     0
 42
0.0000000001
 43
0.0000000001
 12
1.0
 22
0.0
 32
0.0
 13
1.0
 23
0.0
 33
0.0
 40
0.0
 40
0.0
 40
0.0
 40
0.0
 40
1.0
 40
1.0
 40
1.0
 40
2.0
 40
2.0
 40
2.0
 40
2.0
 10
2004.17568323755
 20
1103.989608186559
 30
0.0
 10
2004.17568323755
 20
1103.989608186559
 30
0.0
 10
2004.175683228006
 20
1316.588021415548
 30
0.0
 10
2004.175683228006
 20
1316.588021415548
 30
0.0
 10
2004.175683228012
 20
1316.433001739235
 30
0.0
 10
2004.053882053773
 20
1316.300127730961
 30
0.0
 10
2003.887789543438
 20
1316.300127730954
 30
0.0
  0
SPLINE
  5
136
330
1F
100
AcDbEntity
  8
LAYER_1
 62
     7
100
AcDbSpline
210
0.0
220
0.0
230
1.0
 70
     8
 71
     3
 72
    11
 73
     7
 74
     0
 42
0.0000000001
 43
0.0000000001
 12
1.0
 22
0.0
 32
0.0
 13
1.0
 23
0.0
 33
0.0
 40
0.0
 40
0.0
 40
0.0
 40
0.0
 40
1.0
 40
1.0
 40
1.0
 40
2.0
 40
2.0
 40
2.0
 40
2.0
 10
2003.887789543438
 20
1316.300127730954
 30
0.0
 10
2003.887789543438
 20
1316.300127730954
 30
0.0
 10
2046.407472189236
 20
1316.300127732862
 30
0.0
 10
2046.407472189236
 20
1316.300127732862
 30
0.0
 10
2046.562491865549
 20
1316.300127732869
 30
0.0
 10
2046.695365873811
 20
1316.421928907122
 30
0.0
 10
2046.695365873804
 20
1316.588021417458
 30
0.0
  0
POLYLINE
  5
137
330
1F
100
AcDbEntity
  8
LAYER_1
 62
     7
100
AcDb2dPolyline
 66
     1
 10
0.0
 20
0.0
 30
0.0
  0
VERTEX
  5
138
330
137
100
AcDbEntity
  8
LAYER_1
 62
     7
100
AcDbVertex
100
AcDb2dVertex
 10
2046.695365873804
 20
1316.588021417458
 30
0.0
  0
VERTEX
  5
139
330
137
100
AcDbEntity
  8
LAYER_1
 62
     7
100
AcDbVertex
100
AcDb2dVertex
 10
2046.695365869986
 20
1401.627386709053
 30
0.0
  0
SEQEND
  5
13A
330
137
100
AcDbEntity
  8
LAYER_1
 62
     7
  0
SPLINE
  5
13B
330
1F
100
AcDbEntity
  8
LAYER_1
 62
     7
100
AcDbSpline
210
0.0
220
0.0
230
1.0
 70
     8
 71
     3
 72
     8
 73
     4
 74
     0
 42
0.0000000001
 43
0.0000000001
 12
1.0
 22
0.0
 32
0.0
 13
1.0
 23
0.0
 33
0.0
 40
0.0
 40
0.0
 40
0.0
 40
0.0
 40
1.0
 40
1.0
 40
1.0
 40
1.0
 10
2046.695365869986
 20
1401.627386709053
 30
0.0
 10
2046.695365869979
 20
1401.782406385366
 30
0.0
 10
2046.573564695727
 20
1401.915280393627
 30
0.0
 10
2046.407472185392
 20
1401.915280393619
 30
0.0
  0
SPLINE
  5
13C
330
1F
100
AcDbEntity
  8
LAYER_1
 62
     7
100
AcDbSpline
210
0.0
220
0.0
230
1.0
 70
     8
 71
     3
 72
    11
 73
     7
 74
     0
 42
0.0000000001
 43
0.0000000001
 12
1.0
 22
0.0
 32
0.0
 13
1.0
 23
0.0
 33
0.0
 40
0.0
 40
0.0
 40
0.0
 40
0.0
 40
1.0
 40
1.0
 40
1.0
 40
2.0
 40
2.0
 40
2.0
 40
2.0
 10
2046.407472185392
 20
1401.915280393619
 30
0.0
 10
2046.407472185392
 20
1401.915280393619
 30
0.0
 10
2003.887789539594
 20
1401.915280391711
 30
0.0
 10
2003.887789539594
 20
1401.915280391711
 30
0.0
 10
2004.042809215907
 20
1401.915280391719
 30
0.0
 10
2004.175683224181
 20
1401.793479217478
 30
0.0
 10
2004.175683224188
 20
1401.627386707143
 30
0.0
  0
SPLINE
  5
13D
330
1F
100
AcDbEntity
  8
LAYER_1
 62
     7
100
AcDbSpline
210
0.0
220
0.0
230
1.0
 70
     8
 71
     3
 72
    11
 73
     7
 74
     0
 42
0.0000000001
 43
0.0000000001
 12
1.0
 22
0.0
 32
0.0
 13
1.0
 23
0.0
 33
0.0
 40
0.0
 40
0.0
 40
0.0
 40
0.0
 40
1.0
 40
1.0
 40
1.0
 40
2.0
 40
2.0
 40
2.0
 40
2.0
 10
2004.175683224188
 20
1401.627386707143
 30
0.0
 10
2004.175683224188
 20
1401.627386707143
 30
0.0
 10
2004.175683214642
 20
1614.225799936132
 30
0.0
 10
2004.175683214642
 20
1614.225799936132
 30
0.0
 10
2004.175683214649
 20
1614.070780259819
 30
0.0
 10
2004.053882040411
 20
1613.937906251545
 30
0.0
 10
2003.887789530076
 20
1613.937906251538
 30
0.0
  0
SPLINE
  5
13E
330
1F
100
AcDbEntity
  8
LAYER_1
 62
     7
100
AcDbSpline
210
0.0
220
0.0
230
1.0
 70
     8
 71
     3
 72
    11
 73
     7
 74
     0
 42
0.0000000001
 43
0.0000000001
 12
1.0
 22
0.0
 32
0.0
 13
1.0
 23
0.0
 33
0.0
 40
0.0
 40
0.0
 40
0.0
 40
0.0
 40
1.0
 40
1.0
 40
1.0
 40
2.0
 40
2.0
 40
2.0
 40
2.0
 10
2003.887789530076
 20
1613.937906251538
 30
0.0
 10
2003.887789530076
 20
1613.937906251538
 30
0.0
 10
2046.407472175873
 20
1613.937906253446
 30
0.0
 10
2046.407472175873
 20
1613.937906253446
 30
0.0
 10
2046.562491852186
 20
1613.937906253454
 30
0.0
 10
2046.695365860447
 20
1614.059707427707
 30
0.0
 10
2046.69536586044
 20
1614.225799938042
 30
0.0
  0
POLYLINE
  5
13F
330
1F
100
AcDbEntity
  8
LAYER_1
 62
     7
100
AcDb2dPolyline
 66
     1
 10
0.0
 20
0.0
 30
0.0
  0
VERTEX
  5
140
330
13F
100
AcDbEntity
  8
LAYER_1
 62
     7
100
AcDbVertex
100
AcDb2dVertex
 10
2046.69536586044
 20
1614.225799938042
 30
0.0
  0
VERTEX
  5
141
330
13F
100
AcDbEntity
  8
LAYER_1
 62
     7
100
AcDbVertex
100
AcDb2dVertex
 10
2046.695365856624
 20
1699.265165229637
 30
0.0
  0
SEQEND
  5
142
330
13F
100
AcDbEntity
  8
LAYER_1
 62
     7
  0
SPLINE
  5
143
330
1F
100
AcDbEntity
  8
LAYER_1
 62
     7
100
AcDbSpline
210
0.0
220
0.0
230
1.0
 70
     8
 71
     3
 72
     8
 73
     4
 74
     0
 42
0.0000000001
 43
0.0000000001
 12
1.0
 22
0.0
 32
0.0
 13
1.0
 23
0.0
 33
0.0
 40
0.0
 40
0.0
 40
0.0
 40
0.0
 40
1.0
 40
1.0
 40
1.0
 40
1.0
 10
2046.695365856624
 20
1699.265165229637
 30
0.0
 10
2046.695365856616
 20
1699.42018490595
 30
0.0
 10
2046.573564682363
 20
1699.553058914211
 30
0.0
 10
2046.407472172028
 20
1699.553058914204
 30
0.0
  0
SPLINE
  5
144
330
1F
100
AcDbEntity
  8
LAYER_1
 62
     7
100
AcDbSpline
210
0.0
220
0.0
230
1.0
 70
     8
 71
     3
 72
    11
 73
     7
 74
     0
 42
0.0000000001
 43
0.0000000001
 12
1.0
 22
0.0
 32
0.0
 13
1.0
 23
0.0
 33
0.0
 40
0.0
 40
0.0
 40
0.0
 40
0.0
 40
1.0
 40
1.0
 40
1.0
 40
2.0
 40
2.0
 40
2.0
 40
2.0
 10
2046.407472172028
 20
1699.553058914204
 30
0.0
 10
2046.407472172028
 20
1699.553058914204
 30
0.0
 10
2003.88778952623
 20
1699.553058912295
 30
0.0
 10
2003.88778952623
 20
1699.553058912295
 30
0.0
 10
2004.042809202543
 20
1699.553058912303
 30
0.0
 10
2004.175683210819
 20
1699.431257738062
 30
0.0
 10
2004.175683210826
 20
1699.265165227727
 30
0.0
  0
SPLINE
  5
145
330
1F
100
AcDbEntity
  8
LAYER_1
 62
     7
100
AcDbSpline
210
0.0
220
0.0
230
1.0
 70
     8
 71
     3
 72
    11
 73
     7
 74
     0
 42
0.0000000001
 43
0.0000000001
 12
1.0
 22
0.0
 32
0.0
 13
1.0
 23
0.0
 33
0.0
 40
0.0
 40
0.0
 40
0.0
 40
0.0
 40
1.0
 40
1.0
 40
1.0
 40
2.0
 40
2.0
 40
2.0
 40
2.0
 10
2004.175683210826
 20
1699.265165227727
 30
0.0
 10
2004.175683210826
 20
1699.265165227727
 30
0.0
 10
2004.17568320128
 20
1911.863578456716
 30
0.0
 10
2004.17568320128
 20
1911.863578456716
 30
0.0
 10
2004.175683201287
 20
1911.708558780403
 30
0.0
 10
2004.053882027047
 20
1911.57568477213
 30
0.0
 10
2003.887789516712
 20
1911.575684772122
 30
0.0
  0
SPLINE
  5
146
330
1F
100
AcDbEntity
  8
LAYER_1
 62
     7
100
AcDbSpline
210
0.0
220
0.0
230
1.0
 70
     8
 71
     3
 72
    11
 73
     7
 74
     0
 42
0.0000000001
 43
0.0000000001
 12
1.0
 22
0.0
 32
0.0
 13
1.0
 23
0.0
 33
0.0
 40
0.0
 40
0.0
 40
0.0
 40
0.0
 40
1.0
 40
1.0
 40
1.0
 40
2.0
 40
2.0
 40
2.0
 40
2.0
 10
2003.887789516712
 20
1911.575684772122
 30
0.0
 10
2003.887789516712
 20
1911.575684772122
 30
0.0
 10
2046.407472162509
 20
1911.57568477403
 30
0.0
 10
2046.407472162509
 20
1911.57568477403
 30
0.0
 10
2046.562491838822
 20
1911.575684774038
 30
0.0
 10
2046.695365847085
 20
1911.697485948291
 30
0.0
 10
2046.695365847077
 20
1911.863578458626
 30
0.0
  0
POLYLINE
  5
147
330
1F
100
AcDbEntity
  8
LAYER_1
 62
     7
100
AcDb2dPolyline
 66
     1
 10
0.0
 20
0.0
 30
0.0
  0
VERTEX
  5
148
330
147
100
AcDbEntity
  8
LAYER_1
 62
     7
100
AcDbVertex
100
AcDb2dVertex
 10
2046.695365847077
 20
1911.863578458626
 30
0.0
  0
VERTEX
  5
149
330
147
100
AcDbEntity
  8
LAYER_1
 62
     7
100
AcDbVertex
100
AcDb2dVertex
 10
2046.695365843259
 20
1996.902943750221
 30
0.0
  0
SEQEND
  5
14A
330
147
100
AcDbEntity
  8
LAYER_1
 62
     7
  0
SPLINE
  5
14B
330
1F
100
AcDbEntity
  8
LAYER_1
 62
     7
100
AcDbSpline
210
0.0
220
0.0
230
1.0
 70
     8
 71
     3
 72
     8
 73
     4
 74
     0
 42
0.0000000001
 43
0.0000000001
 12
1.0
 22
0.0
 32
0.0
 13
1.0
 23
0.0
 33
0.0
 40
0.0
 40
0.0
 40
0.0
 40
0.0
 40
1.0
 40
1.0
 40
1.0
 40
1.0
 10
2046.695365843259
 20
1996.902943750221
 30
0.0
 10
2046.695365843252
 20
1997.057963426534
 30
0.0
 10
2046.573564669001
 20
1997.190837434795
 30
0.0
 10
2046.407472158666
 20
1997.190837434788
 30
0.0
  0
SPLINE
  5
14C
330
1F
100
AcDbEntity
  8
LAYER_1
 62
     7
100
AcDbSpline
210
0.0
220
0.0
230
1.0
 70
     8
 71
     3
 72
    11
 73
     7
 74
     0
 42
0.0000000001
 43
0.0000000001
 12
1.0
 22
0.0
 32
0.0
 13
1.0
 23
0.0
 33
0.0
 40
0.0
 40
0.0
 40
0.0
 40
0.0
 40
1.0
 40
1.0
 40
1.0
 40
2.0
 40
2.0
 40
2.0
 40
2.0
 10
2046.407472158666
 20
1997.190837434788
 30
0.0
 10
2046.407472158666
 20
1997.190837434788
 30
0.0
 10
2003.887789512868
 20
1997.19083743288
 30
0.0
 10
2003.887789512868
 20
1997.19083743288
 30
0.0
 10
2004.042809189181
 20
1997.190837432887
 30
0.0
 10
2004.175683197454
 20
1997.069036258647
 30
0.0
 10
2004.175683197462
 20
1996.902943748311
 30
0.0
  0
SPLINE
  5
14D
330
1F
100
AcDbEntity
  8
LAYER_1
 62
     7
100
AcDbSpline
210
0.0
220
0.0
230
1.0
 70
     8
 71
     3
 72
    11
 73
     7
 74
     0
 42
0.0000000001
 43
0.0000000001
 12
1.0
 22
0.0
 32
0.0
 13
1.0
 23
0.0
 33
0.0
 40
0.0
 40
0.0
 40
0.0
 40
0.0
 40
1.0
 40
1.0
 40
1.0
 40
2.0
 40
2.0
 40
2.0
 40
2.0
 10
2004.175683197462
 20
1996.902943748311
 30
0.0
 10
2004.175683197462
 20
1996.902943748311
 30
0.0
 10
2004.175683187917
 20
2209.5013569773
 30
0.0
 10
2004.175683187917
 20
2209.5013569773
 30
0.0
 10
2004.175683187925
 20
2209.346337300987
 30
0.0
 10
2004.053882013684
 20
2209.213463292714
 30
0.0
 10
2003.887789503349
 20
2209.213463292706
 30
0.0
  0
SPLINE
  5
14E
330
1F
100
AcDbEntity
  8
LAYER_1
 62
     7
100
AcDbSpline
210
0.0
220
0.0
230
1.0
 70
     8
 71
     3
 72
    11
 73
     7
 74
     0
 42
0.0000000001
 43
0.0000000001
 12
1.0
 22
0.0
 32
0.0
 13
1.0
 23
0.0
 33
0.0
 40
0.0
 40
0.0
 40
0.0
 40
0.0
 40
1.0
 40
1.0
 40
1.0
 40
2.0
 40
2.0
 40
2.0
 40
2.0
 10
2003.887789503349
 20
2209.213463292706
 30
0.0
 10
2003.887789503349
 20
2209.213463292706
 30
0.0
 10
2046.407472149147
 20
2209.213463294614
 30
0.0
 10
2046.407472149147
 20
2209.213463294614
 30
0.0
 10
2046.56249182546
 20
2209.213463294622
 30
0.0
 10
2046.695365833722
 20
2209.335264468875
 30
0.0
 10
2046.695365833715
 20
2209.50135697921
 30
0.0
  0
POLYLINE
  5
14F
330
1F
100
AcDbEntity
  8
LAYER_1
 62
     7
100
AcDb2dPolyline
 66
     1
 10
0.0
 20
0.0
 30
0.0
  0
VERTEX
  5
150
330
14F
100
AcDbEntity
  8
LAYER_1
 62
     7
100
AcDbVertex
100
AcDb2dVertex
 10
2046.695365833715
 20
2209.50135697921
 30
0.0
  0
VERTEX
  5
151
330
14F
100
AcDbEntity
  8
LAYER_1
 62
     7
100
AcDbVertex
100
AcDb2dVertex
 10
2046.695365828624
 20
2322.887177368003
 30
0.0
  0
SEQEND
  5
152
330
14F
100
AcDbEntity
  8
LAYER_1
 62
     7
  0
SPLINE
  5
153
330
1F
100
AcDbEntity
  8
LAYER_1
 62
     7
100
AcDbSpline
210
0.0
220
0.0
230
1.0
 70
     8
 71
     3
 72
     8
 73
     4
 74
     0
 42
0.0000000001
 43
0.0000000001
 12
1.0
 22
0.0
 32
0.0
 13
1.0
 23
0.0
 33
0.0
 40
0.0
 40
0.0
 40
0.0
 40
0.0
 40
1.0
 40
1.0
 40
1.0
 40
1.0
 10
2046.695365828624
 20
2322.887177368003
 30
0.0
 10
2046.695365828617
 20
2323.042197044316
 30
0.0
 10
2046.573564654365
 20
2323.175069637556
 30
0.0
 10
2046.40747214403
 20
2323.175069637548
 30
0.0
  0
POLYLINE
  5
154
330
1F
100
AcDbEntity
  8
LAYER_1
 62
     7
100
AcDb2dPolyline
 66
     1
 10
0.0
 20
0.0
 30
0.0
  0
VERTEX
  5
155
330
154
100
AcDbEntity
  8
LAYER_1
 62
     7
100
AcDbVertex
100
AcDb2dVertex
 10
2046.40747214403
 20
2323.175069637548
 30
0.0
  0
VERTEX
  5
156
330
154
100
AcDbEntity
  8
LAYER_1
 62
     7
100
AcDbVertex
100
AcDb2dVertex
 10
2003.887789498232
 20
2323.175069635639
 30
0.0
  0
SEQEND
  5
157
330
154
100
AcDbEntity
  8
LAYER_1
 62
     7
  0
POLYLINE
  5
158
330
1F
100
AcDbEntity
  8
LAYER_1
 62
     7
100
AcDb2dPolyline
 66
     1
 10
0.0
 20
0.0
 30
0.0
  0
VERTEX
  5
159
330
158
100
AcDbEntity
  8
LAYER_1
 62
     7
100
AcDbVertex
100
AcDb2dVertex
 10
2003.887789498232
 20
2323.175069635639
 30
0.0
  0
VERTEX
  5
15A
330
158
100
AcDbEntity
  8
LAYER_1
 62
     7
100
AcDbVertex
100
AcDb2dVertex
 10
1833.809058915042
 20
2323.175069628003
 30
0.0
  0
SEQEND
  5
15B
330
158
100
AcDbEntity
  8
LAYER_1
 62
     7
  0
POLYLINE
  5
15C
330
1F
100
AcDbEntity
  8
LAYER_1
 62
     7
100
AcDb2dPolyline
 66
     1
 10
0.0
 20
0.0
 30
0.0
  0
VERTEX
  5
15D
330
15C
100
AcDbEntity
  8
LAYER_1
 62
     7
100
AcDbVertex
100
AcDb2dVertex
 10
1833.809058915042
 20
2323.175069628003
 30
0.0
  0
VERTEX
  5
15E
330
15C
100
AcDbEntity
  8
LAYER_1
 62
     7
100
AcDbVertex
100
AcDb2dVertex
 10
1663.730325628519
 20
2323.175069620367
 30
0.0
  0
SEQEND
  5
15F
330
15C
100
AcDbEntity
  8
LAYER_1
 62
     7
  0
SPLINE
  5
160
330
1F
100
AcDbEntity
  8
LAYER_1
 62
     7
100
AcDbSpline
210
0.0
220
0.0
230
1.0
 70
     8
 71
     3
 72
    11
 73
     7
 74
     0
 42
0.0000000001
 43
0.0000000001
 12
1.0
 22
0.0
 32
0.0
 13
1.0
 23
0.0
 33
0.0
 40
0.0
 40
0.0
 40
0.0
 40
0.0
 40
1.0
 40
1.0
 40
1.0
 40
2.0
 40
2.0
 40
2.0
 40
2.0
 10
1663.730325628519
 20
2323.175069620367
 30
0.0
 10
1663.730325628519
 20
2323.175069620367
 30
0.0
 10
1621.210644271032
 20
2323.175069618458
 30
0.0
 10
1621.210644271032
 20
2323.175069618458
 30
0.0
 10
1621.05562600974
 20
2323.175069618452
 30
0.0
 10
1620.922752001477
 20
2323.053269996502
 30
0.0
 10
1620.922752001485
 20
2322.887177348887
 30
0.0
  0
POLYLINE
  5
161
330
1F
100
AcDbEntity
  8
LAYER_1
 62
     7
100
AcDb2dPolyline
 66
     1
 10
0.0
 20
0.0
 30
0.0
  0
VERTEX
  5
162
330
161
100
AcDbEntity
  8
LAYER_1
 62
     7
100
AcDbVertex
100
AcDb2dVertex
 10
1620.922752001485
 20
2322.887177348887
 30
0.0
  0
VERTEX
  5
163
330
161
100
AcDbEntity
  8
LAYER_1
 62
     7
100
AcDbVertex
100
AcDb2dVertex
 10
1620.922752001485
 20
2322.887177348887
 30
0.0
  0
SEQEND
  5
164
330
161
100
AcDbEntity
  8
LAYER_1
 62
     7
  0
POLYLINE
  5
165
330
1F
100
AcDbEntity
  8
LAYER_1
 62
     7
100
AcDb2dPolyline
 66
     1
 10
0.0
 20
0.0
 30
0.0
  0
VERTEX
  5
166
330
165
100
AcDbEntity
  8
LAYER_1
 62
     7
100
AcDbVertex
100
AcDb2dVertex
 10
978.5613772021807
 20
913.5189935212802
 30
0.0
  0
VERTEX
  5
167
330
165
100
AcDbEntity
  8
LAYER_1
 62
     7
100
AcDbVertex
100
AcDb2dVertex
 10
780.1361915217913
 20
913.5189935034632
 30
0.0
  0
SEQEND
  5
168
330
165
100
AcDbEntity
  8
LAYER_1
 62
     7
  0
SPLINE
  5
169
330
1F
100
AcDbEntity
  8
LAYER_1
 62
     7
100
AcDbSpline
210
0.0
220
0.0
230
1.0
 70
     8
 71
     3
 72
     8
 73
     4
 74
     0
 42
0.0000000001
 43
0.0000000001
 12
1.0
 22
0.0
 32
0.0
 13
1.0
 23
0.0
 33
0.0
 40
0.0
 40
0.0
 40
0.0
 40
0.0
 40
1.0
 40
1.0
 40
1.0
 40
1.0
 10
780.1361915217913
 20
913.5189935034632
 30
0.0
 10
779.9811718454785
 20
913.5189935034487
 30
0.0
 10
779.8482978372213
 20
913.397192191911
 30
0.0
 10
779.8482978372358
 20
913.231101233876
 30
0.0
  0
SPLINE
  5
16A
330
1F
100
AcDbEntity
  8
LAYER_1
 62
     7
100
AcDbSpline
210
0.0
220
0.0
230
1.0
 70
     8
 71
     3
 72
    11
 73
     7
 74
     0
 42
0.0000000001
 43
0.0000000001
 12
1.0
 22
0.0
 32
0.0
 13
1.0
 23
0.0
 33
0.0
 40
0.0
 40
0.0
 40
0.0
 40
0.0
 40
1.0
 40
1.0
 40
1.0
 40
2.0
 40
2.0
 40
2.0
 40
2.0
 10
779.8482978372358
 20
913.231101233876
 30
0.0
 10
779.8482978372358
 20
913.231101233876
 30
0.0
 10
779.8482978410539
 20
870.7114198763884
 30
0.0
 10
779.8482978410539
 20
870.7114198763884
 30
0.0
 10
779.8482978410393
 20
870.8664368493701
 30
0.0
 10
779.9700990152742
 20
870.9993108576509
 30
0.0
 10
780.1361915256093
 20
870.9993108576655
 30
0.0
  0
SPLINE
  5
16B
330
1F
100
AcDbEntity
  8
LAYER_1
 62
     7
100
AcDbSpline
210
0.0
220
0.0
230
1.0
 70
     8
 71
     3
 72
    11
 73
     7
 74
     0
 42
0.0000000001
 43
0.0000000001
 12
1.0
 22
0.0
 32
0.0
 13
1.0
 23
0.0
 33
0.0
 40
0.0
 40
0.0
 40
0.0
 40
0.0
 40
1.0
 40
1.0
 40
1.0
 40
2.0
 40
2.0
 40
2.0
 40
2.0
 10
780.1361915256093
 20
870.9993108576655
 30
0.0
 10
780.1361915256093
 20
870.9993108576655
 30
0.0
 10
567.5377782966207
 20
870.9993108385752
 30
0.0
 10
567.5377782966207
 20
870.9993108385752
 30
0.0
 10
567.6927979729335
 20
870.9993108385879
 30
0.0
 10
567.8256719812125
 20
870.8775096643549
 30
0.0
 10
567.8256719812271
 20
870.7114198573508
 30
0.0
  0
SPLINE
  5
16C
330
1F
100
AcDbEntity
  8
LAYER_1
 62
     7
100
AcDbSpline
210
0.0
220
0.0
230
1.0
 70
     8
 71
     3
 72
    11
 73
     7
 74
     0
 42
0.0000000001
 43
0.0000000001
 12
1.0
 22
0.0
 32
0.0
 13
1.0
 23
0.0
 33
0.0
 40
0.0
 40
0.0
 40
0.0
 40
0.0
 40
1.0
 40
1.0
 40
1.0
 40
2.0
 40
2.0
 40
2.0
 40
2.0
 10
567.8256719812271
 20
870.7114198573508
 30
0.0
 10
567.8256719812271
 20
870.7114198573508
 30
0.0
 10
567.825671977409
 20
913.2311012148384
 30
0.0
 10
567.825671977409
 20
913.2311012148384
 30
0.0
 10
567.8256719773963
 20
913.3861194761303
 30
0.0
 10
567.7038708031378
 20
913.5189934843875
 30
0.0
 10
567.5377782928026
 20
913.5189934843729
 30
0.0
  0
POLYLINE
  5
16D
330
1F
100
AcDbEntity
  8
LAYER_1
 62
     7
100
AcDb2dPolyline
 66
     1
 10
0.0
 20
0.0
 30
0.0
  0
VERTEX
  5
16E
330
16D
100
AcDbEntity
  8
LAYER_1
 62
     7
100
AcDbVertex
100
AcDb2dVertex
 10
567.5377782928026
 20
913.5189934843729
 30
0.0
  0
VERTEX
  5
16F
330
16D
100
AcDbEntity
  8
LAYER_1
 62
     7
100
AcDbVertex
100
AcDb2dVertex
 10
482.4984130012072
 20
913.5189934767368
 30
0.0
  0
SEQEND
  5
170
330
16D
100
AcDbEntity
  8
LAYER_1
 62
     7
  0
SPLINE
  5
171
330
1F
100
AcDbEntity
  8
LAYER_1
 62
     7
100
AcDbSpline
210
0.0
220
0.0
230
1.0
 70
     8
 71
     3
 72
     8
 73
     4
 74
     0
 42
0.0000000001
 43
0.0000000001
 12
1.0
 22
0.0
 32
0.0
 13
1.0
 23
0.0
 33
0.0
 40
0.0
 40
0.0
 40
0.0
 40
0.0
 40
1.0
 40
1.0
 40
1.0
 40
1.0
 10
482.4984130012072
 20
913.5189934767368
 30
0.0
 10
482.3433933248944
 20
913.5189934767222
 30
0.0
 10
482.2105193166371
 20
913.3971921651864
 30
0.0
 10
482.2105193166517
 20
913.2311012071514
 30
0.0
  0
SPLINE
  5
172
330
1F
100
AcDbEntity
  8
LAYER_1
 62
     7
100
AcDbSpline
210
0.0
220
0.0
230
1.0
 70
     8
 71
     3
 72
    11
 73
     7
 74
     0
 42
0.0000000001
 43
0.0000000001
 12
1.0
 22
0.0
 32
0.0
 13
1.0
 23
0.0
 33
0.0
 40
0.0
 40
0.0
 40
0.0
 40
0.0
 40
1.0
 40
1.0
 40
1.0
 40
2.0
 40
2.0
 40
2.0
 40
2.0
 10
482.2105193166517
 20
913.2311012071514
 30
0.0
 10
482.2105193166517
 20
913.2311012071514
 30
0.0
 10
482.2105193204698
 20
870.7114198496638
 30
0.0
 10
482.2105193204698
 20
870.7114198496638
 30
0.0
 10
482.2105193204552
 20
870.8664368226455
 30
0.0
 10
482.3323204946901
 20
870.9993108309245
 30
0.0
 10
482.4984130050252
 20
870.9993108309391
 30
0.0
  0
SPLINE
  5
173
330
1F
100
AcDbEntity
  8
LAYER_1
 62
     7
100
AcDbSpline
210
0.0
220
0.0
230
1.0
 70
     8
 71
     3
 72
    11
 73
     7
 74
     0
 42
0.0000000001
 43
0.0000000001
 12
1.0
 22
0.0
 32
0.0
 13
1.0
 23
0.0
 33
0.0
 40
0.0
 40
0.0
 40
0.0
 40
0.0
 40
1.0
 40
1.0
 40
1.0
 40
2.0
 40
2.0
 40
2.0
 40
2.0
 10
482.4984130050252
 20
870.9993108309391
 30
0.0
 10
482.4984130050252
 20
870.9993108309391
 30
0.0
 10
269.8999997760366
 20
870.9993108118488
 30
0.0
 10
269.8999997760366
 20
870.9993108118488
 30
0.0
 10
270.0550194523494
 20
870.9993108118633
 30
0.0
 10
270.1878934606284
 20
870.8775096376285
 30
0.0
 10
270.187893460643
 20
870.7114198306244
 30
0.0
  0
SPLINE
  5
174
330
1F
100
AcDbEntity
  8
LAYER_1
 62
     7
100
AcDbSpline
210
0.0
220
0.0
230
1.0
 70
     8
 71
     3
 72
    11
 73
     7
 74
     0
 42
0.0000000001
 43
0.0000000001
 12
1.0
 22
0.0
 32
0.0
 13
1.0
 23
0.0
 33
0.0
 40
0.0
 40
0.0
 40
0.0
 40
0.0
 40
1.0
 40
1.0
 40
1.0
 40
2.0
 40
2.0
 40
2.0
 40
2.0
 10
270.187893460643
 20
870.7114198306244
 30
0.0
 10
270.187893460643
 20
870.7114198306244
 30
0.0
 10
270.1878934568249
 20
913.231101188112
 30
0.0
 10
270.1878934568249
 20
913.231101188112
 30
0.0
 10
270.1878934568122
 20
913.3861194494039
 30
0.0
 10
270.0660922825537
 20
913.518993457661
 30
0.0
 10
269.8999997722185
 20
913.5189934576465
 30
0.0
  0
POLYLINE
  5
175
330
1F
100
AcDbEntity
  8
LAYER_1
 62
     7
100
AcDb2dPolyline
 66
     1
 10
0.0
 20
0.0
 30
0.0
  0
VERTEX
  5
176
330
175
100
AcDbEntity
  8
LAYER_1
 62
     7
100
AcDbVertex
100
AcDb2dVertex
 10
269.8999997722185
 20
913.5189934576465
 30
0.0
  0
VERTEX
  5
177
330
175
100
AcDbEntity
  8
LAYER_1
 62
     7
100
AcDbVertex
100
AcDb2dVertex
 10
71.4748140918291
 20
913.5189934398295
 30
0.0
  0
SEQEND
  5
178
330
175
100
AcDbEntity
  8
LAYER_1
 62
     7
  0
SPLINE
  5
179
330
1F
100
AcDbEntity
  8
LAYER_1
 62
     7
100
AcDbSpline
210
0.0
220
0.0
230
1.0
 70
     8
 71
     3
 72
    11
 73
     7
 74
     0
 42
0.0000000001
 43
0.0000000001
 12
1.0
 22
0.0
 32
0.0
 13
1.0
 23
0.0
 33
0.0
 40
0.0
 40
0.0
 40
0.0
 40
0.0
 40
1.0
 40
1.0
 40
1.0
 40
2.0
 40
2.0
 40
2.0
 40
2.0
 10
71.4748140918291
 20
913.5189934398295
 30
0.0
 10
71.4748140918291
 20
913.5189934398295
 30
0.0
 10
28.95513144603137
 20
913.5189934360114
 30
0.0
 10
28.95513144603137
 20
913.5189934360114
 30
0.0
 10
28.80011176971857
 20
913.5189934359969
 30
0.0
 10
28.66723776146137
 20
913.3971921244611
 30
0.0
 10
28.66723776147592
 20
913.231101166426
 30
0.0
  0
POLYLINE
  5
17A
330
1F
100
AcDbEntity
  8
LAYER_1
 62
     7
100
AcDb2dPolyline
 66
     1
 10
0.0
 20
0.0
 30
0.0
  0
VERTEX
  5
17B
330
17A
100
AcDbEntity
  8
LAYER_1
 62
     7
100
AcDbVertex
100
AcDb2dVertex
 10
28.66723776147592
 20
913.231101166426
 30
0.0
  0
VERTEX
  5
17C
330
17A
100
AcDbEntity
  8
LAYER_1
 62
     7
100
AcDbVertex
100
AcDb2dVertex
 10
28.66723776529398
 20
870.7114198089384
 30
0.0
  0
SEQEND
  5
17D
330
17A
100
AcDbEntity
  8
LAYER_1
 62
     7
  0
POLYLINE
  5
17E
330
1F
100
AcDbEntity
  8
LAYER_1
 62
     7
100
AcDb2dPolyline
 66
     1
 10
0.0
 20
0.0
 30
0.0
  0
VERTEX
  5
17F
330
17E
100
AcDbEntity
  8
LAYER_1
 62
     7
100
AcDbVertex
100
AcDb2dVertex
 10
28.66723776529398
 20
870.7114198089384
 30
0.0
  0
VERTEX
  5
180
330
17E
100
AcDbEntity
  8
LAYER_1
 62
     7
100
AcDbVertex
100
AcDb2dVertex
 10
28.6672377805653
 20
700.6326865224164
 30
0.0
  0
SEQEND
  5
181
330
17E
100
AcDbEntity
  8
LAYER_1
 62
     7
  0
POLYLINE
  5
182
330
1F
100
AcDbEntity
  8
LAYER_1
 62
     7
100
AcDb2dPolyline
 66
     1
 10
0.0
 20
0.0
 30
0.0
  0
VERTEX
  5
183
330
182
100
AcDbEntity
  8
LAYER_1
 62
     7
100
AcDbVertex
100
AcDb2dVertex
 10
28.6672377805653
 20
700.6326865224164
 30
0.0
  0
VERTEX
  5
184
330
182
100
AcDbEntity
  8
LAYER_1
 62
     7
100
AcDbVertex
100
AcDb2dVertex
 10
28.66723779583754
 20
530.5539559392255
 30
0.0
  0
SEQEND
  5
185
330
182
100
AcDbEntity
  8
LAYER_1
 62
     7
  0
SPLINE
  5
186
330
1F
100
AcDbEntity
  8
LAYER_1
 62
     7
100
AcDbSpline
210
0.0
220
0.0
230
1.0
 70
     8
 71
     3
 72
    11
 73
     7
 74
     0
 42
0.0000000001
 43
0.0000000001
 12
1.0
 22
0.0
 32
0.0
 13
1.0
 23
0.0
 33
0.0
 40
0.0
 40
0.0
 40
0.0
 40
0.0
 40
1.0
 40
1.0
 40
1.0
 40
2.0
 40
2.0
 40
2.0
 40
2.0
 10
28.66723779583754
 20
530.5539559392255
 30
0.0
 10
28.66723779583754
 20
530.5539559392255
 30
0.0
 10
28.6672377996556
 20
488.0342732934278
 30
0.0
 10
28.6672377996556
 20
488.0342732934278
 30
0.0
 10
28.66723779966924
 20
487.879253617115
 30
0.0
 10
28.78903897392684
 20
487.7463796088578
 30
0.0
 10
28.95513148426198
 20
487.7463796088723
 30
0.0
  0
POLYLINE
  5
187
330
1F
100
AcDbEntity
  8
LAYER_1
 62
     7
100
AcDb2dPolyline
 66
     1
 10
0.0
 20
0.0
 30
0.0
  0
VERTEX
  5
188
330
187
100
AcDbEntity
  8
LAYER_1
 62
     7
100
AcDbVertex
100
AcDb2dVertex
 10
28.95513148426198
 20
487.7463796088723
 30
0.0
  0
VERTEX
  5
189
330
187
100
AcDbEntity
  8
LAYER_1
 62
     7
100
AcDbVertex
100
AcDb2dVertex
 10
71.47481413005971
 20
487.7463796126904
 30
0.0
  0
SEQEND
  5
18A
330
187
100
AcDbEntity
  8
LAYER_1
 62
     7
  0
POLYLINE
  5
18B
330
1F
100
AcDbEntity
  8
LAYER_1
 62
     7
100
AcDb2dPolyline
 66
     1
 10
0.0
 20
0.0
 30
0.0
  0
VERTEX
  5
18C
330
18B
100
AcDbEntity
  8
LAYER_1
 62
     7
100
AcDbVertex
100
AcDb2dVertex
 10
71.47481413005971
 20
487.7463796126904
 30
0.0
  0
VERTEX
  5
18D
330
18B
100
AcDbEntity
  8
LAYER_1
 62
     7
100
AcDbVertex
100
AcDb2dVertex
 10
269.8999998104482
 20
487.7463796305074
 30
0.0
  0
SEQEND
  5
18E
330
18B
100
AcDbEntity
  8
LAYER_1
 62
     7
  0
SPLINE
  5
18F
330
1F
100
AcDbEntity
  8
LAYER_1
 62
     7
100
AcDbSpline
210
0.0
220
0.0
230
1.0
 70
     8
 71
     3
 72
     8
 73
     4
 74
     0
 42
0.0000000001
 43
0.0000000001
 12
1.0
 22
0.0
 32
0.0
 13
1.0
 23
0.0
 33
0.0
 40
0.0
 40
0.0
 40
0.0
 40
0.0
 40
1.0
 40
1.0
 40
1.0
 40
1.0
 10
269.8999998104482
 20
487.7463796305074
 30
0.0
 10
270.055019486761
 20
487.7463796305219
 30
0.0
 10
270.1878934950182
 20
487.8681808047786
 30
0.0
 10
270.1878934950037
 20
488.0342733151138
 30
0.0
  0
SPLINE
  5
190
330
1F
100
AcDbEntity
  8
LAYER_1
 62
     7
100
AcDbSpline
210
0.0
220
0.0
230
1.0
 70
     8
 71
     3
 72
    11
 73
     7
 74
     0
 42
0.0000000001
 43
0.0000000001
 12
1.0
 22
0.0
 32
0.0
 13
1.0
 23
0.0
 33
0.0
 40
0.0
 40
0.0
 40
0.0
 40
0.0
 40
1.0
 40
1.0
 40
1.0
 40
2.0
 40
2.0
 40
2.0
 40
2.0
 10
270.1878934950037
 20
488.0342733151138
 30
0.0
 10
270.1878934950037
 20
488.0342733151138
 30
0.0
 10
270.1878934911874
 20
530.5539559609115
 30
0.0
 10
270.1878934911874
 20
530.5539559609115
 30
0.0
 10
270.1878934912002
 20
530.3989362845987
 30
0.0
 10
270.0660923169671
 20
530.2660622763196
 30
0.0
 10
269.899999806632
 20
530.2660622763051
 30
0.0
  0
SPLINE
  5
191
330
1F
100
AcDbEntity
  8
LAYER_1
 62
     7
100
AcDbSpline
210
0.0
220
0.0
230
1.0
 70
     8
 71
     3
 72
    11
 73
     7
 74
     0
 42
0.0000000001
 43
0.0000000001
 12
1.0
 22
0.0
 32
0.0
 13
1.0
 23
0.0
 33
0.0
 40
0.0
 40
0.0
 40
0.0
 40
0.0
 40
1.0
 40
1.0
 40
1.0
 40
2.0
 40
2.0
 40
2.0
 40
2.0
 10
269.899999806632
 20
530.2660622763051
 30
0.0
 10
269.899999806632
 20
530.2660622763051
 30
0.0
 10
482.4984130356206
 20
530.2660622953954
 30
0.0
 10
482.4984130356206
 20
530.2660622953954
 30
0.0
 10
482.3433933593078
 20
530.2660622953808
 30
0.0
 10
482.2105193510288
 20
530.3878634696157
 30
0.0
 10
482.2105193510142
 20
530.5539559799508
 30
0.0
  0
SPLINE
  5
192
330
1F
100
AcDbEntity
  8
LAYER_1
 62
     7
100
AcDbSpline
210
0.0
220
0.0
230
1.0
 70
     8
 71
     3
 72
    11
 73
     7
 74
     0
 42
0.0000000001
 43
0.0000000001
 12
1.0
 22
0.0
 32
0.0
 13
1.0
 23
0.0
 33
0.0
 40
0.0
 40
0.0
 40
0.0
 40
0.0
 40
1.0
 40
1.0
 40
1.0
 40
2.0
 40
2.0
 40
2.0
 40
2.0
 10
482.2105193510142
 20
530.5539559799508
 30
0.0
 10
482.2105193510142
 20
530.5539559799508
 30
0.0
 10
482.2105193548305
 20
488.0342733341531
 30
0.0
 10
482.2105193548305
 20
488.0342733341531
 30
0.0
 10
482.210519354845
 20
487.8792536578403
 30
0.0
 10
482.3323205291017
 20
487.7463796495831
 30
0.0
 10
482.4984130394369
 20
487.7463796495977
 30
0.0
  0
POLYLINE
  5
193
330
1F
100
AcDbEntity
  8
LAYER_1
 62
     7
100
AcDb2dPolyline
 66
     1
 10
0.0
 20
0.0
 30
0.0
  0
VERTEX
  5
194
330
193
100
AcDbEntity
  8
LAYER_1
 62
     7
100
AcDbVertex
100
AcDb2dVertex
 10
482.4984130394369
 20
487.7463796495977
 30
0.0
  0
VERTEX
  5
195
330
193
100
AcDbEntity
  8
LAYER_1
 62
     7
100
AcDbVertex
100
AcDb2dVertex
 10
567.5377783310323
 20
487.7463796572338
 30
0.0
  0
SEQEND
  5
196
330
193
100
AcDbEntity
  8
LAYER_1
 62
     7
  0
SPLINE
  5
197
330
1F
100
AcDbEntity
  8
LAYER_1
 62
     7
100
AcDbSpline
210
0.0
220
0.0
230
1.0
 70
     8
 71
     3
 72
     8
 73
     4
 74
     0
 42
0.0000000001
 43
0.0000000001
 12
1.0
 22
0.0
 32
0.0
 13
1.0
 23
0.0
 33
0.0
 40
0.0
 40
0.0
 40
0.0
 40
0.0
 40
1.0
 40
1.0
 40
1.0
 40
1.0
 10
567.5377783310323
 20
487.7463796572338
 30
0.0
 10
567.6927980073451
 20
487.7463796572465
 30
0.0
 10
567.8256720156023
 20
487.868180831505
 30
0.0
 10
567.8256720155878
 20
488.0342733418402
 30
0.0
  0
SPLINE
  5
198
330
1F
100
AcDbEntity
  8
LAYER_1
 62
     7
100
AcDbSpline
210
0.0
220
0.0
230
1.0
 70
     8
 71
     3
 72
    11
 73
     7
 74
     0
 42
0.0000000001
 43
0.0000000001
 12
1.0
 22
0.0
 32
0.0
 13
1.0
 23
0.0
 33
0.0
 40
0.0
 40
0.0
 40
0.0
 40
0.0
 40
1.0
 40
1.0
 40
1.0
 40
2.0
 40
2.0
 40
2.0
 40
2.0
 10
567.8256720155878
 20
488.0342733418402
 30
0.0
 10
567.8256720155878
 20
488.0342733418402
 30
0.0
 10
567.8256720117715
 20
530.5539559876379
 30
0.0
 10
567.8256720117715
 20
530.5539559876379
 30
0.0
 10
567.8256720117843
 20
530.3989363113251
 30
0.0
 10
567.7038708375512
 20
530.266062303046
 30
0.0
 10
567.5377783272161
 20
530.2660623030315
 30
0.0
  0
SPLINE
  5
199
330
1F
100
AcDbEntity
  8
LAYER_1
 62
     7
100
AcDbSpline
210
0.0
220
0.0
230
1.0
 70
     8
 71
     3
 72
    11
 73
     7
 74
     0
 42
0.0000000001
 43
0.0000000001
 12
1.0
 22
0.0
 32
0.0
 13
1.0
 23
0.0
 33
0.0
 40
0.0
 40
0.0
 40
0.0
 40
0.0
 40
1.0
 40
1.0
 40
1.0
 40
2.0
 40
2.0
 40
2.0
 40
2.0
 10
567.5377783272161
 20
530.2660623030315
 30
0.0
 10
567.5377783272161
 20
530.2660623030315
 30
0.0
 10
780.1361915562047
 20
530.2660623221218
 30
0.0
 10
780.1361915562047
 20
530.2660623221218
 30
0.0
 10
779.9811718798919
 20
530.2660623221072
 30
0.0
 10
779.8482978716129
 20
530.3878634963403
 30
0.0
 10
779.8482978715983
 20
530.5539560066754
 30
0.0
  0
SPLINE
  5
19A
330
1F
100
AcDbEntity
  8
LAYER_1
 62
     7
100
AcDbSpline
210
0.0
220
0.0
230
1.0
 70
     8
 71
     3
 72
    11
 73
     7
 74
     0
 42
0.0000000001
 43
0.0000000001
 12
1.0
 22
0.0
 32
0.0
 13
1.0
 23
0.0
 33
0.0
 40
0.0
 40
0.0
 40
0.0
 40
0.0
 40
1.0
 40
1.0
 40
1.0
 40
2.0
 40
2.0
 40
2.0
 40
2.0
 10
779.8482978715983
 20
530.5539560066754
 30
0.0
 10
779.8482978715983
 20
530.5539560066754
 30
0.0
 10
779.8482978754146
 20
488.0342733608795
 30
0.0
 10
779.8482978754146
 20
488.0342733608795
 30
0.0
 10
779.8482978754291
 20
487.8792536845667
 30
0.0
 10
779.9700990496858
 20
487.7463796763095
 30
0.0
 10
780.136191560021
 20
487.7463796763241
 30
0.0
  0
POLYLINE
  5
19B
330
1F
100
AcDbEntity
  8
LAYER_1
 62
     7
100
AcDb2dPolyline
 66
     1
 10
0.0
 20
0.0
 30
0.0
  0
VERTEX
  5
19C
330
19B
100
AcDbEntity
  8
LAYER_1
 62
     7
100
AcDbVertex
100
AcDb2dVertex
 10
780.136191560021
 20
487.7463796763241
 30
0.0
  0
VERTEX
  5
19D
330
19B
100
AcDbEntity
  8
LAYER_1
 62
     7
100
AcDbVertex
100
AcDb2dVertex
 10
978.5613772404104
 20
487.7463796941411
 30
0.0
  0
SEQEND
  5
19E
330
19B
100
AcDbEntity
  8
LAYER_1
 62
     7
  0
SPLINE
  5
19F
330
1F
100
AcDbEntity
  8
LAYER_1
 62
     7
100
AcDbSpline
210
0.0
220
0.0
230
1.0
 70
     8
 71
     3
 72
    11
 73
     7
 74
     0
 42
0.0000000001
 43
0.0000000001
 12
1.0
 22
0.0
 32
0.0
 13
1.0
 23
0.0
 33
0.0
 40
0.0
 40
0.0
 40
0.0
 40
0.0
 40
1.0
 40
1.0
 40
1.0
 40
2.0
 40
2.0
 40
2.0
 40
2.0
 10
978.5613772404104
 20
487.7463796941411
 30
0.0
 10
978.5613772404104
 20
487.7463796941411
 30
0.0
 10
1021.081059886208
 20
487.7463796979591
 30
0.0
 10
1021.081059886208
 20
487.7463796979591
 30
0.0
 10
1021.23608226585
 20
487.7463796979719
 30
0.0
 10
1021.368956274107
 20
487.8681808722304
 30
0.0
 10
1021.368956274093
 20
488.0342733825655
 30
0.0
  0
POLYLINE
  5
1A0
330
1F
100
AcDbEntity
  8
LAYER_1
 62
     7
100
AcDb2dPolyline
 66
     1
 10
0.0
 20
0.0
 30
0.0
  0
VERTEX
  5
1A1
330
1A0
100
AcDbEntity
  8
LAYER_1
 62
     7
100
AcDbVertex
100
AcDb2dVertex
 10
1021.368956274093
 20
488.0342733825655
 30
0.0
  0
VERTEX
  5
1A2
330
1A0
100
AcDbEntity
  8
LAYER_1
 62
     7
100
AcDbVertex
100
AcDb2dVertex
 10
1021.368956270275
 20
530.5539560283632
 30
0.0
  0
SEQEND
  5
1A3
330
1A0
100
AcDbEntity
  8
LAYER_1
 62
     7
  0
POLYLINE
  5
1A4
330
1F
100
AcDbEntity
  8
LAYER_1
 62
     7
100
AcDb2dPolyline
 66
     1
 10
0.0
 20
0.0
 30
0.0
  0
VERTEX
  5
1A5
330
1A4
100
AcDbEntity
  8
LAYER_1
 62
     7
100
AcDbVertex
100
AcDb2dVertex
 10
1021.368956270275
 20
530.5539560283632
 30
0.0
  0
VERTEX
  5
1A6
330
1A4
100
AcDbEntity
  8
LAYER_1
 62
     7
100
AcDbVertex
100
AcDb2dVertex
 10
1021.368956255003
 20
700.6326866115542
 30
0.0
  0
SEQEND
  5
1A7
330
1A4
100
AcDbEntity
  8
LAYER_1
 62
     7
  0
POLYLINE
  5
1A8
330
1F
100
AcDbEntity
  8
LAYER_1
 62
     7
100
AcDb2dPolyline
 66
     1
 10
0.0
 20
0.0
 30
0.0
  0
VERTEX
  5
1A9
330
1A8
100
AcDbEntity
  8
LAYER_1
 62
     7
100
AcDbVertex
100
AcDb2dVertex
 10
1021.368956255003
 20
700.6326866115542
 30
0.0
  0
VERTEX
  5
1AA
330
1A8
100
AcDbEntity
  8
LAYER_1
 62
     7
100
AcDbVertex
100
AcDb2dVertex
 10
1021.368956239732
 20
870.7114198980762
 30
0.0
  0
SEQEND
  5
1AB
330
1A8
100
AcDbEntity
  8
LAYER_1
 62
     7
  0
SPLINE
  5
1AC
330
1F
100
AcDbEntity
  8
LAYER_1
 62
     7
100
AcDbSpline
210
0.0
220
0.0
230
1.0
 70
     8
 71
     3
 72
    11
 73
     7
 74
     0
 42
0.0000000001
 43
0.0000000001
 12
1.0
 22
0.0
 32
0.0
 13
1.0
 23
0.0
 33
0.0
 40
0.0
 40
0.0
 40
0.0
 40
0.0
 40
1.0
 40
1.0
 40
1.0
 40
2.0
 40
2.0
 40
2.0
 40
2.0
 10
1021.368956239732
 20
870.7114198980762
 30
0.0
 10
1021.368956239732
 20
870.7114198980762
 30
0.0
 10
1021.368950829255
 20
913.2311012555638
 30
0.0
 10
1021.368950829255
 20
913.2311012555638
 30
0.0
 10
1021.368950829241
 20
913.3861195168556
 30
0.0
 10
1021.247152358314
 20
913.5189935251128
 30
0.0
 10
1021.081059847978
 20
913.5189935250983
 30
0.0
  0
POLYLINE
  5
1AD
330
1F
100
AcDbEntity
  8
LAYER_1
 62
     7
100
AcDb2dPolyline
 66
     1
 10
0.0
 20
0.0
 30
0.0
  0
VERTEX
  5
1AE
330
1AD
100
AcDbEntity
  8
LAYER_1
 62
     7
100
AcDbVertex
100
AcDb2dVertex
 10
1021.081059847978
 20
913.5189935250983
 30
0.0
  0
VERTEX
  5
1AF
330
1AD
100
AcDbEntity
  8
LAYER_1
 62
     7
100
AcDbVertex
100
AcDb2dVertex
 10
978.5613772021807
 20
913.5189935212802
 30
0.0
  0
SEQEND
  5
1B0
330
1AD
100
AcDbEntity
  8
LAYER_1
 62
     7
  0
POLYLINE
  5
1B1
330
1F
100
AcDbEntity
  8
LAYER_1
 62
     7
100
AcDb2dPolyline
 66
     1
 10
0.0
 20
0.0
 30
0.0
  0
VERTEX
  5
1B2
330
1B1
100
AcDbEntity
  8
LAYER_1
 62
     7
100
AcDbVertex
100
AcDb2dVertex
 10
51.15186008997262
 20
996.3871314963326
 30
0.0
  0
VERTEX
  5
1B3
330
1B1
100
AcDbEntity
  8
LAYER_1
 62
     7
100
AcDbVertex
100
AcDb2dVertex
 10
249.577045770362
 20
996.3871314963326
 30
0.0
  0
SEQEND
  5
1B4
330
1B1
100
AcDbEntity
  8
LAYER_1
 62
     7
  0
SPLINE
  5
1B5
330
1F
100
AcDbEntity
  8
LAYER_1
 62
     7
100
AcDbSpline
210
0.0
220
0.0
230
1.0
 70
     8
 71
     3
 72
     8
 73
     4
 74
     0
 42
0.0000000001
 43
0.0000000001
 12
1.0
 22
0.0
 32
0.0
 13
1.0
 23
0.0
 33
0.0
 40
0.0
 40
0.0
 40
0.0
 40
0.0
 40
1.0
 40
1.0
 40
1.0
 40
1.0
 10
249.577045770362
 20
996.3871314963326
 30
0.0
 10
249.4220260940492
 20
996.3871314963326
 30
0.0
 10
249.2891520857811
 20
996.5089328078575
 30
0.0
 10
249.2891520857811
 20
996.6750237658925
 30
0.0
  0
SPLINE
  5
1B6
330
1F
100
AcDbEntity
  8
LAYER_1
 62
     7
100
AcDbSpline
210
0.0
220
0.0
230
1.0
 70
     8
 71
     3
 72
    11
 73
     7
 74
     0
 42
0.0000000001
 43
0.0000000001
 12
1.0
 22
0.0
 32
0.0
 13
1.0
 23
0.0
 33
0.0
 40
0.0
 40
0.0
 40
0.0
 40
0.0
 40
1.0
 40
1.0
 40
1.0
 40
2.0
 40
2.0
 40
2.0
 40
2.0
 10
249.2891520857811
 20
996.6750237658925
 30
0.0
 10
249.2891520857811
 20
996.6750237658925
 30
0.0
 10
249.2891520857811
 20
954.1553398317847
 30
0.0
 10
249.2891520857811
 20
954.1553398317847
 30
0.0
 10
249.2891520857811
 20
954.000322858803
 30
0.0
 10
249.4109532600269
 20
953.8674488505349
 30
0.0
 10
249.577045770362
 20
953.8674488505349
 30
0.0
  0
SPLINE
  5
1B7
330
1F
100
AcDbEntity
  8
LAYER_1
 62
     7
100
AcDbSpline
210
0.0
220
0.0
230
1.0
 70
     8
 71
     3
 72
    11
 73
     7
 74
     0
 42
0.0000000001
 43
0.0000000001
 12
1.0
 22
0.0
 32
0.0
 13
1.0
 23
0.0
 33
0.0
 40
0.0
 40
0.0
 40
0.0
 40
0.0
 40
1.0
 40
1.0
 40
1.0
 40
2.0
 40
2.0
 40
2.0
 40
2.0
 10
249.577045770362
 20
953.8674488505349
 30
0.0
 10
249.577045770362
 20
953.8674488505349
 30
0.0
 10
462.1754589993507
 20
953.8674488505349
 30
0.0
 10
462.1754589993507
 20
953.8674488505349
 30
0.0
 10
462.3304786756635
 20
953.8674488505349
 30
0.0
 10
462.4633526839316
 20
953.9892500247806
 30
0.0
 10
462.4633526839316
 20
954.1553398317847
 30
0.0
  0
SPLINE
  5
1B8
330
1F
100
AcDbEntity
  8
LAYER_1
 62
     7
100
AcDbSpline
210
0.0
220
0.0
230
1.0
 70
     8
 71
     3
 72
    11
 73
     7
 74
     0
 42
0.0000000001
 43
0.0000000001
 12
1.0
 22
0.0
 32
0.0
 13
1.0
 23
0.0
 33
0.0
 40
0.0
 40
0.0
 40
0.0
 40
0.0
 40
1.0
 40
1.0
 40
1.0
 40
2.0
 40
2.0
 40
2.0
 40
2.0
 10
462.4633526839316
 20
954.1553398317847
 30
0.0
 10
462.4633526839316
 20
954.1553398317847
 30
0.0
 10
462.4633526839316
 20
996.6750237658925
 30
0.0
 10
462.4633526839316
 20
996.6750237658925
 30
0.0
 10
462.4633526839316
 20
996.5200055046007
 30
0.0
 10
462.3415515096858
 20
996.3871314963326
 30
0.0
 10
462.1754589993507
 20
996.3871314963326
 30
0.0
  0
POLYLINE
  5
1B9
330
1F
100
AcDbEntity
  8
LAYER_1
 62
     7
100
AcDb2dPolyline
 66
     1
 10
0.0
 20
0.0
 30
0.0
  0
VERTEX
  5
1BA
330
1B9
100
AcDbEntity
  8
LAYER_1
 62
     7
100
AcDbVertex
100
AcDb2dVertex
 10
462.1754589993507
 20
996.3871314963326
 30
0.0
  0
VERTEX
  5
1BB
330
1B9
100
AcDbEntity
  8
LAYER_1
 62
     7
100
AcDbVertex
100
AcDb2dVertex
 10
547.2148242909461
 20
996.3871314963326
 30
0.0
  0
SEQEND
  5
1BC
330
1B9
100
AcDbEntity
  8
LAYER_1
 62
     7
  0
SPLINE
  5
1BD
330
1F
100
AcDbEntity
  8
LAYER_1
 62
     7
100
AcDbSpline
210
0.0
220
0.0
230
1.0
 70
     8
 71
     3
 72
     8
 73
     4
 74
     0
 42
0.0000000001
 43
0.0000000001
 12
1.0
 22
0.0
 32
0.0
 13
1.0
 23
0.0
 33
0.0
 40
0.0
 40
0.0
 40
0.0
 40
0.0
 40
1.0
 40
1.0
 40
1.0
 40
1.0
 10
547.2148242909461
 20
996.3871314963326
 30
0.0
 10
547.0598046146333
 20
996.3871314963326
 30
0.0
 10
546.9269306063652
 20
996.5089328078575
 30
0.0
 10
546.9269306063652
 20
996.6750237658925
 30
0.0
  0
SPLINE
  5
1BE
330
1F
100
AcDbEntity
  8
LAYER_1
 62
     7
100
AcDbSpline
210
0.0
220
0.0
230
1.0
 70
     8
 71
     3
 72
    11
 73
     7
 74
     0
 42
0.0000000001
 43
0.0000000001
 12
1.0
 22
0.0
 32
0.0
 13
1.0
 23
0.0
 33
0.0
 40
0.0
 40
0.0
 40
0.0
 40
0.0
 40
1.0
 40
1.0
 40
1.0
 40
2.0
 40
2.0
 40
2.0
 40
2.0
 10
546.9269306063652
 20
996.6750237658925
 30
0.0
 10
546.9269306063652
 20
996.6750237658925
 30
0.0
 10
546.9269306063652
 20
954.1553398317847
 30
0.0
 10
546.9269306063652
 20
954.1553398317847
 30
0.0
 10
546.9269306063652
 20
954.000322858803
 30
0.0
 10
547.048731780611
 20
953.8674488505349
 30
0.0
 10
547.2148242909461
 20
953.8674488505349
 30
0.0
  0
SPLINE
  5
1BF
330
1F
100
AcDbEntity
  8
LAYER_1
 62
     7
100
AcDbSpline
210
0.0
220
0.0
230
1.0
 70
     8
 71
     3
 72
    11
 73
     7
 74
     0
 42
0.0000000001
 43
0.0000000001
 12
1.0
 22
0.0
 32
0.0
 13
1.0
 23
0.0
 33
0.0
 40
0.0
 40
0.0
 40
0.0
 40
0.0
 40
1.0
 40
1.0
 40
1.0
 40
2.0
 40
2.0
 40
2.0
 40
2.0
 10
547.2148242909461
 20
953.8674488505349
 30
0.0
 10
547.2148242909461
 20
953.8674488505349
 30
0.0
 10
759.8132375199348
 20
953.8674488505349
 30
0.0
 10
759.8132375199348
 20
953.8674488505349
 30
0.0
 10
759.9682571962476
 20
953.8674488505349
 30
0.0
 10
760.1011312045157
 20
953.9892500247806
 30
0.0
 10
760.1011312045157
 20
954.1553398317847
 30
0.0
  0
SPLINE
  5
1C0
330
1F
100
AcDbEntity
  8
LAYER_1
 62
     7
100
AcDbSpline
210
0.0
220
0.0
230
1.0
 70
     8
 71
     3
 72
    11
 73
     7
 74
     0
 42
0.0000000001
 43
0.0000000001
 12
1.0
 22
0.0
 32
0.0
 13
1.0
 23
0.0
 33
0.0
 40
0.0
 40
0.0
 40
0.0
 40
0.0
 40
1.0
 40
1.0
 40
1.0
 40
2.0
 40
2.0
 40
2.0
 40
2.0
 10
760.1011312045157
 20
954.1553398317847
 30
0.0
 10
760.1011312045157
 20
954.1553398317847
 30
0.0
 10
760.1011312045157
 20
996.6750237658925
 30
0.0
 10
760.1011312045157
 20
996.6750237658925
 30
0.0
 10
760.1011312045157
 20
996.5200055046007
 30
0.0
 10
759.9793300302699
 20
996.3871314963326
 30
0.0
 10
759.8132375199348
 20
996.3871314963326
 30
0.0
  0
POLYLINE
  5
1C1
330
1F
100
AcDbEntity
  8
LAYER_1
 62
     7
100
AcDb2dPolyline
 66
     1
 10
0.0
 20
0.0
 30
0.0
  0
VERTEX
  5
1C2
330
1C1
100
AcDbEntity
  8
LAYER_1
 62
     7
100
AcDbVertex
100
AcDb2dVertex
 10
759.8132375199348
 20
996.3871314963326
 30
0.0
  0
VERTEX
  5
1C3
330
1C1
100
AcDbEntity
  8
LAYER_1
 62
     7
100
AcDbVertex
100
AcDb2dVertex
 10
958.2384232003242
 20
996.3871314963326
 30
0.0
  0
SEQEND
  5
1C4
330
1C1
100
AcDbEntity
  8
LAYER_1
 62
     7
  0
SPLINE
  5
1C5
330
1F
100
AcDbEntity
  8
LAYER_1
 62
     7
100
AcDbSpline
210
0.0
220
0.0
230
1.0
 70
     8
 71
     3
 72
     8
 73
     4
 74
     0
 42
0.0000000001
 43
0.0000000001
 12
1.0
 22
0.0
 32
0.0
 13
1.0
 23
0.0
 33
0.0
 40
0.0
 40
0.0
 40
0.0
 40
0.0
 40
1.0
 40
1.0
 40
1.0
 40
1.0
 10
958.2384232003242
 20
996.3871314963326
 30
0.0
 10
958.393442876637
 20
996.3871314963326
 30
0.0
 10
958.5263168849051
 20
996.5089328078575
 30
0.0
 10
958.5263168849051
 20
996.6750237658925
 30
0.0
  0
POLYLINE
  5
1C6
330
1F
100
AcDbEntity
  8
LAYER_1
 62
     7
100
AcDb2dPolyline
 66
     1
 10
0.0
 20
0.0
 30
0.0
  0
VERTEX
  5
1C7
330
1C6
100
AcDbEntity
  8
LAYER_1
 62
     7
100
AcDbVertex
100
AcDb2dVertex
 10
958.5263168849051
 20
996.6750237658925
 30
0.0
  0
VERTEX
  5
1C8
330
1C6
100
AcDbEntity
  8
LAYER_1
 62
     7
100
AcDbVertex
100
AcDb2dVertex
 10
958.5263168849051
 20
996.6750237658925
 30
0.0
  0
SEQEND
  5
1C9
330
1C6
100
AcDbEntity
  8
LAYER_1
 62
     7
  0
POLYLINE
  5
1CA
330
1F
100
AcDbEntity
  8
LAYER_1
 62
     7
100
AcDb2dPolyline
 66
     1
 10
0.0
 20
0.0
 30
0.0
  0
VERTEX
  5
1CB
330
1CA
100
AcDbEntity
  8
LAYER_1
 62
     7
100
AcDbVertex
100
AcDb2dVertex
 10
958.5263168849051
 20
996.6750237658925
 30
0.0
  0
VERTEX
  5
1CC
330
1CA
100
AcDbEntity
  8
LAYER_1
 62
     7
100
AcDbVertex
100
AcDb2dVertex
 10
958.5263168849051
 20
1110.060845569707
 30
0.0
  0
SEQEND
  5
1CD
330
1CA
100
AcDbEntity
  8
LAYER_1
 62
     7
  0
SPLINE
  5
1CE
330
1F
100
AcDbEntity
  8
LAYER_1
 62
     7
100
AcDbSpline
210
0.0
220
0.0
230
1.0
 70
     8
 71
     3
 72
     8
 73
     4
 74
     0
 42
0.0000000001
 43
0.0000000001
 12
1.0
 22
0.0
 32
0.0
 13
1.0
 23
0.0
 33
0.0
 40
0.0
 40
0.0
 40
0.0
 40
0.0
 40
1.0
 40
1.0
 40
1.0
 40
1.0
 10
958.5263168849051
 20
1110.060845569707
 30
0.0
 10
958.5263168849051
 20
1109.905825893395
 30
0.0
 10
958.4045157106593
 20
1109.772951885127
 30
0.0
 10
958.2384232003242
 20
1109.772951885127
 30
0.0
  0
SPLINE
  5
1CF
330
1F
100
AcDbEntity
  8
LAYER_1
 62
     7
100
AcDbSpline
210
0.0
220
0.0
230
1.0
 70
     8
 71
     3
 72
    11
 73
     7
 74
     0
 42
0.0000000001
 43
0.0000000001
 12
1.0
 22
0.0
 32
0.0
 13
1.0
 23
0.0
 33
0.0
 40
0.0
 40
0.0
 40
0.0
 40
0.0
 40
1.0
 40
1.0
 40
1.0
 40
2.0
 40
2.0
 40
2.0
 40
2.0
 10
958.2384232003242
 20
1109.772951885127
 30
0.0
 10
958.2384232003242
 20
1109.772951885127
 30
0.0
 10
1000.758105846122
 20
1109.772951885127
 30
0.0
 10
1000.758105846122
 20
1109.772951885127
 30
0.0
 10
1000.913125522435
 20
1109.772951885127
 30
0.0
 10
1001.045999530703
 20
1109.894753059372
 30
0.0
 10
1001.045999530703
 20
1110.060845569707
 30
0.0
  0
SPLINE
  5
1D0
330
1F
100
AcDbEntity
  8
LAYER_1
 62
     7
100
AcDbSpline
210
0.0
220
0.0
230
1.0
 70
     8
 71
     3
 72
    11
 73
     7
 74
     0
 42
0.0000000001
 43
0.0000000001
 12
1.0
 22
0.0
 32
0.0
 13
1.0
 23
0.0
 33
0.0
 40
0.0
 40
0.0
 40
0.0
 40
0.0
 40
1.0
 40
1.0
 40
1.0
 40
2.0
 40
2.0
 40
2.0
 40
2.0
 10
1001.045999530703
 20
1110.060845569707
 30
0.0
 10
1001.045999530703
 20
1110.060845569707
 30
0.0
 10
1001.045999530703
 20
1322.659258798696
 30
0.0
 10
1001.045999530703
 20
1322.659258798696
 30
0.0
 10
1001.045999530703
 20
1322.814278475009
 30
0.0
 10
1000.924198356457
 20
1322.947152483277
 30
0.0
 10
1000.758105846122
 20
1322.947152483277
 30
0.0
  0
SPLINE
  5
1D1
330
1F
100
AcDbEntity
  8
LAYER_1
 62
     7
100
AcDbSpline
210
0.0
220
0.0
230
1.0
 70
     8
 71
     3
 72
    11
 73
     7
 74
     0
 42
0.0000000001
 43
0.0000000001
 12
1.0
 22
0.0
 32
0.0
 13
1.0
 23
0.0
 33
0.0
 40
0.0
 40
0.0
 40
0.0
 40
0.0
 40
1.0
 40
1.0
 40
1.0
 40
2.0
 40
2.0
 40
2.0
 40
2.0
 10
1000.758105846122
 20
1322.947152483277
 30
0.0
 10
1000.758105846122
 20
1322.947152483277
 30
0.0
 10
958.2384232003242
 20
1322.947152483277
 30
0.0
 10
958.2384232003242
 20
1322.947152483277
 30
0.0
 10
958.393442876637
 20
1322.947152483277
 30
0.0
 10
958.5263168849051
 20
1322.825351309031
 30
0.0
 10
958.5263168849051
 20
1322.659258798696
 30
0.0
  0
POLYLINE
  5
1D2
330
1F
100
AcDbEntity
  8
LAYER_1
 62
     7
100
AcDb2dPolyline
 66
     1
 10
0.0
 20
0.0
 30
0.0
  0
VERTEX
  5
1D3
330
1D2
100
AcDbEntity
  8
LAYER_1
 62
     7
100
AcDbVertex
100
AcDb2dVertex
 10
958.5263168849051
 20
1322.659258798696
 30
0.0
  0
VERTEX
  5
1D4
330
1D2
100
AcDbEntity
  8
LAYER_1
 62
     7
100
AcDbVertex
100
AcDb2dVertex
 10
958.5263168849051
 20
1407.698624090292
 30
0.0
  0
SEQEND
  5
1D5
330
1D2
100
AcDbEntity
  8
LAYER_1
 62
     7
  0
SPLINE
  5
1D6
330
1F
100
AcDbEntity
  8
LAYER_1
 62
     7
100
AcDbSpline
210
0.0
220
0.0
230
1.0
 70
     8
 71
     3
 72
     8
 73
     4
 74
     0
 42
0.0000000001
 43
0.0000000001
 12
1.0
 22
0.0
 32
0.0
 13
1.0
 23
0.0
 33
0.0
 40
0.0
 40
0.0
 40
0.0
 40
0.0
 40
1.0
 40
1.0
 40
1.0
 40
1.0
 10
958.5263168849051
 20
1407.698624090292
 30
0.0
 10
958.5263168849051
 20
1407.543604413979
 30
0.0
 10
958.4045157106593
 20
1407.410730405711
 30
0.0
 10
958.2384232003242
 20
1407.410730405711
 30
0.0
  0
SPLINE
  5
1D7
330
1F
100
AcDbEntity
  8
LAYER_1
 62
     7
100
AcDbSpline
210
0.0
220
0.0
230
1.0
 70
     8
 71
     3
 72
    11
 73
     7
 74
     0
 42
0.0000000001
 43
0.0000000001
 12
1.0
 22
0.0
 32
0.0
 13
1.0
 23
0.0
 33
0.0
 40
0.0
 40
0.0
 40
0.0
 40
0.0
 40
1.0
 40
1.0
 40
1.0
 40
2.0
 40
2.0
 40
2.0
 40
2.0
 10
958.2384232003242
 20
1407.410730405711
 30
0.0
 10
958.2384232003242
 20
1407.410730405711
 30
0.0
 10
1000.758105846122
 20
1407.410730405711
 30
0.0
 10
1000.758105846122
 20
1407.410730405711
 30
0.0
 10
1000.913125522435
 20
1407.410730405711
 30
0.0
 10
1001.045999530703
 20
1407.532531579956
 30
0.0
 10
1001.045999530703
 20
1407.698624090292
 30
0.0
  0
SPLINE
  5
1D8
330
1F
100
AcDbEntity
  8
LAYER_1
 62
     7
100
AcDbSpline
210
0.0
220
0.0
230
1.0
 70
     8
 71
     3
 72
    11
 73
     7
 74
     0
 42
0.0000000001
 43
0.0000000001
 12
1.0
 22
0.0
 32
0.0
 13
1.0
 23
0.0
 33
0.0
 40
0.0
 40
0.0
 40
0.0
 40
0.0
 40
1.0
 40
1.0
 40
1.0
 40
2.0
 40
2.0
 40
2.0
 40
2.0
 10
1001.045999530703
 20
1407.698624090292
 30
0.0
 10
1001.045999530703
 20
1407.698624090292
 30
0.0
 10
1001.045999530703
 20
1620.29703731928
 30
0.0
 10
1001.045999530703
 20
1620.29703731928
 30
0.0
 10
1001.045999530703
 20
1620.452056995593
 30
0.0
 10
1000.924198356457
 20
1620.584931003861
 30
0.0
 10
1000.758105846122
 20
1620.584931003861
 30
0.0
  0
SPLINE
  5
1D9
330
1F
100
AcDbEntity
  8
LAYER_1
 62
     7
100
AcDbSpline
210
0.0
220
0.0
230
1.0
 70
     8
 71
     3
 72
    11
 73
     7
 74
     0
 42
0.0000000001
 43
0.0000000001
 12
1.0
 22
0.0
 32
0.0
 13
1.0
 23
0.0
 33
0.0
 40
0.0
 40
0.0
 40
0.0
 40
0.0
 40
1.0
 40
1.0
 40
1.0
 40
2.0
 40
2.0
 40
2.0
 40
2.0
 10
1000.758105846122
 20
1620.584931003861
 30
0.0
 10
1000.758105846122
 20
1620.584931003861
 30
0.0
 10
958.2384232003242
 20
1620.584931003861
 30
0.0
 10
958.2384232003242
 20
1620.584931003861
 30
0.0
 10
958.393442876637
 20
1620.584931003861
 30
0.0
 10
958.5263168849051
 20
1620.463129829615
 30
0.0
 10
958.5263168849051
 20
1620.29703731928
 30
0.0
  0
POLYLINE
  5
1DA
330
1F
100
AcDbEntity
  8
LAYER_1
 62
     7
100
AcDb2dPolyline
 66
     1
 10
0.0
 20
0.0
 30
0.0
  0
VERTEX
  5
1DB
330
1DA
100
AcDbEntity
  8
LAYER_1
 62
     7
100
AcDbVertex
100
AcDb2dVertex
 10
958.5263168849051
 20
1620.29703731928
 30
0.0
  0
VERTEX
  5
1DC
330
1DA
100
AcDbEntity
  8
LAYER_1
 62
     7
100
AcDbVertex
100
AcDb2dVertex
 10
958.5263168849051
 20
1705.336402610876
 30
0.0
  0
SEQEND
  5
1DD
330
1DA
100
AcDbEntity
  8
LAYER_1
 62
     7
  0
SPLINE
  5
1DE
330
1F
100
AcDbEntity
  8
LAYER_1
 62
     7
100
AcDbSpline
210
0.0
220
0.0
230
1.0
 70
     8
 71
     3
 72
     8
 73
     4
 74
     0
 42
0.0000000001
 43
0.0000000001
 12
1.0
 22
0.0
 32
0.0
 13
1.0
 23
0.0
 33
0.0
 40
0.0
 40
0.0
 40
0.0
 40
0.0
 40
1.0
 40
1.0
 40
1.0
 40
1.0
 10
958.5263168849051
 20
1705.336402610876
 30
0.0
 10
958.5263168849051
 20
1705.181382934563
 30
0.0
 10
958.4045157106593
 20
1705.048508926295
 30
0.0
 10
958.2384232003242
 20
1705.048508926295
 30
0.0
  0
SPLINE
  5
1DF
330
1F
100
AcDbEntity
  8
LAYER_1
 62
     7
100
AcDbSpline
210
0.0
220
0.0
230
1.0
 70
     8
 71
     3
 72
    11
 73
     7
 74
     0
 42
0.0000000001
 43
0.0000000001
 12
1.0
 22
0.0
 32
0.0
 13
1.0
 23
0.0
 33
0.0
 40
0.0
 40
0.0
 40
0.0
 40
0.0
 40
1.0
 40
1.0
 40
1.0
 40
2.0
 40
2.0
 40
2.0
 40
2.0
 10
958.2384232003242
 20
1705.048508926295
 30
0.0
 10
958.2384232003242
 20
1705.048508926295
 30
0.0
 10
1000.758105846122
 20
1705.048508926295
 30
0.0
 10
1000.758105846122
 20
1705.048508926295
 30
0.0
 10
1000.913125522435
 20
1705.048508926295
 30
0.0
 10
1001.045999530703
 20
1705.170310100541
 30
0.0
 10
1001.045999530703
 20
1705.336402610876
 30
0.0
  0
SPLINE
  5
1E0
330
1F
100
AcDbEntity
  8
LAYER_1
 62
     7
100
AcDbSpline
210
0.0
220
0.0
230
1.0
 70
     8
 71
     3
 72
    11
 73
     7
 74
     0
 42
0.0000000001
 43
0.0000000001
 12
1.0
 22
0.0
 32
0.0
 13
1.0
 23
0.0
 33
0.0
 40
0.0
 40
0.0
 40
0.0
 40
0.0
 40
1.0
 40
1.0
 40
1.0
 40
2.0
 40
2.0
 40
2.0
 40
2.0
 10
1001.045999530703
 20
1705.336402610876
 30
0.0
 10
1001.045999530703
 20
1705.336402610876
 30
0.0
 10
1001.045999530703
 20
1917.934815839864
 30
0.0
 10
1001.045999530703
 20
1917.934815839864
 30
0.0
 10
1001.045999530703
 20
1918.089835516177
 30
0.0
 10
1000.924198356457
 20
1918.222709524445
 30
0.0
 10
1000.758105846122
 20
1918.222709524445
 30
0.0
  0
SPLINE
  5
1E1
330
1F
100
AcDbEntity
  8
LAYER_1
 62
     7
100
AcDbSpline
210
0.0
220
0.0
230
1.0
 70
     8
 71
     3
 72
    11
 73
     7
 74
     0
 42
0.0000000001
 43
0.0000000001
 12
1.0
 22
0.0
 32
0.0
 13
1.0
 23
0.0
 33
0.0
 40
0.0
 40
0.0
 40
0.0
 40
0.0
 40
1.0
 40
1.0
 40
1.0
 40
2.0
 40
2.0
 40
2.0
 40
2.0
 10
1000.758105846122
 20
1918.222709524445
 30
0.0
 10
1000.758105846122
 20
1918.222709524445
 30
0.0
 10
958.2384232003242
 20
1918.222709524445
 30
0.0
 10
958.2384232003242
 20
1918.222709524445
 30
0.0
 10
958.393442876637
 20
1918.222709524445
 30
0.0
 10
958.5263168849051
 20
1918.100908350199
 30
0.0
 10
958.5263168849051
 20
1917.934815839864
 30
0.0
  0
POLYLINE
  5
1E2
330
1F
100
AcDbEntity
  8
LAYER_1
 62
     7
100
AcDb2dPolyline
 66
     1
 10
0.0
 20
0.0
 30
0.0
  0
VERTEX
  5
1E3
330
1E2
100
AcDbEntity
  8
LAYER_1
 62
     7
100
AcDbVertex
100
AcDb2dVertex
 10
958.5263168849051
 20
1917.934815839864
 30
0.0
  0
VERTEX
  5
1E4
330
1E2
100
AcDbEntity
  8
LAYER_1
 62
     7
100
AcDbVertex
100
AcDb2dVertex
 10
958.5263168849051
 20
2002.97418113146
 30
0.0
  0
SEQEND
  5
1E5
330
1E2
100
AcDbEntity
  8
LAYER_1
 62
     7
  0
SPLINE
  5
1E6
330
1F
100
AcDbEntity
  8
LAYER_1
 62
     7
100
AcDbSpline
210
0.0
220
0.0
230
1.0
 70
     8
 71
     3
 72
     8
 73
     4
 74
     0
 42
0.0000000001
 43
0.0000000001
 12
1.0
 22
0.0
 32
0.0
 13
1.0
 23
0.0
 33
0.0
 40
0.0
 40
0.0
 40
0.0
 40
0.0
 40
1.0
 40
1.0
 40
1.0
 40
1.0
 10
958.5263168849051
 20
2002.97418113146
 30
0.0
 10
958.5263168849051
 20
2002.819161455147
 30
0.0
 10
958.4045157106593
 20
2002.686287446879
 30
0.0
 10
958.2384232003242
 20
2002.686287446879
 30
0.0
  0
SPLINE
  5
1E7
330
1F
100
AcDbEntity
  8
LAYER_1
 62
     7
100
AcDbSpline
210
0.0
220
0.0
230
1.0
 70
     8
 71
     3
 72
    11
 73
     7
 74
     0
 42
0.0000000001
 43
0.0000000001
 12
1.0
 22
0.0
 32
0.0
 13
1.0
 23
0.0
 33
0.0
 40
0.0
 40
0.0
 40
0.0
 40
0.0
 40
1.0
 40
1.0
 40
1.0
 40
2.0
 40
2.0
 40
2.0
 40
2.0
 10
958.2384232003242
 20
2002.686287446879
 30
0.0
 10
958.2384232003242
 20
2002.686287446879
 30
0.0
 10
1000.758105846122
 20
2002.686287446879
 30
0.0
 10
1000.758105846122
 20
2002.686287446879
 30
0.0
 10
1000.913125522435
 20
2002.686287446879
 30
0.0
 10
1001.045999530703
 20
2002.808088621125
 30
0.0
 10
1001.045999530703
 20
2002.97418113146
 30
0.0
  0
SPLINE
  5
1E8
330
1F
100
AcDbEntity
  8
LAYER_1
 62
     7
100
AcDbSpline
210
0.0
220
0.0
230
1.0
 70
     8
 71
     3
 72
    11
 73
     7
 74
     0
 42
0.0000000001
 43
0.0000000001
 12
1.0
 22
0.0
 32
0.0
 13
1.0
 23
0.0
 33
0.0
 40
0.0
 40
0.0
 40
0.0
 40
0.0
 40
1.0
 40
1.0
 40
1.0
 40
2.0
 40
2.0
 40
2.0
 40
2.0
 10
1001.045999530703
 20
2002.97418113146
 30
0.0
 10
1001.045999530703
 20
2002.97418113146
 30
0.0
 10
1001.045999530703
 20
2215.572594360448
 30
0.0
 10
1001.045999530703
 20
2215.572594360448
 30
0.0
 10
1001.045999530703
 20
2215.727614036761
 30
0.0
 10
1000.924198356457
 20
2215.860488045029
 30
0.0
 10
1000.758105846122
 20
2215.860488045029
 30
0.0
  0
SPLINE
  5
1E9
330
1F
100
AcDbEntity
  8
LAYER_1
 62
     7
100
AcDbSpline
210
0.0
220
0.0
230
1.0
 70
     8
 71
     3
 72
    11
 73
     7
 74
     0
 42
0.0000000001
 43
0.0000000001
 12
1.0
 22
0.0
 32
0.0
 13
1.0
 23
0.0
 33
0.0
 40
0.0
 40
0.0
 40
0.0
 40
0.0
 40
1.0
 40
1.0
 40
1.0
 40
2.0
 40
2.0
 40
2.0
 40
2.0
 10
1000.758105846122
 20
2215.860488045029
 30
0.0
 10
1000.758105846122
 20
2215.860488045029
 30
0.0
 10
958.2384232003242
 20
2215.860488045029
 30
0.0
 10
958.2384232003242
 20
2215.860488045029
 30
0.0
 10
958.393442876637
 20
2215.860488045029
 30
0.0
 10
958.5263168849051
 20
2215.738686870784
 30
0.0
 10
958.5263168849051
 20
2215.572594360448
 30
0.0
  0
POLYLINE
  5
1EA
330
1F
100
AcDbEntity
  8
LAYER_1
 62
     7
100
AcDb2dPolyline
 66
     1
 10
0.0
 20
0.0
 30
0.0
  0
VERTEX
  5
1EB
330
1EA
100
AcDbEntity
  8
LAYER_1
 62
     7
100
AcDbVertex
100
AcDb2dVertex
 10
958.5263168849051
 20
2215.572594360448
 30
0.0
  0
VERTEX
  5
1EC
330
1EA
100
AcDbEntity
  8
LAYER_1
 62
     7
100
AcDbVertex
100
AcDb2dVertex
 10
958.5263168849051
 20
2328.958414749242
 30
0.0
  0
SEQEND
  5
1ED
330
1EA
100
AcDbEntity
  8
LAYER_1
 62
     7
  0
SPLINE
  5
1EE
330
1F
100
AcDbEntity
  8
LAYER_1
 62
     7
100
AcDbSpline
210
0.0
220
0.0
230
1.0
 70
     8
 71
     3
 72
     8
 73
     4
 74
     0
 42
0.0000000001
 43
0.0000000001
 12
1.0
 22
0.0
 32
0.0
 13
1.0
 23
0.0
 33
0.0
 40
0.0
 40
0.0
 40
0.0
 40
0.0
 40
1.0
 40
1.0
 40
1.0
 40
1.0
 10
958.5263168849051
 20
2328.958414749242
 30
0.0
 10
958.5263168849051
 20
2329.113434425555
 30
0.0
 10
958.4045157106593
 20
2329.246308433823
 30
0.0
 10
958.2384232003242
 20
2329.246308433823
 30
0.0
  0
POLYLINE
  5
1EF
330
1F
100
AcDbEntity
  8
LAYER_1
 62
     7
100
AcDb2dPolyline
 66
     1
 10
0.0
 20
0.0
 30
0.0
  0
VERTEX
  5
1F0
330
1EF
100
AcDbEntity
  8
LAYER_1
 62
     7
100
AcDbVertex
100
AcDb2dVertex
 10
958.2384232003242
 20
2329.246308433823
 30
0.0
  0
VERTEX
  5
1F1
330
1EF
100
AcDbEntity
  8
LAYER_1
 62
     7
100
AcDbVertex
100
AcDb2dVertex
 10
958.2384232003242
 20
2329.246308433823
 30
0.0
  0
SEQEND
  5
1F2
330
1EF
100
AcDbEntity
  8
LAYER_1
 62
     7
  0
POLYLINE
  5
1F3
330
1F
100
AcDbEntity
  8
LAYER_1
 62
     7
100
AcDb2dPolyline
 66
     1
 10
0.0
 20
0.0
 30
0.0
  0
VERTEX
  5
1F4
330
1F3
100
AcDbEntity
  8
LAYER_1
 62
     7
100
AcDbVertex
100
AcDb2dVertex
 10
958.2384232003242
 20
2329.246308433823
 30
0.0
  0
VERTEX
  5
1F5
330
1F3
100
AcDbEntity
  8
LAYER_1
 62
     7
100
AcDbVertex
100
AcDb2dVertex
 10
759.8132375199348
 20
2329.246308433823
 30
0.0
  0
SEQEND
  5
1F6
330
1F3
100
AcDbEntity
  8
LAYER_1
 62
     7
  0
SPLINE
  5
1F7
330
1F
100
AcDbEntity
  8
LAYER_1
 62
     7
100
AcDbSpline
210
0.0
220
0.0
230
1.0
 70
     8
 71
     3
 72
     8
 73
     4
 74
     0
 42
0.0000000001
 43
0.0000000001
 12
1.0
 22
0.0
 32
0.0
 13
1.0
 23
0.0
 33
0.0
 40
0.0
 40
0.0
 40
0.0
 40
0.0
 40
1.0
 40
1.0
 40
1.0
 40
1.0
 10
759.8132375199348
 20
2329.246308433823
 30
0.0
 10
759.9682571962476
 20
2329.246308433823
 30
0.0
 10
760.1011312045157
 20
2329.124507259578
 30
0.0
 10
760.1011312045157
 20
2328.958414749242
 30
0.0
  0
SPLINE
  5
1F8
330
1F
100
AcDbEntity
  8
LAYER_1
 62
     7
100
AcDbSpline
210
0.0
220
0.0
230
1.0
 70
     8
 71
     3
 72
    11
 73
     7
 74
     0
 42
0.0000000001
 43
0.0000000001
 12
1.0
 22
0.0
 32
0.0
 13
1.0
 23
0.0
 33
0.0
 40
0.0
 40
0.0
 40
0.0
 40
0.0
 40
1.0
 40
1.0
 40
1.0
 40
2.0
 40
2.0
 40
2.0
 40
2.0
 10
760.1011312045157
 20
2328.958414749242
 30
0.0
 10
760.1011312045157
 20
2328.958414749242
 30
0.0
 10
760.1011312045157
 20
2371.47809739504
 30
0.0
 10
760.1011312045157
 20
2371.47809739504
 30
0.0
 10
760.1011312045157
 20
2371.633117071353
 30
0.0
 10
759.9793300302699
 20
2371.765991079621
 30
0.0
 10
759.8132375199348
 20
2371.765991079621
 30
0.0
  0
SPLINE
  5
1F9
330
1F
100
AcDbEntity
  8
LAYER_1
 62
     7
100
AcDbSpline
210
0.0
220
0.0
230
1.0
 70
     8
 71
     3
 72
    11
 73
     7
 74
     0
 42
0.0000000001
 43
0.0000000001
 12
1.0
 22
0.0
 32
0.0
 13
1.0
 23
0.0
 33
0.0
 40
0.0
 40
0.0
 40
0.0
 40
0.0
 40
1.0
 40
1.0
 40
1.0
 40
2.0
 40
2.0
 40
2.0
 40
2.0
 10
759.8132375199348
 20
2371.765991079621
 30
0.0
 10
759.8132375199348
 20
2371.765991079621
 30
0.0
 10
547.2148242909461
 20
2371.765991079621
 30
0.0
 10
547.2148242909461
 20
2371.765991079621
 30
0.0
 10
547.0598046146333
 20
2371.765991079621
 30
0.0
 10
546.9269306063652
 20
2371.644189905375
 30
0.0
 10
546.9269306063652
 20
2371.47809739504
 30
0.0
  0
SPLINE
  5
1FA
330
1F
100
AcDbEntity
  8
LAYER_1
 62
     7
100
AcDbSpline
210
0.0
220
0.0
230
1.0
 70
     8
 71
     3
 72
    11
 73
     7
 74
     0
 42
0.0000000001
 43
0.0000000001
 12
1.0
 22
0.0
 32
0.0
 13
1.0
 23
0.0
 33
0.0
 40
0.0
 40
0.0
 40
0.0
 40
0.0
 40
1.0
 40
1.0
 40
1.0
 40
2.0
 40
2.0
 40
2.0
 40
2.0
 10
546.9269306063652
 20
2371.47809739504
 30
0.0
 10
546.9269306063652
 20
2371.47809739504
 30
0.0
 10
546.9269306063652
 20
2328.958414749242
 30
0.0
 10
546.9269306063652
 20
2328.958414749242
 30
0.0
 10
546.9269306063652
 20
2329.113434425555
 30
0.0
 10
547.048731780611
 20
2329.246308433823
 30
0.0
 10
547.2148242909461
 20
2329.246308433823
 30
0.0
  0
POLYLINE
  5
1FB
330
1F
100
AcDbEntity
  8
LAYER_1
 62
     7
100
AcDb2dPolyline
 66
     1
 10
0.0
 20
0.0
 30
0.0
  0
VERTEX
  5
1FC
330
1FB
100
AcDbEntity
  8
LAYER_1
 62
     7
100
AcDbVertex
100
AcDb2dVertex
 10
547.2148242909461
 20
2329.246308433823
 30
0.0
  0
VERTEX
  5
1FD
330
1FB
100
AcDbEntity
  8
LAYER_1
 62
     7
100
AcDbVertex
100
AcDb2dVertex
 10
462.1754589993507
 20
2329.246308433823
 30
0.0
  0
SEQEND
  5
1FE
330
1FB
100
AcDbEntity
  8
LAYER_1
 62
     7
  0
SPLINE
  5
1FF
330
1F
100
AcDbEntity
  8
LAYER_1
 62
     7
100
AcDbSpline
210
0.0
220
0.0
230
1.0
 70
     8
 71
     3
 72
     8
 73
     4
 74
     0
 42
0.0000000001
 43
0.0000000001
 12
1.0
 22
0.0
 32
0.0
 13
1.0
 23
0.0
 33
0.0
 40
0.0
 40
0.0
 40
0.0
 40
0.0
 40
1.0
 40
1.0
 40
1.0
 40
1.0
 10
462.1754589993507
 20
2329.246308433823
 30
0.0
 10
462.3304786756635
 20
2329.246308433823
 30
0.0
 10
462.4633526839316
 20
2329.124507259578
 30
0.0
 10
462.4633526839316
 20
2328.958414749242
 30
0.0
  0
SPLINE
  5
200
330
1F
100
AcDbEntity
  8
LAYER_1
 62
     7
100
AcDbSpline
210
0.0
220
0.0
230
1.0
 70
     8
 71
     3
 72
    11
 73
     7
 74
     0
 42
0.0000000001
 43
0.0000000001
 12
1.0
 22
0.0
 32
0.0
 13
1.0
 23
0.0
 33
0.0
 40
0.0
 40
0.0
 40
0.0
 40
0.0
 40
1.0
 40
1.0
 40
1.0
 40
2.0
 40
2.0
 40
2.0
 40
2.0
 10
462.4633526839316
 20
2328.958414749242
 30
0.0
 10
462.4633526839316
 20
2328.958414749242
 30
0.0
 10
462.4633526839316
 20
2371.47809739504
 30
0.0
 10
462.4633526839316
 20
2371.47809739504
 30
0.0
 10
462.4633526839316
 20
2371.633117071353
 30
0.0
 10
462.3415515096858
 20
2371.765991079621
 30
0.0
 10
462.1754589993507
 20
2371.765991079621
 30
0.0
  0
SPLINE
  5
201
330
1F
100
AcDbEntity
  8
LAYER_1
 62
     7
100
AcDbSpline
210
0.0
220
0.0
230
1.0
 70
     8
 71
     3
 72
    11
 73
     7
 74
     0
 42
0.0000000001
 43
0.0000000001
 12
1.0
 22
0.0
 32
0.0
 13
1.0
 23
0.0
 33
0.0
 40
0.0
 40
0.0
 40
0.0
 40
0.0
 40
1.0
 40
1.0
 40
1.0
 40
2.0
 40
2.0
 40
2.0
 40
2.0
 10
462.1754589993507
 20
2371.765991079621
 30
0.0
 10
462.1754589993507
 20
2371.765991079621
 30
0.0
 10
249.577045770362
 20
2371.765991079621
 30
0.0
 10
249.577045770362
 20
2371.765991079621
 30
0.0
 10
249.4220260940492
 20
2371.765991079621
 30
0.0
 10
249.2891520857811
 20
2371.644189905375
 30
0.0
 10
249.2891520857811
 20
2371.47809739504
 30
0.0
  0
SPLINE
  5
202
330
1F
100
AcDbEntity
  8
LAYER_1
 62
     7
100
AcDbSpline
210
0.0
220
0.0
230
1.0
 70
     8
 71
     3
 72
    11
 73
     7
 74
     0
 42
0.0000000001
 43
0.0000000001
 12
1.0
 22
0.0
 32
0.0
 13
1.0
 23
0.0
 33
0.0
 40
0.0
 40
0.0
 40
0.0
 40
0.0
 40
1.0
 40
1.0
 40
1.0
 40
2.0
 40
2.0
 40
2.0
 40
2.0
 10
249.2891520857811
 20
2371.47809739504
 30
0.0
 10
249.2891520857811
 20
2371.47809739504
 30
0.0
 10
249.2891520857811
 20
2328.958414749242
 30
0.0
 10
249.2891520857811
 20
2328.958414749242
 30
0.0
 10
249.2891520857811
 20
2329.113434425555
 30
0.0
 10
249.4109532600269
 20
2329.246308433823
 30
0.0
 10
249.577045770362
 20
2329.246308433823
 30
0.0
  0
POLYLINE
  5
203
330
1F
100
AcDbEntity
  8
LAYER_1
 62
     7
100
AcDb2dPolyline
 66
     1
 10
0.0
 20
0.0
 30
0.0
  0
VERTEX
  5
204
330
203
100
AcDbEntity
  8
LAYER_1
 62
     7
100
AcDbVertex
100
AcDb2dVertex
 10
249.577045770362
 20
2329.246308433823
 30
0.0
  0
VERTEX
  5
205
330
203
100
AcDbEntity
  8
LAYER_1
 62
     7
100
AcDbVertex
100
AcDb2dVertex
 10
51.15186008997262
 20
2329.246308433823
 30
0.0
  0
SEQEND
  5
206
330
203
100
AcDbEntity
  8
LAYER_1
 62
     7
  0
SPLINE
  5
207
330
1F
100
AcDbEntity
  8
LAYER_1
 62
     7
100
AcDbSpline
210
0.0
220
0.0
230
1.0
 70
     8
 71
     3
 72
     8
 73
     4
 74
     0
 42
0.0000000001
 43
0.0000000001
 12
1.0
 22
0.0
 32
0.0
 13
1.0
 23
0.0
 33
0.0
 40
0.0
 40
0.0
 40
0.0
 40
0.0
 40
1.0
 40
1.0
 40
1.0
 40
1.0
 10
51.15186008997262
 20
2329.246308433823
 30
0.0
 10
50.99684041365981
 20
2329.246308433823
 30
0.0
 10
50.863964990368
 20
2329.124507259578
 30
0.0
 10
50.863964990368
 20
2328.958414749242
 30
0.0
  0
POLYLINE
  5
208
330
1F
100
AcDbEntity
  8
LAYER_1
 62
     7
100
AcDb2dPolyline
 66
     1
 10
0.0
 20
0.0
 30
0.0
  0
VERTEX
  5
209
330
208
100
AcDbEntity
  8
LAYER_1
 62
     7
100
AcDbVertex
100
AcDb2dVertex
 10
50.863964990368
 20
2328.958414749242
 30
0.0
  0
VERTEX
  5
20A
330
208
100
AcDbEntity
  8
LAYER_1
 62
     7
100
AcDbVertex
100
AcDb2dVertex
 10
50.863964990368
 20
2328.958414749242
 30
0.0
  0
SEQEND
  5
20B
330
208
100
AcDbEntity
  8
LAYER_1
 62
     7
  0
POLYLINE
  5
20C
330
1F
100
AcDbEntity
  8
LAYER_1
 62
     7
100
AcDb2dPolyline
 66
     1
 10
0.0
 20
0.0
 30
0.0
  0
VERTEX
  5
20D
330
20C
100
AcDbEntity
  8
LAYER_1
 62
     7
100
AcDbVertex
100
AcDb2dVertex
 10
50.863964990368
 20
2328.958414749242
 30
0.0
  0
VERTEX
  5
20E
330
20C
100
AcDbEntity
  8
LAYER_1
 62
     7
100
AcDbVertex
100
AcDb2dVertex
 10
50.863964990368
 20
2215.572594360448
 30
0.0
  0
SEQEND
  5
20F
330
20C
100
AcDbEntity
  8
LAYER_1
 62
     7
  0
SPLINE
  5
210
330
1F
100
AcDbEntity
  8
LAYER_1
 62
     7
100
AcDbSpline
210
0.0
220
0.0
230
1.0
 70
     8
 71
     3
 72
     8
 73
     4
 74
     0
 42
0.0000000001
 43
0.0000000001
 12
1.0
 22
0.0
 32
0.0
 13
1.0
 23
0.0
 33
0.0
 40
0.0
 40
0.0
 40
0.0
 40
0.0
 40
1.0
 40
1.0
 40
1.0
 40
1.0
 10
50.863964990368
 20
2215.572594360448
 30
0.0
 10
50.863964990368
 20
2215.727614036761
 30
0.0
 10
50.98576744235925
 20
2215.860488045029
 30
0.0
 10
51.15186008997262
 20
2215.860488045029
 30
0.0
  0
SPLINE
  5
211
330
1F
100
AcDbEntity
  8
LAYER_1
 62
     7
100
AcDbSpline
210
0.0
220
0.0
230
1.0
 70
     8
 71
     3
 72
    11
 73
     7
 74
     0
 42
0.0000000001
 43
0.0000000001
 12
1.0
 22
0.0
 32
0.0
 13
1.0
 23
0.0
 33
0.0
 40
0.0
 40
0.0
 40
0.0
 40
0.0
 40
1.0
 40
1.0
 40
1.0
 40
2.0
 40
2.0
 40
2.0
 40
2.0
 10
51.15186008997262
 20
2215.860488045029
 30
0.0
 10
51.15186008997262
 20
2215.860488045029
 30
0.0
 10
8.632177444174886
 20
2215.860488045029
 30
0.0
 10
8.632177444174886
 20
2215.860488045029
 30
0.0
 10
8.47715506453369
 20
2215.860488045029
 30
0.0
 10
8.344281056265572
 20
2215.738686870784
 30
0.0
 10
8.344281056265572
 20
2215.572594360448
 30
0.0
  0
SPLINE
  5
212
330
1F
100
AcDbEntity
  8
LAYER_1
 62
     7
100
AcDbSpline
210
0.0
220
0.0
230
1.0
 70
     8
 71
     3
 72
    11
 73
     7
 74
     0
 42
0.0000000001
 43
0.0000000001
 12
1.0
 22
0.0
 32
0.0
 13
1.0
 23
0.0
 33
0.0
 40
0.0
 40
0.0
 40
0.0
 40
0.0
 40
1.0
 40
1.0
 40
1.0
 40
2.0
 40
2.0
 40
2.0
 40
2.0
 10
8.344281056265572
 20
2215.572594360448
 30
0.0
 10
8.344281056265572
 20
2215.572594360448
 30
0.0
 10
8.344281056265572
 20
2002.97418113146
 30
0.0
 10
8.344281056265572
 20
2002.97418113146
 30
0.0
 10
8.344281056265572
 20
2002.819161455147
 30
0.0
 10
8.466084933839738
 20
2002.686287446879
 30
0.0
 10
8.632177444174886
 20
2002.686287446879
 30
0.0
  0
SPLINE
  5
213
330
1F
100
AcDbEntity
  8
LAYER_1
 62
     7
100
AcDbSpline
210
0.0
220
0.0
230
1.0
 70
     8
 71
     3
 72
    11
 73
     7
 74
     0
 42
0.0000000001
 43
0.0000000001
 12
1.0
 22
0.0
 32
0.0
 13
1.0
 23
0.0
 33
0.0
 40
0.0
 40
0.0
 40
0.0
 40
0.0
 40
1.0
 40
1.0
 40
1.0
 40
2.0
 40
2.0
 40
2.0
 40
2.0
 10
8.632177444174886
 20
2002.686287446879
 30
0.0
 10
8.632177444174886
 20
2002.686287446879
 30
0.0
 10
51.15186008997262
 20
2002.686287446879
 30
0.0
 10
51.15186008997262
 20
2002.686287446879
 30
0.0
 10
50.99684041365981
 20
2002.686287446879
 30
0.0
 10
50.863964990368
 20
2002.808088621125
 30
0.0
 10
50.863964990368
 20
2002.97418113146
 30
0.0
  0
POLYLINE
  5
214
330
1F
100
AcDbEntity
  8
LAYER_1
 62
     7
100
AcDb2dPolyline
 66
     1
 10
0.0
 20
0.0
 30
0.0
  0
VERTEX
  5
215
330
214
100
AcDbEntity
  8
LAYER_1
 62
     7
100
AcDbVertex
100
AcDb2dVertex
 10
50.863964990368
 20
2002.97418113146
 30
0.0
  0
VERTEX
  5
216
330
214
100
AcDbEntity
  8
LAYER_1
 62
     7
100
AcDbVertex
100
AcDb2dVertex
 10
50.863964990368
 20
1917.934815839864
 30
0.0
  0
SEQEND
  5
217
330
214
100
AcDbEntity
  8
LAYER_1
 62
     7
  0
SPLINE
  5
218
330
1F
100
AcDbEntity
  8
LAYER_1
 62
     7
100
AcDbSpline
210
0.0
220
0.0
230
1.0
 70
     8
 71
     3
 72
     8
 73
     4
 74
     0
 42
0.0000000001
 43
0.0000000001
 12
1.0
 22
0.0
 32
0.0
 13
1.0
 23
0.0
 33
0.0
 40
0.0
 40
0.0
 40
0.0
 40
0.0
 40
1.0
 40
1.0
 40
1.0
 40
1.0
 10
50.863964990368
 20
1917.934815839864
 30
0.0
 10
50.863964990368
 20
1918.089835516177
 30
0.0
 10
50.98576744235925
 20
1918.222709524445
 30
0.0
 10
51.15186008997262
 20
1918.222709524445
 30
0.0
  0
SPLINE
  5
219
330
1F
100
AcDbEntity
  8
LAYER_1
 62
     7
100
AcDbSpline
210
0.0
220
0.0
230
1.0
 70
     8
 71
     3
 72
    11
 73
     7
 74
     0
 42
0.0000000001
 43
0.0000000001
 12
1.0
 22
0.0
 32
0.0
 13
1.0
 23
0.0
 33
0.0
 40
0.0
 40
0.0
 40
0.0
 40
0.0
 40
1.0
 40
1.0
 40
1.0
 40
2.0
 40
2.0
 40
2.0
 40
2.0
 10
51.15186008997262
 20
1918.222709524445
 30
0.0
 10
51.15186008997262
 20
1918.222709524445
 30
0.0
 10
8.632177444174886
 20
1918.222709524445
 30
0.0
 10
8.632177444174886
 20
1918.222709524445
 30
0.0
 10
8.47715506453369
 20
1918.222709524445
 30
0.0
 10
8.344281056265572
 20
1918.100908350199
 30
0.0
 10
8.344281056265572
 20
1917.934815839864
 30
0.0
  0
SPLINE
  5
21A
330
1F
100
AcDbEntity
  8
LAYER_1
 62
     7
100
AcDbSpline
210
0.0
220
0.0
230
1.0
 70
     8
 71
     3
 72
    11
 73
     7
 74
     0
 42
0.0000000001
 43
0.0000000001
 12
1.0
 22
0.0
 32
0.0
 13
1.0
 23
0.0
 33
0.0
 40
0.0
 40
0.0
 40
0.0
 40
0.0
 40
1.0
 40
1.0
 40
1.0
 40
2.0
 40
2.0
 40
2.0
 40
2.0
 10
8.344281056265572
 20
1917.934815839864
 30
0.0
 10
8.344281056265572
 20
1917.934815839864
 30
0.0
 10
8.344281056265572
 20
1705.336402610876
 30
0.0
 10
8.344281056265572
 20
1705.336402610876
 30
0.0
 10
8.344281056265572
 20
1705.181382934563
 30
0.0
 10
8.466084933839738
 20
1705.048508926295
 30
0.0
 10
8.632177444174886
 20
1705.048508926295
 30
0.0
  0
SPLINE
  5
21B
330
1F
100
AcDbEntity
  8
LAYER_1
 62
     7
100
AcDbSpline
210
0.0
220
0.0
230
1.0
 70
     8
 71
     3
 72
    11
 73
     7
 74
     0
 42
0.0000000001
 43
0.0000000001
 12
1.0
 22
0.0
 32
0.0
 13
1.0
 23
0.0
 33
0.0
 40
0.0
 40
0.0
 40
0.0
 40
0.0
 40
1.0
 40
1.0
 40
1.0
 40
2.0
 40
2.0
 40
2.0
 40
2.0
 10
8.632177444174886
 20
1705.048508926295
 30
0.0
 10
8.632177444174886
 20
1705.048508926295
 30
0.0
 10
51.15186008997262
 20
1705.048508926295
 30
0.0
 10
51.15186008997262
 20
1705.048508926295
 30
0.0
 10
50.99684041365981
 20
1705.048508926295
 30
0.0
 10
50.863964990368
 20
1705.170310100541
 30
0.0
 10
50.863964990368
 20
1705.336402610876
 30
0.0
  0
POLYLINE
  5
21C
330
1F
100
AcDbEntity
  8
LAYER_1
 62
     7
100
AcDb2dPolyline
 66
     1
 10
0.0
 20
0.0
 30
0.0
  0
VERTEX
  5
21D
330
21C
100
AcDbEntity
  8
LAYER_1
 62
     7
100
AcDbVertex
100
AcDb2dVertex
 10
50.863964990368
 20
1705.336402610876
 30
0.0
  0
VERTEX
  5
21E
330
21C
100
AcDbEntity
  8
LAYER_1
 62
     7
100
AcDbVertex
100
AcDb2dVertex
 10
50.863964990368
 20
1620.29703731928
 30
0.0
  0
SEQEND
  5
21F
330
21C
100
AcDbEntity
  8
LAYER_1
 62
     7
  0
SPLINE
  5
220
330
1F
100
AcDbEntity
  8
LAYER_1
 62
     7
100
AcDbSpline
210
0.0
220
0.0
230
1.0
 70
     8
 71
     3
 72
     8
 73
     4
 74
     0
 42
0.0000000001
 43
0.0000000001
 12
1.0
 22
0.0
 32
0.0
 13
1.0
 23
0.0
 33
0.0
 40
0.0
 40
0.0
 40
0.0
 40
0.0
 40
1.0
 40
1.0
 40
1.0
 40
1.0
 10
50.863964990368
 20
1620.29703731928
 30
0.0
 10
50.863964990368
 20
1620.452056995593
 30
0.0
 10
50.98576744235925
 20
1620.584931003861
 30
0.0
 10
51.15186008997262
 20
1620.584931003861
 30
0.0
  0
SPLINE
  5
221
330
1F
100
AcDbEntity
  8
LAYER_1
 62
     7
100
AcDbSpline
210
0.0
220
0.0
230
1.0
 70
     8
 71
     3
 72
    11
 73
     7
 74
     0
 42
0.0000000001
 43
0.0000000001
 12
1.0
 22
0.0
 32
0.0
 13
1.0
 23
0.0
 33
0.0
 40
0.0
 40
0.0
 40
0.0
 40
0.0
 40
1.0
 40
1.0
 40
1.0
 40
2.0
 40
2.0
 40
2.0
 40
2.0
 10
51.15186008997262
 20
1620.584931003861
 30
0.0
 10
51.15186008997262
 20
1620.584931003861
 30
0.0
 10
8.632177444174886
 20
1620.584931003861
 30
0.0
 10
8.632177444174886
 20
1620.584931003861
 30
0.0
 10
8.47715506453369
 20
1620.584931003861
 30
0.0
 10
8.344281056265572
 20
1620.463129829615
 30
0.0
 10
8.344281056265572
 20
1620.29703731928
 30
0.0
  0
SPLINE
  5
222
330
1F
100
AcDbEntity
  8
LAYER_1
 62
     7
100
AcDbSpline
210
0.0
220
0.0
230
1.0
 70
     8
 71
     3
 72
    11
 73
     7
 74
     0
 42
0.0000000001
 43
0.0000000001
 12
1.0
 22
0.0
 32
0.0
 13
1.0
 23
0.0
 33
0.0
 40
0.0
 40
0.0
 40
0.0
 40
0.0
 40
1.0
 40
1.0
 40
1.0
 40
2.0
 40
2.0
 40
2.0
 40
2.0
 10
8.344281056265572
 20
1620.29703731928
 30
0.0
 10
8.344281056265572
 20
1620.29703731928
 30
0.0
 10
8.344281056265572
 20
1407.698624090292
 30
0.0
 10
8.344281056265572
 20
1407.698624090292
 30
0.0
 10
8.344281056265572
 20
1407.543604413979
 30
0.0
 10
8.466084933839738
 20
1407.410730405711
 30
0.0
 10
8.632177444174886
 20
1407.410730405711
 30
0.0
  0
SPLINE
  5
223
330
1F
100
AcDbEntity
  8
LAYER_1
 62
     7
100
AcDbSpline
210
0.0
220
0.0
230
1.0
 70
     8
 71
     3
 72
    11
 73
     7
 74
     0
 42
0.0000000001
 43
0.0000000001
 12
1.0
 22
0.0
 32
0.0
 13
1.0
 23
0.0
 33
0.0
 40
0.0
 40
0.0
 40
0.0
 40
0.0
 40
1.0
 40
1.0
 40
1.0
 40
2.0
 40
2.0
 40
2.0
 40
2.0
 10
8.632177444174886
 20
1407.410730405711
 30
0.0
 10
8.632177444174886
 20
1407.410730405711
 30
0.0
 10
51.15186008997262
 20
1407.410730405711
 30
0.0
 10
51.15186008997262
 20
1407.410730405711
 30
0.0
 10
50.99684041365981
 20
1407.410730405711
 30
0.0
 10
50.863964990368
 20
1407.532531579956
 30
0.0
 10
50.863964990368
 20
1407.698624090292
 30
0.0
  0
POLYLINE
  5
224
330
1F
100
AcDbEntity
  8
LAYER_1
 62
     7
100
AcDb2dPolyline
 66
     1
 10
0.0
 20
0.0
 30
0.0
  0
VERTEX
  5
225
330
224
100
AcDbEntity
  8
LAYER_1
 62
     7
100
AcDbVertex
100
AcDb2dVertex
 10
50.863964990368
 20
1407.698624090292
 30
0.0
  0
VERTEX
  5
226
330
224
100
AcDbEntity
  8
LAYER_1
 62
     7
100
AcDbVertex
100
AcDb2dVertex
 10
50.863964990368
 20
1322.659258798696
 30
0.0
  0
SEQEND
  5
227
330
224
100
AcDbEntity
  8
LAYER_1
 62
     7
  0
SPLINE
  5
228
330
1F
100
AcDbEntity
  8
LAYER_1
 62
     7
100
AcDbSpline
210
0.0
220
0.0
230
1.0
 70
     8
 71
     3
 72
     8
 73
     4
 74
     0
 42
0.0000000001
 43
0.0000000001
 12
1.0
 22
0.0
 32
0.0
 13
1.0
 23
0.0
 33
0.0
 40
0.0
 40
0.0
 40
0.0
 40
0.0
 40
1.0
 40
1.0
 40
1.0
 40
1.0
 10
50.863964990368
 20
1322.659258798696
 30
0.0
 10
50.863964990368
 20
1322.814278475009
 30
0.0
 10
50.98576744235925
 20
1322.947152483277
 30
0.0
 10
51.15186008997262
 20
1322.947152483277
 30
0.0
  0
SPLINE
  5
229
330
1F
100
AcDbEntity
  8
LAYER_1
 62
     7
100
AcDbSpline
210
0.0
220
0.0
230
1.0
 70
     8
 71
     3
 72
    11
 73
     7
 74
     0
 42
0.0000000001
 43
0.0000000001
 12
1.0
 22
0.0
 32
0.0
 13
1.0
 23
0.0
 33
0.0
 40
0.0
 40
0.0
 40
0.0
 40
0.0
 40
1.0
 40
1.0
 40
1.0
 40
2.0
 40
2.0
 40
2.0
 40
2.0
 10
51.15186008997262
 20
1322.947152483277
 30
0.0
 10
51.15186008997262
 20
1322.947152483277
 30
0.0
 10
8.632177444174886
 20
1322.947152483277
 30
0.0
 10
8.632177444174886
 20
1322.947152483277
 30
0.0
 10
8.47715506453369
 20
1322.947152483277
 30
0.0
 10
8.344281056265572
 20
1322.825351309031
 30
0.0
 10
8.344281056265572
 20
1322.659258798696
 30
0.0
  0
SPLINE
  5
22A
330
1F
100
AcDbEntity
  8
LAYER_1
 62
     7
100
AcDbSpline
210
0.0
220
0.0
230
1.0
 70
     8
 71
     3
 72
    11
 73
     7
 74
     0
 42
0.0000000001
 43
0.0000000001
 12
1.0
 22
0.0
 32
0.0
 13
1.0
 23
0.0
 33
0.0
 40
0.0
 40
0.0
 40
0.0
 40
0.0
 40
1.0
 40
1.0
 40
1.0
 40
2.0
 40
2.0
 40
2.0
 40
2.0
 10
8.344281056265572
 20
1322.659258798696
 30
0.0
 10
8.344281056265572
 20
1322.659258798696
 30
0.0
 10
8.344281056265572
 20
1110.060845569707
 30
0.0
 10
8.344281056265572
 20
1110.060845569707
 30
0.0
 10
8.344281056265572
 20
1109.905825893395
 30
0.0
 10
8.466084933839738
 20
1109.772951885127
 30
0.0
 10
8.632177444174886
 20
1109.772951885127
 30
0.0
  0
SPLINE
  5
22B
330
1F
100
AcDbEntity
  8
LAYER_1
 62
     7
100
AcDbSpline
210
0.0
220
0.0
230
1.0
 70
     8
 71
     3
 72
    11
 73
     7
 74
     0
 42
0.0000000001
 43
0.0000000001
 12
1.0
 22
0.0
 32
0.0
 13
1.0
 23
0.0
 33
0.0
 40
0.0
 40
0.0
 40
0.0
 40
0.0
 40
1.0
 40
1.0
 40
1.0
 40
2.0
 40
2.0
 40
2.0
 40
2.0
 10
8.632177444174886
 20
1109.772951885127
 30
0.0
 10
8.632177444174886
 20
1109.772951885127
 30
0.0
 10
51.15186008997262
 20
1109.772951885127
 30
0.0
 10
51.15186008997262
 20
1109.772951885127
 30
0.0
 10
50.99684041365981
 20
1109.772951885127
 30
0.0
 10
50.863964990368
 20
1109.894753059372
 30
0.0
 10
50.863964990368
 20
1110.060845569707
 30
0.0
  0
POLYLINE
  5
22C
330
1F
100
AcDbEntity
  8
LAYER_1
 62
     7
100
AcDb2dPolyline
 66
     1
 10
0.0
 20
0.0
 30
0.0
  0
VERTEX
  5
22D
330
22C
100
AcDbEntity
  8
LAYER_1
 62
     7
100
AcDbVertex
100
AcDb2dVertex
 10
50.863964990368
 20
1110.060845569707
 30
0.0
  0
VERTEX
  5
22E
330
22C
100
AcDbEntity
  8
LAYER_1
 62
     7
100
AcDbVertex
100
AcDb2dVertex
 10
50.86396782041538
 20
996.6750237658925
 30
0.0
  0
SEQEND
  5
22F
330
22C
100
AcDbEntity
  8
LAYER_1
 62
     7
  0
SPLINE
  5
230
330
1F
100
AcDbEntity
  8
LAYER_1
 62
     7
100
AcDbSpline
210
0.0
220
0.0
230
1.0
 70
     8
 71
     3
 72
     8
 73
     4
 74
     0
 42
0.0000000001
 43
0.0000000001
 12
1.0
 22
0.0
 32
0.0
 13
1.0
 23
0.0
 33
0.0
 40
0.0
 40
0.0
 40
0.0
 40
0.0
 40
1.0
 40
1.0
 40
1.0
 40
1.0
 10
50.86396782041538
 20
996.6750237658925
 30
0.0
 10
50.86396782041538
 20
996.5200055046007
 30
0.0
 10
50.98576744235925
 20
996.3871314963326
 30
0.0
 10
51.15186008997262
 20
996.3871314963326
 30
0.0
  0
POLYLINE
  5
231
330
1F
100
AcDbEntity
  8
LAYER_1
 62
     7
100
AcDb2dPolyline
 66
     1
 10
0.0
 20
0.0
 30
0.0
  0
VERTEX
  5
232
330
231
100
AcDbEntity
  8
LAYER_1
 62
     7
100
AcDbVertex
100
AcDb2dVertex
 10
51.15186008997262
 20
996.3871314963326
 30
0.0
  0
VERTEX
  5
233
330
231
100
AcDbEntity
  8
LAYER_1
 62
     7
100
AcDbVertex
100
AcDb2dVertex
 10
51.15186008997262
 20
996.3871314963326
 30
0.0
  0
SEQEND
  5
234
330
231
100
AcDbEntity
  8
LAYER_1
 62
     7
  0
ENDSEC
  0
SECTION
  2
OBJECTS
  0
DICTIONARY
  5
C
330
0
100
AcDbDictionary
  3
ACAD_GROUP
350
D
  3
ACAD_LAYOUT
350
1A
  3
ACAD_MATERIAL
350
3B
  3
ACAD_MLEADERSTYLE
350
237
  3
ACAD_MLINESTYLE
350
17
  3
ACAD_PLOTSETTINGS
350
19
  3
ACAD_VISUALSTYLE
350
2A
  3
ACDBVARIABLEDICTIONARY
350
235
1001
ACAD
1000
TREAT_AS_HARD
1070
     0
  0
DICTIONARY
  5
D
102
{ACAD_REACTORS
330
C
102
}
330
C
100
AcDbDictionary
1001
ACAD
1000
TREAT_AS_HARD
1070
     0
  0
DICTIONARY
  5
1A
102
{ACAD_REACTORS
330
C
102
}
330
C
100
AcDbDictionary
1001
ACAD
1000
TREAT_AS_HARD
1070
     0
  0
DICTIONARY
  5
3B
102
{ACAD_REACTORS
330
C
102
}
330
C
100
AcDbDictionary
  3
BYBLOCK
350
3D
  3
BYLAYER
350
3C
  3
GLOBAL
350
3E
1001
ACAD
1000
TREAT_AS_HARD
1070
     0
  0
DICTIONARY
  5
237
102
{ACAD_REACTORS
330
C
102
}
330
C
100
AcDbDictionary
1001
ACAD
1000
TREAT_AS_HARD
1070
     0
  0
DICTIONARY
  5
17
102
{ACAD_REACTORS
330
C
102
}
330
C
100
AcDbDictionary
  3
STANDARD
350
18
1001
ACAD
1000
TREAT_AS_HARD
1070
     0
  0
DICTIONARY
  5
19
102
{ACAD_REACTORS
330
C
102
}
330
C
100
AcDbDictionary
1001
ACAD
1000
TREAT_AS_HARD
1070
     0
  0
DICTIONARY
  5
2A
102
{ACAD_REACTORS
330
C
102
}
330
C
100
AcDbDictionary
  3
2DWIREFRAME
350
2F
  3
3D_HIDDEN
350
31
  3
3DWIREFRAME
350
30
  3
BASIC
350
32
  3
BRIGHTEN
350
36
  3
COLORCHANGE
350
3A
  3
CONCEPTUAL
350
34
  3
DIM
350
35
  3
FACEPATTERN
350
39
  3
FLAT
350
2B
  3
FLATWITHEDGES
350
2C
  3
GOURAUD
350
2D
  3
GOURAUDWITHEDGES
350
2E
  3
LINEPATTERN
350
38
  3
REALISTIC
350
33
  3
THICKEN
350
37
1001
ACAD
1000
TREAT_AS_HARD
1070
     0
  0
DICTIONARY
  5
235
102
{ACAD_REACTORS
330
C
102
}
330
C
100
AcDbDictionary
  3
DIMASSOC
350
238
  3
HIDETEXT
350
239
1001
ACAD
1000
TREAT_AS_HARD
1070
     0
  0
MATERIAL
  5
3D
102
{ACAD_REACTORS
330
3B
102
}
102
{ACAD_XDICTIONARY
360
23C
102
}
330
3B
100
AcDbMaterial
  1
ByBlock
  0
MATERIAL
  5
3C
102
{ACAD_REACTORS
330
3B
102
}
102
{ACAD_XDICTIONARY
360
23A
102
}
330
3B
100
AcDbMaterial
  1
ByLayer
  0
MATERIAL
  5
3E
102
{ACAD_REACTORS
330
3B
102
}
102
{ACAD_XDICTIONARY
360
23E
102
}
330
3B
100
AcDbMaterial
  1
Global
  0
MLINESTYLE
  5
18
102
{ACAD_REACTORS
330
17
102
}
330
17
100
AcDbMlineStyle
  2
Standard
 70
     0
  3

 62
   256
 51
90.0
 52
90.0
 71
     2
 49
0.5
 62
   256
  6
BYLAYER
 49
-0.5
 62
   256
  6
BYLAYER
  0
ACAD_PROXY_OBJECT
  5
2F
102
{ACAD_REACTORS
330
2A
102
}
330
2A
100
AcDbZombieObject
 90
      499
 91
      501
 93
      436
310
42CC9915DA5C99599C985B595049028333333333333E3BF0000000000000FB0107901411070040501600405405064090741402480A0340
1001
ACAD
1000
AcDbSavedByObjectVersion
1070
     0
  0
ACAD_PROXY_OBJECT
  5
31
102
{ACAD_REACTORS
330
2A
102
}
330
2A
100
AcDbZombieObject
 90
      499
 91
      501
 93
      500
310
424CD108121A5919195B90640502408333333333333E3BF0000000000000FB01079024090700405020000000000001110200405405064090740C02480A0340
1001
ACAD
1000
AcDbSavedByObjectVersion
1070
     0
  0
ACAD_PROXY_OBJECT
  5
30
102
{ACAD_REACTORS
330
2A
102
}
330
2A
100
AcDbZombieObject
 90
      499
 91
      501
 93
      436
310
42CCD915DA5C99599C985B595059028333333333333E3BF0000000000000FB0107901411070040501600405405064090741402480A0340
1001
ACAD
1000
AcDbSavedByObjectVersion
1070
     0
  0
ACAD_PROXY_OBJECT
  5
32
102
{ACAD_REACTORS
330
2A
102
}
330
2A
100
AcDbZombieObject
 90
      499
 91
      501
 93
      388
310
4150985CDA58D07406404333333333333E3BF0000000000000FB0107A41107004050150841D405064090741402480A0350
1001
ACAD
1000
AcDbSavedByObjectVersion
1070
     0
  0
ACAD_PROXY_OBJECT
  5
36
102
{ACAD_REACTORS
330
2A
102
}
330
2A
100
AcDbZombieObject
 90
      499
 91
      501
 93
      428
310
42109C9A59DA1D195B90C409028333333333333E3BF0000000000000FB010790141107004050150841D405064090741402480A029950
1001
ACAD
1000
AcDbSavedByObjectVersion
1070
     0
  0
ACAD_PROXY_OBJECT
  5
3A
102
{ACAD_REACTORS
330
2A
102
}
330
2A
100
AcDbZombieObject
 90
      499
 91
      501
 93
      452
310
42D0DBDB1BDC90DA185B99D95104090240C333333333333E3BF0000000000000FB0108901411070040501508421405064090741402480A0350
1001
ACAD
1000
AcDbSavedByObjectVersion
1070
     0
  0
ACAD_PROXY_OBJECT
  5
34
102
{ACAD_REACTORS
330
2A
102
}
330
2A
100
AcDbZombieObject
 90
      499
 91
      501
 93
      500
310
4290DBDB98D95C1D1D585B10940D028333333333333E3BF0000000000000FB0107902409070040501000000000000111010841D405064090740C02480A0340
1001
ACAD
1000
AcDbSavedByObjectVersion
1070
     0
  0
ACAD_PROXY_OBJECT
  5
35
102
{ACAD_REACTORS
330
2A
102
}
330
2A
100
AcDbZombieObject
 90
      499
 91
      501
 93
      412
310
40D11A5B50B409028333333333333E3BF0000000000000FB010790141107004050150841D405064090741402480A02677FFFFFD0
1001
ACAD
1000
AcDbSavedByObjectVersion
1070
     0
  0
ACAD_PROXY_OBJECT
  5
39
102
{ACAD_REACTORS
330
2A
102
}
330
2A
100
AcDbZombieObject
 90
      499
 91
      501
 93
      444
310
42D19858D95C185D1D195C9B90F409028333333333333E3BF0000000000000FB010790141107004050150841D405064090741402480A0350
1001
ACAD
1000
AcDbSavedByObjectVersion
1070
     0
  0
ACAD_PROXY_OBJECT
  5
2B
102
{ACAD_REACTORS
330
2A
102
}
330
2A
100
AcDbZombieObject
 90
      499
 91
      501
 93
      388
310
41119B185D240901404333333333333E3BF0000000000000F9010740A41107004050150841D405064090741402480A1B50
1001
ACAD
1000
AcDbSavedByObjectVersion
1070
     0
  0
ACAD_PROXY_OBJECT
  5
2C
102
{ACAD_REACTORS
330
2A
102
}
330
2A
100
AcDbZombieObject
 90
      499
 91
      501
 93
      476
310
43519B185D15DA5D1A115919D95CD0140901404333333333333E3BF0000000000000F9010740901411070040501600405405064090741402480A1B50
1001
ACAD
1000
AcDbSavedByObjectVersion
1070
     0
  0
ACAD_PROXY_OBJECT
  5
2D
102
{ACAD_REACTORS
330
2A
102
}
330
2A
100
AcDbZombieObject
 90
      499
 91
      501
 93
      412
310
41D1DBDD5C985D5910240902404333333333333E3BF0000000000000F9010740A411070040501641D405064090741402480A1B50
1001
ACAD
1000
AcDbSavedByObjectVersion
1070
     0
  0
ACAD_PROXY_OBJECT
  5
2E
102
{ACAD_REACTORS
330
2A
102
}
330
2A
100
AcDbZombieObject
 90
      499
 91
      501
 93
      500
310
4411DBDD5C985D5915DA5D1A115919D95CD0340902404333333333333E3BF0000000000000F9010740901411070040501600405405064090741402480A1B50
1001
ACAD
1000
AcDbSavedByObjectVersion
1070
     0
  0
ACAD_PROXY_OBJECT
  5
38
102
{ACAD_REACTORS
330
2A
102
}
330
2A
100
AcDbZombieObject
 90
      499
 91
      501
 93
      444
310
42D31A5B995C185D1D195C9B90E409028333333333333E3BF0000000000000FB010790141107004050750841D405064090741402483A0350
1001
ACAD
1000
AcDbSavedByObjectVersion
1070
     0
  0
ACAD_PROXY_OBJECT
  5
33
102
{ACAD_REACTORS
330
2A
102
}
330
2A
100
AcDbZombieObject
 90
      499
 91
      501
 93
      420
310
425499585B1A5CDD1A58D08409028333333333333E3BF0000000000000FB01079019070040501508421405064090741402480A1B40
1001
ACAD
1000
AcDbSavedByObjectVersion
1070
     0
  0
ACAD_PROXY_OBJECT
  5
37
102
{ACAD_REACTORS
330
2A
102
}
330
2A
100
AcDbZombieObject
 90
      499
 91
      501
 93
      412
310
41D51A1A58DAD95B90D409028333333333333E3BF0000000000000FB010790141107004050150C41D405064090741402480A0350
1001
ACAD
1000
AcDbSavedByObjectVersion
1070
     0
  0
DICTIONARYVAR
  5
238
102
{ACAD_REACTORS
330
235
102
}
330
235
100
DictionaryVariables
280
     0
  1
2
  0
DICTIONARYVAR
  5
239
102
{ACAD_REACTORS
330
235
102
}
330
235
100
DictionaryVariables
280
     0
  1
1
  0
DICTIONARY
  5
23C
330
3D
100
AcDbDictionary
  3
ACAD_XREC_ROUNDTRIP
360
23D
1001
ACAD
1000
TREAT_AS_HARD
1070
     1
  0
DICTIONARY
  5
23A
330
3C
100
AcDbDictionary
  3
ACAD_XREC_ROUNDTRIP
360
23B
1001
ACAD
1000
TREAT_AS_HARD
1070
     1
  0
DICTIONARY
  5
23E
330
3E
100
AcDbDictionary
  3
ACAD_XREC_ROUNDTRIP
360
23F
1001
ACAD
1000
TREAT_AS_HARD
1070
     1
  0
XRECORD
  5
23D
102
{ACAD_REACTORS
330
23C
102
}
330
23C
100
AcDbXrecord
102
MATERIAL
148
0.0
149
0.0
149
0.0
 93
        0
 94
      127
282
     0
 72
     1
 77
     1
171
     1
175
     1
179
     1
273
     0
  0
XRECORD
  5
23B
102
{ACAD_REACTORS
330
23A
102
}
330
23A
100
AcDbXrecord
102
MATERIAL
148
0.0
149
0.0
149
0.0
 93
        0
 94
      127
282
     0
 72
     1
 77
     1
171
     1
175
     1
179
     1
273
     0
  0
XRECORD
  5
23F
102
{ACAD_REACTORS
330
23E
102
}
330
23E
100
AcDbXrecord
102
MATERIAL
148
0.0
149
0.0
149
0.0
 93
        0
 94
      127
282
     0
 72
     1
 77
     1
171
     1
175
     1
179
     1
273
     0
  0
ENDSEC
  0
EOF
