0
SECTION
2
HEADER
9
$INSUNITS
70
4
9
$ACADVER
1
AC1014
9
$HANDSEED
5
FFFF
0
ENDSEC
0
SECTION
2
TABLES
0
TABLE
2
VPORT
5
8
100
AcDbSymbolTable
0
ENDTAB
0
TABLE
2
LTYPE
5
5
100
AcDbSymbolTable
0
LTYPE
5
14
100
AcDbSymbolTableRecord
100
AcDbLinetypeTableRecord
2
BYBLOCK
70
0
0
LTYPE
5
15
100
AcDbSymbolTableRecord
100
AcDbLinetypeTableRecord
2
BYLAYER
70
0
0
ENDTAB
0
TABLE
2
LAYER
5
2
100
AcDbSymbolTable
70
2
0
LAYER
5
50
100
AcDbSymbolTableRecord
100
AcDbLayerTableRecord
2
0
70
0
6
CONTINUOUS
0
ENDTAB
0
TABLE
2
STYLE
5
3
100
AcDbSymbolTable
70
1
0
STYLE
5
11
100
AcDbSymbolTableRecord
100
AcDbTextStyleTableRecord
2
STANDARD
70
0
0
ENDTAB
0
TABLE
2
VIEW
5
6
100
AcDbSymbolTable
70
0
0
ENDTAB
0
TABLE
2
UCS
5
7
100
AcDbSymbolTable
70
0
0
ENDTAB
0
TABLE
2
APPID
5
9
100
AcDbSymbolTable
70
2
0
APPID
5
12
100
AcDbSymbolTableRecord
100
AcDbRegAppTableRecord
2
ACAD
70
0
0
ENDTAB
0
TABLE
2
DIMSTYLE
5
A
100
AcDbSymbolTable
70
1
0
ENDTAB
0
TABLE
2
BLOCK_RECORD
5
1
100
AcDbSymbolTable
70
1
0
BLOCK_RECORD
5
1F
100
AcDbSymbolTableRecord
100
AcDbBlockTableRecord
2
*MODEL_SPACE
0
BLOCK_RECORD
5
1B
100
AcDbSymbolTableRecord
100
AcDbBlockTableRecord
2
*PAPER_SPACE
0
ENDTAB
0
ENDSEC
0
SECTION
2
BLOCKS
0
BLOCK
5
20
100
AcDbEntity
100
AcDbBlockBegin
2
*MODEL_SPACE
0
ENDBLK
5
21
100
AcDbEntity
100
AcDbBlockEnd
0
BLOCK
5
1C
100
AcDbEntity
100
AcDbBlockBegin
2
*PAPER_SPACE
0
ENDBLK
5
1D
100
AcDbEntity
100
AcDbBlockEnd
0
ENDSEC
0
SECTION
2
ENTITIES
0
LWPOLYLINE
5
100
100
AcDbEntity
8
0
100
AcDbPolyline
90
22
70
1
43
0.0
10
1198
20
660
10
1210
20
659.99999999999977
10
1210
20
699.99999999999977
10
1198
20
700
10
1198
20
720
10
1210
20
720
10
1210
20
740
10
960
20
740
10
710
20
740
10
710
20
720
10
722.00000000000023
20
720
10
722.00000000000023
20
700
10
710
20
700
10
710
20
660
10
722.00000000000023
20
660
10
722.00000000000023
20
640
10
710
20
640
10
710
20
620
10
960
20
620
10
1210
20
620
10
1210
20
640
10
1198
20
640
0
LWPOLYLINE
5
101
100
AcDbEntity
8
0
100
AcDbPolyline
90
20
70
1
43
0.0
10
797
20
249.60055267667326
10
809
20
249.6005526766732
10
808.99014837918116
20
289.50055267666011
10
796.99014837918116
20
289.50055267665215
10
796.99014837918116
20
309.60055267665217
10
808.99014837918116
20
309.60055267665211
10
808.99014837918116
20
329.55055267637317
10
1184.9999949717576
20
329.55056412772586
10
1184.9999955793335
20
309.60056412772582
10
1197
20
309.60056412772531
10
1197
20
289.50056412772528
10
1184.9999961914775
20
289.50056412772523
10
1184.9999974066291
20
249.60056412772525
10
1197
20
249.60056412772536
10
1197
20
229.50056412772543
10
1185.0000031612756
20
229.50056412772526
10
1185.0000037688542
20
209.55056412772547
10
809.00000079084475
20
209.55055267667305
10
809.00000079202164
20
229.50055267667307
10
797
20
229.50055267667324
0
LWPOLYLINE
5
102
100
AcDbEntity
8
0
100
AcDbPolyline
90
24
70
1
43
0.0
10
1220.1000000000001
20
1046
10
1100.0000000000002
20
1046
10
1100.0000000000002
20
1020
10
740
20
1020
10
740
20
1046
10
619.89999999999986
20
1046
10
619.89999999999986
20
999.99999251511042
10
632.00000000000023
20
999.99999251511042
10
632.00000000000023
20
980
10
620
20
980
10
620
20
940
10
632.00000000000023
20
940
10
632.00000000000023
20
920
10
620.03333333749163
20
920
10
620.06666667498314
20
900
10
1220.0000000000002
20
900
10
1220.0000000000002
20
920
10
1208.0000000000002
20
920
10
1208.0000000000002
20
940
10
1220.0000000000002
20
940
10
1220.0000000000002
20
980
10
1208.0000000000002
20
980
10
1208.0000000000002
20
1000
10
1220.1000000000001
20
1000
0
LWPOLYLINE
5
103
100
AcDbEntity
8
0
100
AcDbPolyline
90
20
70
1
43
0.0
10
1198
20
572.60000000000025
10
1198
20
532.70000000000027
10
1210
20
532.70000000000027
10
1210
20
512.60000000000025
10
1198
20
512.60000000000014
10
1198
20
492.65000050000015
10
721.99999999999989
20
492.65000050000026
10
721.99999999999989
20
512.60000050000019
10
710
20
512.60000050000008
10
710
20
532.7000005000001
10
721.99999999999989
20
532.7000005000001
10
721.99999999999989
20
572.60000050000008
10
710
20
572.60000050000008
10
710
20
592.69999950000022
10
721.99999999999989
20
592.69999950000022
10
721.99999999999989
20
612.64999950000015
10
1198
20
612.64999950000015
10
1198
20
592.70000000000005
10
1210
20
592.70000000000027
10
1210
20
572.60000000000025
0
LWPOLYLINE
5
104
100
AcDbEntity
8
0
100
AcDbPolyline
90
4
70
1
43
0.0
10
1402.7782149427751
20
257.47313104903549
10
1402.7782149427751
20
245.47313104903552
10
1282.7782149427771
20
245.47313104903799
10
1282.7782149427744
20
257.47313104903799
0
LINE
5
105
100
AcDbEntity
8
0
100
AcDbLine
10
1185.0000000000002
20
360
30
0
11
1197
21
360
31
0
0
LINE
5
106
100
AcDbEntity
8
0
100
AcDbLine
10
797
20
440
30
0
11
797
21
460
31
0
0
LWPOLYLINE
5
107
100
AcDbEntity
8
0
100
AcDbPolyline
90
17
70
1
43
0.0
10
570.44261423571493
20
259.99971424037454
10
570.4426142357147
20
439.99976040153513
10
570.44261268850221
20
459.99976040153513
10
686.99999999968895
20
459.9997981880307
10
686.99999999968895
20
441.60019280847962
10
686.99999999968895
20
440.1001928109676
10
698.99955179979941
20
440.1001928109676
10
698.99955179979941
20
400.00019281096763
10
686.99999999968895
20
400.00019281096763
10
687.00018320590925
20
360.00019281096763
10
636.99999999999989
20
360.00019281096763
10
636.99999999999989
20
320.00019281096752
10
649.00001377648869
20
320.00019281096752
10
649.00001377648869
20
279.90019281097045
10
636.999984675365
20
279.90019281097045
10
636.99975240082176
20
278.40018844296753
10
636.99975541720107
20
259.99972503201718
0
LINE
5
108
100
AcDbEntity
8
0
100
AcDbLine
10
797
20
380
30
0
11
797
21
420
31
0
0
LINE
5
109
100
AcDbEntity
8
0
100
AcDbLine
10
809.00000000000023
20
420
30
0
11
797
21
420
31
0
0
LWPOLYLINE
5
110
100
AcDbEntity
8
0
100
AcDbPolyline
90
8
70
1
43
0.0
10
1882.7782149428667
20
885.47313104896932
42
-0.41421356237308982
10
1922.7782149427628
20
845.4731310490738
10
1922.7782149427703
20
245.47313104904404
42
-0.4142135623730987
10
1882.7782149427649
20
205.47313104903799
10
1282.7782149427771
20
205.47313104903401
42
-0.41421364082136536
10
1242.7782149427744
20
245.47314176260363
10
1242.778214942774
20
845.47313104896705
42
-0.41421356237304302
10
1282.7782149427694
20
885.47313104896955
0
LWPOLYLINE
5
111
100
AcDbEntity
8
0
100
AcDbPolyline
90
4
70
1
43
0.0
10
1402.7782149427765
20
845.47313104896705
10
1282.7782149427765
20
845.47313104896705
10
1282.7782149427765
20
833.47313104896693
10
1402.7782149427765
20
833.47313104896693
0
LWPOLYLINE
5
112
100
AcDbEntity
8
0
100
AcDbPolyline
90
4
70
1
43
0.0
10
1762.7782149428665
20
845.47313104907357
10
1882.7782149428667
20
845.47313104907334
10
1882.7782149428667
20
833.47313104907334
10
1762.7782149428665
20
833.47313104907357
0
LINE
5
113
100
AcDbEntity
8
0
100
AcDbLine
10
797
20
440
30
0
11
809.00000000000023
21
440
31
0
0
LINE
5
114
100
AcDbEntity
8
0
100
AcDbLine
10
1197
20
360
30
0
11
1197
21
340
31
0
0
LINE
5
115
100
AcDbEntity
8
0
100
AcDbLine
10
797
20
380
30
0
11
809.00000000000023
21
380
31
0
0
LINE
5
116
100
AcDbEntity
8
0
100
AcDbLine
10
1197
20
440
30
0
11
1185.0000000000002
21
440
31
0
0
LINE
5
117
100
AcDbEntity
8
0
100
AcDbLine
10
1197
20
460
30
0
11
1197
21
440
31
0
0
LINE
5
118
100
AcDbEntity
8
0
100
AcDbLine
10
809.00000000000023
20
360
30
0
11
797
21
360
31
0
0
LINE
5
119
100
AcDbEntity
8
0
100
AcDbLine
10
809.00000000000023
20
440
30
0
11
809.00000000000023
21
420
31
0
0
LINE
5
120
100
AcDbEntity
8
0
100
AcDbLine
10
1185.0000000000002
20
420
30
0
11
1197
21
420
31
0
0
LINE
5
121
100
AcDbEntity
8
0
100
AcDbLine
10
797
20
340
30
0
11
797
21
360
31
0
0
LINE
5
122
100
AcDbEntity
8
0
100
AcDbLine
10
809.00000000000023
20
380
30
0
11
809.00000000000023
21
360
31
0
0
LINE
5
123
100
AcDbEntity
8
0
100
AcDbLine
10
1185.0000000000002
20
440
30
0
11
1185.0000000000002
21
420
31
0
0
LWPOLYLINE
5
124
100
AcDbEntity
8
0
100
AcDbPolyline
90
4
70
1
43
0.0
10
1882.7782149427858
20
257.47313104904356
10
1762.7782149427858
20
257.473131049046
10
1762.7782149427858
20
245.473131049046
10
1882.7782149427649
20
245.47313104904356
0
LINE
5
125
100
AcDbEntity
8
0
100
AcDbLine
10
1197
20
340
30
0
11
797
21
340
31
0
0
LINE
5
126
100
AcDbEntity
8
0
100
AcDbLine
10
797
20
460
30
0
11
1197
21
460
31
0
0
LWPOLYLINE
5
127
100
AcDbEntity
8
0
100
AcDbPolyline
90
4
70
1
43
0.0
10
800.00000000000045
20
980.00000000000011
10
812.00000000000034
20
980.00000000000011
10
812.00000000000034
20
940.00000000000011
10
800.00000000000045
20
940.00000000000011
0
LWPOLYLINE
5
128
100
AcDbEntity
8
0
100
AcDbPolyline
90
4
70
1
43
0.0
10
799.99999999999034
20
849.10000000000014
10
811.99999999999034
20
849.10000000000014
10
811.99999999999034
20
809.10000000000014
10
799.99999999999034
20
809.10000000000014
0
LWPOLYLINE
5
129
100
AcDbEntity
8
0
100
AcDbPolyline
90
4
70
1
43
0.0
10
840
20
700
10
851.99999999999989
20
700
10
851.99999999999989
20
660
10
840
20
660
0
LWPOLYLINE
5
130
100
AcDbEntity
8
0
100
AcDbPolyline
90
4
70
1
43
0.0
10
1068.0000000000005
20
700
10
1080.0000000000002
20
700
10
1080.0000000000002
20
660
10
1068.0000000000005
20
660
0
LWPOLYLINE
5
131
100
AcDbEntity
8
0
100
AcDbPolyline
90
4
70
1
43
0.0
10
840.00000000001614
20
572.65000050000015
10
852.00000000001614
20
572.65000050000015
10
852.00000000001614
20
532.65000050000015
10
840.00000000001614
20
532.65000050000015
0
LWPOLYLINE
5
132
100
AcDbEntity
8
0
100
AcDbPolyline
90
4
70
1
43
0.0
10
1068.0000000000005
20
572.64999950000015
10
1080.0000000000005
20
572.64999950000015
10
1080.0000000000005
20
532.65000050000015
10
1068.0000000000005
20
532.65000050000015
0
LWPOLYLINE
5
133
100
AcDbEntity
8
0
100
AcDbPolyline
90
4
70
1
43
0.0
10
1105.0000000000002
20
420
10
1117
20
420
10
1117
20
380
10
1105.0000000000002
20
380
0
LWPOLYLINE
5
134
100
AcDbEntity
8
0
100
AcDbPolyline
90
4
70
1
43
0.0
10
1104.9999999527788
20
289.5505303836668
10
1116.999999952779
20
289.55053038366907
10
1116.999999952779
20
249.55053038366682
10
1104.9999999527788
20
249.55053038366682
0
LWPOLYLINE
5
135
100
AcDbEntity
8
0
100
AcDbPolyline
90
20
70
1
43
0.0
10
632.00000000000034
20
889.10000000000014
10
1208
20
889.10000000000014
10
1208
20
869.15000000000009
10
1220
20
869.15000000000009
10
1220
20
849.04999999999995
10
1208
20
849.04999999999995
10
1208.0000000016184
20
809.14999761549223
10
1220
20
809.14999761549223
10
1220
20
789.0499976154922
10
1208.0000000016184
20
789.0499976154922
10
1207.9999999622387
20
769.09999761549216
10
632.00000049407504
20
769.09999875247604
10
632.00000053345491
20
789.04999875247609
10
620
20
789.04999875247609
10
620
20
809.14999875247622
10
632.00000053345491
20
809.14999875247622
10
632.00000000000023
20
849.04999999999995
10
620.00000000000023
20
849.04999999999995
10
620.00000000000023
20
869.15000000000009
10
632.00000000000023
20
869.15000000000009
0
LINE
5
136
100
AcDbEntity
8
0
100
AcDbLine
10
1185.0000000000002
20
360
30
0
11
1185.0000000000002
21
380
31
0
0
LINE
5
137
100
AcDbEntity
8
0
100
AcDbLine
10
1185.0000000000002
20
380
30
0
11
1197
21
380
31
0
0
LINE
5
138
100
AcDbEntity
8
0
100
AcDbLine
10
1197
20
380
30
0
11
1197
21
420
31
0
0
LWPOLYLINE
5
139
100
AcDbEntity
8
0
100
AcDbPolyline
90
17
70
1
43
0.0
10
1362.0000916029551
20
985.00010120801312
10
1362.0000916029544
20
1035.0002844139224
10
1322.0000916029544
20
1035.0001012077021
10
1322.0000916029544
20
1046.9996530078126
10
1281.9000916029545
20
1046.9996530078126
10
1281.9000916029545
20
1035.0001012077021
10
1280.4000916054426
20
1035.0001012077021
10
1262.0004862258916
20
1035.0001012077021
10
1262.0005240123871
20
918.44271389651544
10
1282.0005240123871
20
918.44271544372782
10
1462.0005701735477
20
918.44271544372816
10
1462.0005593819051
20
984.99985662521431
10
1443.600095970955
20
984.999853608835
10
1442.1000916029516
20
985.00008588337801
10
1442.1000916029516
20
997.00011498450181
10
1402.0000916029544
20
997.00011498450181
10
1402.0000916029551
20
985.00010120801312
0
LWPOLYLINE
5
140
100
AcDbEntity
8
0
100
AcDbPolyline
90
17
70
1
43
0.0
10
1501.9000916029545
20
1035.0001012077021
10
1501.9000916029545
20
1046.9996530078126
10
1542.0000916029544
20
1046.9996530078126
10
1542.0000916029544
20
1035.0001012077021
10
1582.0000916029544
20
1035.0002844139224
10
1582.0000916029551
20
985.00010120801312
10
1622.0000916029551
20
985.00010120801312
10
1622.0000916029544
20
997.00011498450181
10
1662.1000916029516
20
997.00011498450181
10
1662.1000916029516
20
985.00008588337801
10
1663.600095970955
20
984.999853608835
10
1682.0005593819051
20
984.99985662521431
10
1682.0005701735477
20
918.44271544372816
10
1502.0005240123871
20
918.44271544372782
10
1482.0005240123871
20
918.44271389651544
10
1482.0004862258916
20
1035.0001012077021
10
1500.4000916054426
20
1035.0001012077021
0
LWPOLYLINE
5
141
100
AcDbEntity
8
0
100
AcDbPolyline
90
17
70
1
43
0.0
10
1721.9000916029545
20
1046.9996530078126
10
1762.0000916029544
20
1046.9996530078126
10
1762.0000916029544
20
1035.0001012077021
10
1802.0000916029544
20
1035.0002844139224
10
1802.0000916029551
20
985.00010120801312
10
1842.0000916029551
20
985.00010120801312
10
1842.0000916029544
20
997.00011498450181
10
1882.1000916029516
20
997.00011498450181
10
1882.1000916029516
20
985.00008588337801
10
1883.600095970955
20
984.999853608835
10
1902.0005593819051
20
984.99985662521431
10
1902.0005701735477
20
918.44271544372816
10
1722.0005240123871
20
918.44271544372782
10
1702.0005240123871
20
918.44271389651544
10
1702.0004862258916
20
1035.0001012077021
10
1720.4000916054426
20
1035.0001012077021
10
1721.9000916029545
20
1035.0001012077021
0
ENDSEC
0
SECTION
2
OBJECTS
0
DICTIONARY
5
C
100
AcDbDictionary
3
ACAD_GROUP
350
D
3
ACAD_MLINESTYLE
350
17
0
DICTIONARY
5
D
100
AcDbDictionary
0
DICTIONARY
5
1A
330
C
100
AcDbDictionary
0
DICTIONARY
5
17
100
AcDbDictionary
0
ENDSEC
0
EOF
