0
SECTION
2
HEADER
9
$INSUNITS
70
4
9
$ACADVER
1
AC1014
9
$HANDSEED
5
FFFF
0
ENDSEC
0
SECTION
2
TABLES
0
TABLE
2
VPORT
5
8
100
AcDbSymbolTable
0
ENDTAB
0
TABLE
2
LTYPE
5
5
100
AcDbSymbolTable
0
LTYPE
5
14
100
AcDbSymbolTableRecord
100
AcDbLinetypeTableRecord
2
BYBLOCK
70
0
0
LTYPE
5
15
100
AcDbSymbolTableRecord
100
AcDbLinetypeTableRecord
2
BYLAYER
70
0
0
ENDTAB
0
TABLE
2
LAYER
5
2
100
AcDbSymbolTable
70
2
0
LAYER
5
50
100
AcDbSymbolTableRecord
100
AcDbLayerTableRecord
2
0
70
0
6
CONTINUOUS
0
ENDTAB
0
TABLE
2
STYLE
5
3
100
AcDbSymbolTable
70
1
0
STYLE
5
11
100
AcDbSymbolTableRecord
100
AcDbTextStyleTableRecord
2
STANDARD
70
0
0
ENDTAB
0
TABLE
2
VIEW
5
6
100
AcDbSymbolTable
70
0
0
ENDTAB
0
TABLE
2
UCS
5
7
100
AcDbSymbolTable
70
0
0
ENDTAB
0
TABLE
2
APPID
5
9
100
AcDbSymbolTable
70
2
0
APPID
5
12
100
AcDbSymbolTableRecord
100
AcDbRegAppTableRecord
2
ACAD
70
0
0
ENDTAB
0
TABLE
2
DIMSTYLE
5
A
100
AcDbSymbolTable
70
1
0
ENDTAB
0
TABLE
2
BLOCK_RECORD
5
1
100
AcDbSymbolTable
70
1
0
BLOCK_RECORD
5
1F
100
AcDbSymbolTableRecord
100
AcDbBlockTableRecord
2
*MODEL_SPACE
0
BLOCK_RECORD
5
1B
100
AcDbSymbolTableRecord
100
AcDbBlockTableRecord
2
*PAPER_SPACE
0
ENDTAB
0
ENDSEC
0
SECTION
2
BLOCKS
0
BLOCK
5
20
100
AcDbEntity
100
AcDbBlockBegin
2
*MODEL_SPACE
0
ENDBLK
5
21
100
AcDbEntity
100
AcDbBlockEnd
0
BLOCK
5
1C
100
AcDbEntity
100
AcDbBlockBegin
2
*PAPER_SPACE
0
ENDBLK
5
1D
100
AcDbEntity
100
AcDbBlockEnd
0
ENDSEC
0
SECTION
2
ENTITIES
0
LWPOLYLINE
5
100
100
AcDbEntity
8
0
100
AcDbPolyline
90
8
70
1
43
0.0
10
-229.99999999999807
20
345.22488558039288
10
-79.999999999998096
20
345.22488558039288
42
0.41421356237309553
10
-69.999999999998039
20
355.22488558039288
10
-69.999999999999886
20
505.22488558039265
42
0.41421356237309503
10
-79.999999999999972
20
515.22488558039277
10
-230
20
515.22488558039265
42
0.41421356237309709
10
-240
20
505.22488558039254
10
-239.99999999999986
20
355.22488558039288
42
0.41421356237309609
0
LWPOLYLINE
5
101
100
AcDbEntity
8
0
100
AcDbPolyline
90
4
70
1
43
0.0
10
-200.79999999999998
20
505.22488558039265
10
-230
20
505.22488558039265
10
-229.99999999999997
20
499.22488558039322
10
-200.79999999999995
20
499.22488558039322
0
LWPOLYLINE
5
102
100
AcDbEntity
8
0
100
AcDbPolyline
90
4
70
1
43
0.0
10
-200.7999999999997
20
355.22488558039288
10
-229.99999999999966
20
355.22488558039288
10
-229.99999999999818
20
361.22488558039322
10
-200.79999999999814
20
361.22488558039322
0
LWPOLYLINE
5
103
100
AcDbEntity
8
0
100
AcDbPolyline
90
4
70
1
43
0.0
10
-109.2
20
505.22488558039271
10
-79.999999999999972
20
505.22488558039265
10
-79.999999999999957
20
499.22488558039328
10
-109.19999999999993
20
499.22488558039333
0
LWPOLYLINE
5
104
100
AcDbEntity
8
0
100
AcDbPolyline
90
4
70
1
43
0.0
10
-109.19999999999814
20
355.22488558039288
10
-79.999999999998067
20
355.22488558039288
10
-79.999999999998991
20
361.22488558039151
10
-109.19999999999897
20
361.22488558039151
0
LWPOLYLINE
5
105
100
AcDbEntity
8
0
100
AcDbPolyline
90
25
70
1
43
0.0
10
-394.83333333333326
20
525.21428571428578
10
-244.99999999999997
20
525.21428571428578
10
-244.99999999999997
20
530
10
-251.28571428571428
20
530
10
-251.28571428571428
20
535
10
-245.28571428571425
20
535
10
-245.28571428571425
20
545
10
-251.21428571428567
20
545
10
-251.21428571428567
20
550
10
-245.21428571428567
20
550
10
-245.21428571428567
20
561.5
10
-274.99999999999994
20
561.5
10
-274.99999999999994
20
555
10
-365
20
555
10
-365
20
561.21428571428578
10
-394.83333333333326
20
561.21428571428578
10
-394.83333333333326
20
555.21428571428578
10
-394.83333333333326
20
550
10
-388.83333333333326
20
550
10
-388.83333333333326
20
545
10
-394.83333333333326
20
545
10
-394.83333333333326
20
535
10
-388.83333333333326
20
535
10
-388.83333333333326
20
530
10
-394.83333333333326
20
530
0
LWPOLYLINE
5
106
100
AcDbEntity
8
0
100
AcDbPolyline
90
20
70
1
43
0.0
10
-257.71428571428567
20
475
10
-263.52941176470591
20
475
10
-263.52941176470591
20
480
10
-257.52941176470591
20
480
10
-257.52941176470591
20
485
10
-382.52941176470586
20
485
10
-382.52941176470586
20
480
10
-376.28571428571428
20
480
10
-376.28571428571428
20
475
10
-382.28571428571428
20
475
10
-382.28571428571428
20
465
10
-376.52941176470586
20
465
10
-376.52941176470586
20
460
10
-382.52941176470586
20
460
10
-382.52941176470586
20
455
10
-257.5
20
455
10
-257.5
20
460
10
-263.71428571428572
20
460
10
-263.71428571428572
20
465
10
-257.71428571428567
20
465
0
LWPOLYLINE
5
107
100
AcDbEntity
8
0
100
AcDbPolyline
90
20
70
1
43
0.0
10
-394.79166666666663
20
502.40000000000003
10
-388.79166666666663
20
502.40000000000003
10
-388.79166666666663
20
511.60000000000002
10
-394.79166666666663
20
511.60000000000002
10
-394.79166666666663
20
517.39999999999998
10
-388.79166666666663
20
517.39999999999998
10
-388.79166666666663
20
522
10
-251.29999999999998
20
522
10
-251.29999999999998
20
517.39999999999998
10
-245.29999999999998
20
517.39999999999998
10
-245.29999999999998
20
511.60000000000002
10
-251.29999999999998
20
511.60000000000002
10
-251.29999999999998
20
502.40000000000003
10
-245.29999999999998
20
502.40000000000003
10
-245.29999999999998
20
496.60000000000002
10
-251.29999999999998
20
496.60000000000002
10
-251.29999999999998
20
492.00000417638586
10
-388.49999999999994
20
491.99999999796972
10
-388.49999999999994
20
496.60000000000002
10
-394.79166666666663
20
496.60000000000002
0
LINE
5
108
100
AcDbEntity
8
0
100
AcDbLine
10
-394.79166666666663
20
502.40000000000003
30
0
11
-394.79166666666663
21
496.60000000000002
31
0
0
LINE
5
109
100
AcDbEntity
8
0
100
AcDbLine
10
-394.79166666666663
20
517.39999999999998
30
0
11
-394.79166666666663
21
511.60000000000002
31
0
0
LWPOLYLINE
5
110
100
AcDbEntity
8
0
100
AcDbPolyline
90
20
70
1
43
0.0
10
-376.22222222222217
20
447.40000000000003
10
-382.22222222222223
20
447.40000000000003
10
-382.22222222222223
20
441.60000000000002
10
-376.22222222222217
20
441.60000000000002
10
-376.22222222222217
20
432.40000000000003
10
-382.5
20
432.40000000000003
10
-382.5
20
426.60000000000002
10
-376
20
426.60000000000002
10
-376
20
422.00000075934292
10
-263.80000000000001
20
422.00000417638586
10
-263.80000000000001
20
426.60000000000002
10
-257.80000000000001
20
426.60000000000002
10
-257.80000000000001
20
432.40000000000003
10
-263.80000000000001
20
432.40000000000003
10
-263.80000000000001
20
441.60000000000002
10
-257.80000000000001
20
441.60000000000002
10
-257.80000000000001
20
447.40000000000003
10
-263.80000000000001
20
447.40000000000003
10
-263.80000000000001
20
451.99999999999994
10
-376.22222222222217
20
451.99999999999994
0
LINE
5
111
100
AcDbEntity
8
0
100
AcDbLine
10
-369.95833333333337
20
410
30
0
11
-363.95833333333337
21
410
31
0
0
LINE
5
112
100
AcDbEntity
8
0
100
AcDbLine
10
-363.95833333333337
20
390
30
0
11
-369.95833333333337
21
390
31
0
0
LINE
5
113
100
AcDbEntity
8
0
100
AcDbLine
10
-363.95833333333337
20
410
30
0
11
-363.95833333333337
21
405
31
0
0
LINE
5
114
100
AcDbEntity
8
0
100
AcDbLine
10
-269.95833333333331
20
410
30
0
11
-275.95833333333331
21
410
31
0
0
LINE
5
115
100
AcDbEntity
8
0
100
AcDbLine
10
-363.95833333333337
20
405
30
0
11
-369.95833333333337
21
405
31
0
0
LINE
5
116
100
AcDbEntity
8
0
100
AcDbLine
10
-369.95833333333337
20
395
30
0
11
-363.95833333333337
21
395
31
0
0
LINE
5
117
100
AcDbEntity
8
0
100
AcDbLine
10
-363.95833333333337
20
395
30
0
11
-363.95833333333337
21
390
31
0
0
LINE
5
118
100
AcDbEntity
8
0
100
AcDbLine
10
-369.95833333333337
20
385
30
0
11
-369.95833333333337
21
390
31
0
0
LINE
5
119
100
AcDbEntity
8
0
100
AcDbLine
10
-369.95833333333337
20
395
30
0
11
-369.95833333333337
21
405
31
0
0
LINE
5
120
100
AcDbEntity
8
0
100
AcDbLine
10
-275.95833333333331
20
405
30
0
11
-270
21
405
31
0
0
LINE
5
121
100
AcDbEntity
8
0
100
AcDbLine
10
-275.95833333333331
20
410
30
0
11
-275.95833333333331
21
405
31
0
0
LINE
5
122
100
AcDbEntity
8
0
100
AcDbLine
10
-276.21428571428572
20
395
30
0
11
-276.21428571428572
21
390
31
0
0
LINE
5
123
100
AcDbEntity
8
0
100
AcDbLine
10
-270.21428571428572
20
405
30
0
11
-270.21428571428572
21
395
31
0
0
LINE
5
124
100
AcDbEntity
8
0
100
AcDbLine
10
-269.95833333333331
20
415
30
0
11
-269.95833333333331
21
410
31
0
0
LINE
5
125
100
AcDbEntity
8
0
100
AcDbLine
10
-369.95833333333337
20
410
30
0
11
-369.95833333333337
21
415
31
0
0
LINE
5
126
100
AcDbEntity
8
0
100
AcDbLine
10
-270
20
390
30
0
11
-270
21
385
31
0
0
LINE
5
127
100
AcDbEntity
8
0
100
AcDbLine
10
-270.21428571428572
20
395
30
0
11
-276.21428571428572
21
395
31
0
0
LINE
5
128
100
AcDbEntity
8
0
100
AcDbLine
10
-276.21428571428572
20
390
30
0
11
-270
21
390
31
0
0
LINE
5
129
100
AcDbEntity
8
0
100
AcDbLine
10
-369.95833333333337
20
415
30
0
11
-269.95833333333331
21
415
31
0
0
LINE
5
130
100
AcDbEntity
8
0
100
AcDbLine
10
-270
20
385
30
0
11
-369.95833333333337
21
385
31
0
0
LINE
5
131
100
AcDbEntity
8
0
100
AcDbLine
10
-270.38750000000005
20
356.59999999862953
30
0
11
-270.38750000000005
21
362.39999999862954
31
0
0
LINE
5
132
100
AcDbEntity
8
0
100
AcDbLine
10
-363.38750000000016
20
381.99999999999994
30
0
11
-363.38750000000016
21
377.40000000000003
31
0
0
LINE
5
133
100
AcDbEntity
8
0
100
AcDbLine
10
-270.38749999999999
20
356.99999999999994
30
0
11
-270.38750000000005
21
356.59999999862953
31
0
0
LINE
5
134
100
AcDbEntity
8
0
100
AcDbLine
10
-363.38750000000016
20
371.60000000000002
30
0
11
-363.38750000000016
21
362.40000000000003
31
0
0
LINE
5
135
100
AcDbEntity
8
0
100
AcDbLine
10
-276.3875000000001
20
381.99999999999994
30
0
11
-363.38750000000016
21
381.99999999999994
31
0
0
LINE
5
136
100
AcDbEntity
8
0
100
AcDbLine
10
-363.38750000000016
20
352.00000127123951
30
0
11
-276.38749985990751
21
352.00000392081813
31
0
0
LINE
5
137
100
AcDbEntity
8
0
100
AcDbLine
10
-369.38750000000022
20
362.40000000000003
30
0
11
-369.38750000000022
21
356.60000000000002
31
0
0
LINE
5
138
100
AcDbEntity
8
0
100
AcDbLine
10
-276.38750000000005
20
356.59999999862953
30
0
11
-276.38749985990751
21
352.00000392081813
31
0
0
LINE
5
139
100
AcDbEntity
8
0
100
AcDbLine
10
-363.38750000000016
20
356.60000000000002
30
0
11
-363.38750000000016
21
352.00000127123951
31
0
0
LINE
5
140
100
AcDbEntity
8
0
100
AcDbLine
10
-369.38750000000022
20
362.40000000000003
30
0
11
-369.38750000000022
21
356.60000000000002
31
0
0
LINE
5
141
100
AcDbEntity
8
0
100
AcDbLine
10
-270.38749999999999
20
377.40000000000003
30
0
11
-270.38749999999999
21
376.99999999999994
31
0
0
LINE
5
142
100
AcDbEntity
8
0
100
AcDbLine
10
-276.38750000000005
20
356.59999999862953
30
0
11
-270.38750000000005
21
356.59999999862953
31
0
0
LINE
5
143
100
AcDbEntity
8
0
100
AcDbLine
10
-270.38749999999999
20
356.99999999999994
30
0
11
-270.38749999999999
21
361.99999999999994
31
0
0
LINE
5
144
100
AcDbEntity
8
0
100
AcDbLine
10
-270.38749999999999
20
376.99999999999994
30
0
11
-270.38749999999999
21
371.99999999999994
31
0
0
LINE
5
145
100
AcDbEntity
8
0
100
AcDbLine
10
-369.38750000000022
20
356.60000000000002
30
0
11
-363.38750000000016
21
356.60000000000002
31
0
0
LINE
5
146
100
AcDbEntity
8
0
100
AcDbLine
10
-270.38749999999999
20
371.60000000000002
30
0
11
-270.38749999999999
21
377.40000000000003
31
0
0
LINE
5
147
100
AcDbEntity
8
0
100
AcDbLine
10
-270.38749999999999
20
371.60000000000002
30
0
11
-270.38749999999999
21
377.40000000000003
31
0
0
LINE
5
148
100
AcDbEntity
8
0
100
AcDbLine
10
-270.38749999999999
20
377.40000000000003
30
0
11
-276.3875000000001
21
377.40000000000003
31
0
0
LINE
5
149
100
AcDbEntity
8
0
100
AcDbLine
10
-276.3875000000001
20
377.40000000000003
30
0
11
-276.3875000000001
21
381.99999999999994
31
0
0
LINE
5
150
100
AcDbEntity
8
0
100
AcDbLine
10
-270.38749999999999
20
371.99999999999994
30
0
11
-270.38749999999999
21
371.60000000000002
31
0
0
LINE
5
151
100
AcDbEntity
8
0
100
AcDbLine
10
-363.38750000000016
20
362.40000000000003
30
0
11
-369.38750000000022
21
362.40000000000003
31
0
0
LINE
5
152
100
AcDbEntity
8
0
100
AcDbLine
10
-369.38750000000022
20
377.40000000000003
30
0
11
-369.38750000000022
21
371.60000000000002
31
0
0
LINE
5
153
100
AcDbEntity
8
0
100
AcDbLine
10
-276.38750000000005
20
362.39999999862954
30
0
11
-276.3875000000001
21
371.60000000000002
31
0
0
LINE
5
154
100
AcDbEntity
8
0
100
AcDbLine
10
-369.38750000000022
20
371.60000000000002
30
0
11
-369.38750000000022
21
377.40000000000003
31
0
0
LINE
5
155
100
AcDbEntity
8
0
100
AcDbLine
10
-276.3875000000001
20
371.60000000000002
30
0
11
-270.38749999999999
21
371.60000000000002
31
0
0
LINE
5
156
100
AcDbEntity
8
0
100
AcDbLine
10
-270.38750000000005
20
362.39999999862954
30
0
11
-270.38749999999999
21
361.99999999999994
31
0
0
LINE
5
157
100
AcDbEntity
8
0
100
AcDbLine
10
-270.38750000000005
20
362.39999999862954
30
0
11
-276.38750000000005
21
362.39999999862954
31
0
0
LINE
5
158
100
AcDbEntity
8
0
100
AcDbLine
10
-270.38750000000005
20
356.59999999862953
30
0
11
-270.38750000000005
21
362.39999999862954
31
0
0
LINE
5
159
100
AcDbEntity
8
0
100
AcDbLine
10
-369.38750000000022
20
377.40000000000003
30
0
11
-363.38750000000016
21
377.40000000000003
31
0
0
LINE
5
160
100
AcDbEntity
8
0
100
AcDbLine
10
-363.38750000000016
20
371.60000000000002
30
0
11
-369.38750000000022
21
371.60000000000002
31
0
0
LWPOLYLINE
5
161
100
AcDbEntity
8
0
100
AcDbPolyline
90
5
70
1
43
0.0
10
-288.5
20
405
10
-288.49999999999989
20
400
10
-288.5
20
395
10
-294.5
20
395
10
-294.5
20
405
0
LWPOLYLINE
5
162
100
AcDbEntity
8
0
100
AcDbPolyline
90
4
70
1
43
0.0
10
-294.46428571428567
20
371.99999999999994
10
-288.46428571428567
20
371.99999999999994
10
-288.46428571428567
20
361.99999999999994
10
-294.46428571428567
20
361.99999999999994
0
LWPOLYLINE
5
163
100
AcDbEntity
8
0
100
AcDbPolyline
90
16
70
1
43
0.0
10
-407.38934644107127
20
364.99992856009362
10
-407.38934644107132
20
409.99994010038381
10
-407.38934682787442
20
414.99994010038381
10
-378.25000000007776
20
414.99994954700765
10
-378.25000000007776
20
410.40004820211993
10
-371.75011205005012
20
410.40004820211993
10
-371.74994812708076
20
399.60004820336394
10
-378.24995419830191
20
399.60004820336394
10
-378.24995419830191
20
390
10
-390.75
20
390
10
-390.75
20
380.39993125800487
10
-384.24999655587783
20
380.39993125800487
10
-384.24999657189539
20
374.99993125800472
10
-384.24999570269335
20
369.5999312580048
10
-390.75006189977535
20
369.59993019245218
10
-390.75006114569976
20
364.99993125800427
0
LWPOLYLINE
5
164
100
AcDbEntity
8
0
100
AcDbPolyline
90
4
70
1
43
0.0
10
-351.46428571428578
20
475
10
-345.46428571428578
20
475
10
-345.46428571428578
20
465
10
-351.46428571428578
20
465
0
LWPOLYLINE
5
165
100
AcDbEntity
8
0
100
AcDbPolyline
90
4
70
1
43
0.0
10
-294.46428571428567
20
475
10
-288.46428571428567
20
475
10
-288.46428571428567
20
465
10
-294.46428571428567
20
465
0
LWPOLYLINE
5
166
100
AcDbEntity
8
0
100
AcDbPolyline
90
4
70
1
43
0.0
10
-345.5357142857145
20
442
10
-351.53571428571439
20
442
10
-351.53571428571439
20
432.00000000000011
10
-345.53571428571439
20
432.00000000000011
0
LWPOLYLINE
5
167
100
AcDbEntity
8
0
100
AcDbPolyline
90
4
70
1
43
0.0
10
-294.46428571428561
20
442.00000000000011
10
-288.46428571428561
20
442.00000000000011
10
-288.46428571428561
20
432.00000000000011
10
-294.46428571428561
20
432.00000000000011
0
LWPOLYLINE
5
168
100
AcDbEntity
8
0
100
AcDbPolyline
90
4
70
1
43
0.0
10
-351.46428571428567
20
545
10
-345.46428571428567
20
545
10
-345.46428571428567
20
535
10
-351.46428571428567
20
535
0
LWPOLYLINE
5
169
100
AcDbEntity
8
0
100
AcDbPolyline
90
4
70
1
43
0.0
10
-351.46428571428555
20
512
10
-345.46428571428567
20
512
10
-345.46428571428567
20
502
10
-351.46428571428567
20
502
0
ENDSEC
0
SECTION
2
OBJECTS
0
DICTIONARY
5
C
100
AcDbDictionary
3
ACAD_GROUP
350
D
3
ACAD_MLINESTYLE
350
17
0
DICTIONARY
5
D
100
AcDbDictionary
0
DICTIONARY
5
1A
330
C
100
AcDbDictionary
0
DICTIONARY
5
17
100
AcDbDictionary
0
ENDSEC
0
EOF
