  0
SECTION
  2
HEADER
  9
$ACADVER
  1
AC1014
  9
$HANDSEED
  5
FFFF
  9
$MEASUREMENT
 70
     1
  0
ENDSEC
  0
SECTION
  2
TABLES
  0
TABLE
  2
VPORT
  5
8
330
0
100
AcDbSymbolTable
 70
     4
  0
VPORT
  5
2E
330
8
100
AcDbSymbolTableRecord
100
AcDbViewportTableRecord
  2
*ACTIVE
 70
     0
 10
0.0
 20
0.0
 11
1.0
 21
1.0
 12
210.0
 22
148.5
 13
0.0
 23
0.0
 14
10.0
 24
10.0
 15
10.0
 25
10.0
 16
0.0
 26
0.0
 36
1.0
 17
0.0
 27
0.0
 37
0.0
 40
341.0
 41
1.24
 42
50.0
 43
0.0
 44
0.0
 50
0.0
 51
0.0
 71
     0
 72
   100
 73
     1
 74
     3
 75
     0
 76
     0
 77
     0
 78
     0
  0
ENDTAB
  0
TABLE
  2
LTYPE
  5
5
330
0
100
AcDbSymbolTable
 70
     1
  0
LTYPE
  5
14
330
5
100
AcDbSymbolTableRecord
100
AcDbLinetypeTableRecord
  2
BYBLOCK
 70
     0
  3

 72
    65
 73
     0
 40
0.0
  0
LTYPE
  5
15
330
5
100
AcDbSymbolTableRecord
100
AcDbLinetypeTableRecord
  2
BYLAYER
 70
     0
  3

 72
    65
 73
     0
 40
0.0
  0
LTYPE
  5
16
330
5
100
AcDbSymbolTableRecord
100
AcDbLinetypeTableRecord
  2
CONTINUOUS
 70
     0
  3
Solid line
 72
    65
 73
     0
 40
0.0
  0
ENDTAB
  0
TABLE
  2
LAYER
  5
2
100
AcDbSymbolTable
 70
2
  0
LAYER
  5
50
100
AcDbSymbolTableRecord
100
AcDbLayerTableRecord
  2
0
 70
0
  6
CONTINUOUS
  0
LAYER
  5
51
100
AcDbSymbolTableRecord
100
AcDbLayerTableRecord
  2
Layer_1
 70
0
  6
CONTINUOUS
  0
ENDTAB
  0
TABLE
  2
STYLE
  5
3
330
0
100
AcDbSymbolTable
 70
     1
  0
STYLE
  5
11
330
3
100
AcDbSymbolTableRecord
100
AcDbTextStyleTableRecord
  2
STANDARD
 70
     0
 40
0.0
 41
1.0
 50
0.0
 71
     0
 42
2.5
  3
txt
  4

  0
ENDTAB
  0
TABLE
  2
VIEW
  5
6
330
0
100
AcDbSymbolTable
 70
     0
  0
ENDTAB
  0
TABLE
  2
UCS
  5
7
330
0
100
AcDbSymbolTable
 70
     0
  0
ENDTAB
  0
TABLE
  2
APPID
  5
9
330
0
100
AcDbSymbolTable
 70
     2
  0
APPID
  5
12
330
9
100
AcDbSymbolTableRecord
100
AcDbRegAppTableRecord
  2
ACAD
 70
     0
  0
ENDTAB
  0
TABLE
  2
DIMSTYLE
  5
A
330
0
100
AcDbSymbolTable
 70
     1
  0
DIMSTYLE
105
27
330
A
100
AcDbSymbolTableRecord
100
AcDbDimStyleTableRecord
  2
ISO-25
 70
     0
  3

  4

  5

  6

  7

 40
1.0
 41
2.5
 42
0.625
 43
3.75
 44
1.25
 45
0.0
 46
0.0
 47
0.0
 48
0.0
140
2.5
141
2.5
142
0.0
143
0.03937007874016
144
1.0
145
0.0
146
1.0
147
0.625
 71
     0
 72
     0
 73
     0
 74
     0
 75
     0
 76
     0
 77
     1
 78
     8
170
     0
171
     3
172
     1
173
     0
174
     0
175
     0
176
     0
177
     0
178
     0
270
     2
271
     2
272
     2
273
     2
274
     3
340
11
275
     0
280
     0
281
     0
282
     0
283
     0
284
     8
285
     0
286
     0
287
     3
288
     0
  0
ENDTAB
  0
TABLE
  2
BLOCK_RECORD
  5
1
330
0
100
AcDbSymbolTable
 70
     1
  0
BLOCK_RECORD
  5
1F
330
1
100
AcDbSymbolTableRecord
100
AcDbBlockTableRecord
  2
*MODEL_SPACE
  0
BLOCK_RECORD
  5
1B
330
1
100
AcDbSymbolTableRecord
100
AcDbBlockTableRecord
  2
*PAPER_SPACE
  0
ENDTAB
  0
ENDSEC
  0
SECTION
  2
BLOCKS
  0
BLOCK
  5
20
330
1F
100
AcDbEntity
  8
0
100
AcDbBlockBegin
  2
*MODEL_SPACE
 70
     0
 10
0.0
 20
0.0
 30
0.0
  3
*MODEL_SPACE
  1

  0
ENDBLK
  5
21
330
1F
100
AcDbEntity
  8
0
100
AcDbBlockEnd
  0
BLOCK
  5
1C
330
1B
100
AcDbEntity
 67
     1
  8
0
100
AcDbBlockBegin
  2
*PAPER_SPACE
  1

  0
ENDBLK
  5
1D
330
1B
100
AcDbEntity
 67
     1
  8
0
100
AcDbBlockEnd
  0
ENDSEC
  0
SECTION
  2
ENTITIES
  0
SPLINE
  5
100
100
AcDbEntity
  8
Layer_1
 62
7
100
AcDbSpline
 70
8
 71
3
 72
8
 73
4
 74
0
 40
0
 40
0
 40
0
 40
0
 40
1
 40
1
 40
1
 40
1
 10
163.603375
 20
215.028028
 30
0.0
 10
163.603375
 20
215.028028
 30
0.0
 10
162.848991
 20
215.612504
 30
0.0
 10
162.848991
 20
215.612504
 30
0.0
  0
SPLINE
  5
101
100
AcDbEntity
  8
Layer_1
 62
7
100
AcDbSpline
 70
8
 71
3
 72
8
 73
4
 74
0
 40
0
 40
0
 40
0
 40
0
 40
1
 40
1
 40
1
 40
1
 10
162.848991
 20
215.612504
 30
0.0
 10
162.937867
 20
226.471460
 30
0.0
 10
156.874359
 20
237.851141
 30
0.0
 10
146.851413
 20
245.635937
 30
0.0
  0
SPLINE
  5
102
100
AcDbEntity
  8
Layer_1
 62
7
100
AcDbSpline
 70
8
 71
3
 72
8
 73
4
 74
0
 40
0
 40
0
 40
0
 40
0
 40
1
 40
1
 40
1
 40
1
 10
146.851413
 20
245.635937
 30
0.0
 10
137.539298
 20
252.833588
 30
0.0
 10
126.032288
 20
255.995675
 30
0.0
 10
115.971038
 20
254.121761
 30
0.0
  0
LWPOLYLINE
  5
103
100
AcDbEntity
  8
Layer_1
 62
7
100
AcDbPolyline
 90
2
 70
0
 10
224.158550
 20
260.256529
 30
0.0
 10
163.603375
 20
215.028028
 30
0.0
  0
SPLINE
  5
104
100
AcDbEntity
  8
Layer_1
 62
7
100
AcDbSpline
 70
8
 71
3
 72
8
 73
4
 74
0
 40
0
 40
0
 40
0
 40
0
 40
1
 40
1
 40
1
 40
1
 10
112.187353
 20
214.031934
 30
0.0
 10
112.187353
 20
214.031934
 30
0.0
 10
95.460307
 20
227.612494
 30
0.0
 10
95.460307
 20
227.612494
 30
0.0
  0
SPLINE
  5
105
100
AcDbEntity
  8
Layer_1
 62
7
100
AcDbSpline
 70
8
 71
3
 72
8
 73
4
 74
0
 40
0
 40
0
 40
0
 40
0
 40
1
 40
1
 40
1
 40
1
 10
95.460307
 20
227.612494
 30
0.0
 10
96.179447
 20
217.416114
 30
0.0
 10
102.116112
 20
207.086959
 30
0.0
 10
111.397791
 20
199.882998
 30
0.0
  0
SPLINE
  5
106
100
AcDbEntity
  8
Layer_1
 62
7
100
AcDbSpline
 70
8
 71
3
 72
8
 73
4
 74
0
 40
0
 40
0
 40
0
 40
0
 40
1
 40
1
 40
1
 40
1
 10
111.397791
 20
199.882998
 30
0.0
 10
117.485428
 20
195.187929
 30
0.0
 10
124.599076
 20
192.151387
 30
0.0
 10
131.716644
 20
191.209663
 30
0.0
  0
LWPOLYLINE
  5
107
100
AcDbEntity
  8
Layer_1
 62
7
100
AcDbPolyline
 90
4
 70
0
 10
115.971038
 20
254.121761
 30
0.0
 10
133.405611
 20
239.968460
 30
0.0
 10
132.207378
 20
219.361039
 30
0.0
 10
112.187353
 20
214.031934
 30
0.0
  0
SPLINE
  5
108
100
AcDbEntity
  8
Layer_1
 62
7
100
AcDbSpline
 70
8
 71
3
 72
8
 73
4
 74
0
 40
0
 40
0
 40
0
 40
0
 40
1
 40
1
 40
1
 40
1
 10
108.577970
 20
173.927452
 30
0.0
 10
108.577970
 20
173.927452
 30
0.0
 10
127.979844
 20
113.247751
 30
0.0
 10
127.979844
 20
113.247751
 30
0.0
  0
SPLINE
  5
109
100
AcDbEntity
  8
Layer_1
 62
7
100
AcDbSpline
 70
8
 71
3
 72
8
 73
4
 74
0
 40
0
 40
0
 40
0
 40
0
 40
1
 40
1
 40
1
 40
1
 10
127.979844
 20
113.247751
 30
0.0
 10
121.130826
 20
112.639471
 30
0.0
 10
114.206280
 20
110.144942
 30
0.0
 10
108.112153
 20
106.090526
 30
0.0
  0
SPLINE
  5
10a
100
AcDbEntity
  8
Layer_1
 62
7
100
AcDbSpline
 70
8
 71
3
 72
8
 73
4
 74
0
 40
0
 40
0
 40
0
 40
0
 40
1
 40
1
 40
1
 40
1
 10
108.112153
 20
106.090526
 30
0.0
 10
98.349782
 20
99.547278
 30
0.0
 10
91.709962
 20
89.653016
 30
0.0
 10
90.287957
 20
79.529981
 30
0.0
  0
LWPOLYLINE
  5
10b
100
AcDbEntity
  8
Layer_1
 62
7
100
AcDbPolyline
 90
2
 70
0
 10
131.716644
 20
191.209663
 30
0.0
 10
108.577970
 20
173.927452
 30
0.0
  0
SPLINE
  5
10c
100
AcDbEntity
  8
Layer_1
 62
7
100
AcDbSpline
 70
8
 71
3
 72
8
 73
4
 74
0
 40
0
 40
0
 40
0
 40
0
 40
1
 40
1
 40
1
 40
1
 10
126.185400
 20
62.650602
 30
0.0
 10
126.185400
 20
62.650602
 30
0.0
 10
108.885586
 20
51.646677
 30
0.0
 10
108.885586
 20
51.646677
 30
0.0
  0
SPLINE
  5
10d
100
AcDbEntity
  8
Layer_1
 62
7
100
AcDbSpline
 70
8
 71
3
 72
8
 73
4
 74
0
 40
0
 40
0
 40
0
 40
0
 40
1
 40
1
 40
1
 40
1
 10
108.885586
 20
51.646677
 30
0.0
 10
118.793260
 20
49.081790
 30
0.0
 10
130.490874
 20
51.438132
 30
0.0
 10
140.278663
 20
57.970431
 30
0.0
  0
SPLINE
  5
10e
100
AcDbEntity
  8
Layer_1
 62
7
100
AcDbSpline
 70
8
 71
3
 72
8
 73
4
 74
0
 40
0
 40
0
 40
0
 40
0
 40
1
 40
1
 40
1
 40
1
 10
140.278663
 20
57.970431
 30
0.0
 10
141.783860
 20
58.993204
 30
0.0
 10
143.225408
 20
60.104230
 30
0.0
 10
144.591151
 20
61.294139
 30
0.0
  0
LWPOLYLINE
  5
10f
100
AcDbEntity
  8
Layer_1
 62
7
100
AcDbPolyline
 90
4
 70
0
 10
90.287957
 20
79.529981
 30
0.0
 10
108.305504
 20
90.992381
 30
0.0
 10
127.473009
 20
83.328321
 30
0.0
 10
126.185400
 20
62.650602
 30
0.0
  0
SPLINE
  5
110
100
AcDbEntity
  8
Layer_1
 62
7
100
AcDbSpline
 70
8
 71
3
 72
8
 73
4
 74
0
 40
0
 40
0
 40
0
 40
0
 40
1
 40
1
 40
1
 40
1
 10
296.164432
 20
35.054391
 30
0.0
 10
296.164432
 20
35.054391
 30
0.0
 10
301.650265
 20
52.459682
 30
0.0
 10
301.650265
 20
52.459682
 30
0.0
  0
SPLINE
  5
111
100
AcDbEntity
  8
Layer_1
 62
7
100
AcDbSpline
 70
8
 71
3
 72
8
 73
4
 74
0
 40
0
 40
0
 40
0
 40
0
 40
1
 40
1
 40
1
 40
1
 10
301.650265
 20
52.459682
 30
0.0
 10
301.713156
 20
52.409721
 30
0.0
 10
301.776180
 20
52.359926
 30
0.0
 10
301.839335
 20
52.310296
 30
0.0
  0
SPLINE
  5
112
100
AcDbEntity
  8
Layer_1
 62
7
100
AcDbSpline
 70
8
 71
3
 72
8
 73
4
 74
0
 40
0
 40
0
 40
0
 40
0
 40
1
 40
1
 40
1
 40
1
 10
301.839335
 20
52.310296
 30
0.0
 10
311.138103
 20
45.123077
 30
0.0
 10
322.626343
 20
41.959214
 30
0.0
 10
332.678693
 20
43.817131
 30
0.0
  0
LWPOLYLINE
  5
113
100
AcDbEntity
  8
Layer_1
 62
7
100
AcDbPolyline
 90
3
 70
0
 10
144.591151
 20
61.294139
 30
0.0
 10
153.079923
 20
34.745329
 30
0.0
 10
296.164432
 20
35.054391
 30
0.0
  0
SPLINE
  5
114
100
AcDbEntity
  8
Layer_1
 62
7
100
AcDbSpline
 70
8
 71
3
 72
8
 73
4
 74
0
 40
0
 40
0
 40
0
 40
0
 40
1
 40
1
 40
1
 40
1
 10
337.316400
 20
83.212639
 30
0.0
 10
337.316400
 20
83.212639
 30
0.0
 10
353.234835
 20
70.289773
 30
0.0
 10
353.234835
 20
70.289773
 30
0.0
  0
SPLINE
  5
115
100
AcDbEntity
  8
Layer_1
 62
7
100
AcDbSpline
 70
8
 71
3
 72
8
 73
4
 74
0
 40
0
 40
0
 40
0
 40
0
 40
1
 40
1
 40
1
 40
1
 10
353.234835
 20
70.289773
 30
0.0
 10
352.529401
 20
80.499670
 30
0.0
 10
346.589179
 20
90.848537
 30
0.0
 10
337.292957
 20
98.063206
 30
0.0
  0
SPLINE
  5
116
100
AcDbEntity
  8
Layer_1
 62
7
100
AcDbSpline
 70
8
 71
3
 72
8
 73
4
 74
0
 40
0
 40
0
 40
0
 40
0
 40
1
 40
1
 40
1
 40
1
 10
337.292957
 20
98.063206
 30
0.0
 10
331.700138
 20
102.376399
 30
0.0
 10
325.230093
 20
105.298128
 30
0.0
 10
318.673332
 20
106.471417
 30
0.0
  0
LWPOLYLINE
  5
117
100
AcDbEntity
  8
Layer_1
 62
7
100
AcDbPolyline
 90
4
 70
0
 10
332.678693
 20
43.817131
 30
0.0
 10
316.098142
 20
57.276113
 30
0.0
 10
317.296375
 20
77.883534
 30
0.0
 10
337.316400
 20
83.212639
 30
0.0
  0
SPLINE
  5
118
100
AcDbEntity
  8
Layer_1
 62
7
100
AcDbSpline
 70
8
 71
3
 72
8
 73
4
 74
0
 40
0
 40
0
 40
0
 40
0
 40
1
 40
1
 40
1
 40
1
 10
340.092283
 20
174.426973
 30
0.0
 10
340.092283
 20
174.426973
 30
0.0
 10
325.269524
 20
185.400113
 30
0.0
 10
325.269524
 20
185.400113
 30
0.0
  0
SPLINE
  5
119
100
AcDbEntity
  8
Layer_1
 62
7
100
AcDbSpline
 70
8
 71
3
 72
8
 73
4
 74
0
 40
0
 40
0
 40
0
 40
0
 40
1
 40
1
 40
1
 40
1
 10
325.269524
 20
185.400113
 30
0.0
 10
330.609579
 20
186.510484
 30
0.0
 10
335.851799
 20
188.722258
 30
0.0
 10
340.577121
 20
191.858627
 30
0.0
  0
SPLINE
  5
11a
100
AcDbEntity
  8
Layer_1
 62
7
100
AcDbSpline
 70
8
 71
3
 72
8
 73
4
 74
0
 40
0
 40
0
 40
0
 40
0
 40
1
 40
1
 40
1
 40
1
 10
340.577121
 20
191.858627
 30
0.0
 10
350.353942
 20
198.411577
 30
0.0
 10
356.998030
 20
208.324758
 30
0.0
 10
358.407213
 20
218.461663
 30
0.0
  0
LWPOLYLINE
  5
11b
100
AcDbEntity
  8
Layer_1
 62
7
100
AcDbPolyline
 90
2
 70
0
 10
318.673332
 20
106.471417
 30
0.0
 10
340.092283
 20
174.426973
 30
0.0
  0
SPLINE
  5
11c
100
AcDbEntity
  8
Layer_1
 62
7
100
AcDbSpline
 70
8
 71
3
 72
8
 73
4
 74
0
 40
0
 40
0
 40
0
 40
0
 40
1
 40
1
 40
1
 40
1
 10
321.581055
 20
234.749254
 30
0.0
 10
321.581055
 20
234.749254
 30
0.0
 10
339.761225
 20
246.312709
 30
0.0
 10
339.761225
 20
246.312709
 30
0.0
  0
SPLINE
  5
11d
100
AcDbEntity
  8
Layer_1
 62
7
100
AcDbSpline
 70
8
 71
3
 72
8
 73
4
 74
0
 40
0
 40
0
 40
0
 40
0
 40
1
 40
1
 40
1
 40
1
 10
339.761225
 20
246.312709
 30
0.0
 10
329.861811
 20
248.860342
 30
0.0
 10
318.183756
 20
246.500950
 30
0.0
 10
308.410639
 20
239.978750
 30
0.0
  0
SPLINE
  5
11e
100
AcDbEntity
  8
Layer_1
 62
7
100
AcDbSpline
 70
8
 71
3
 72
8
 73
4
 74
0
 40
0
 40
0
 40
0
 40
0
 40
1
 40
1
 40
1
 40
1
 10
308.410639
 20
239.978750
 30
0.0
 10
297.901448
 20
232.939568
 30
0.0
 10
291.062240
 20
222.059960
 30
0.0
 10
290.352047
 20
211.251685
 30
0.0
  0
LWPOLYLINE
  5
11f
100
AcDbEntity
  8
Layer_1
 62
7
100
AcDbPolyline
 90
4
 70
0
 10
358.407213
 20
218.461663
 30
0.0
 10
339.460923
 20
206.407446
 30
0.0
 10
320.294920
 20
214.071506
 30
0.0
 10
321.581055
 20
234.749254
 30
0.0
  0
LWPOLYLINE
  5
120
100
AcDbEntity
  8
Layer_1
 62
7
100
AcDbPolyline
 90
2
 70
0
 10
290.352047
 20
211.251685
 30
0.0
 10
224.158550
 20
260.256529
 30
0.0
  0
SPLINE
  5
121
100
AcDbEntity
  8
Layer_1
 62
7
100
AcDbSpline
 70
8
 71
3
 72
8
 73
4
 74
0
 40
0
 40
0
 40
0
 40
0
 40
1
 40
1
 40
1
 40
1
 10
272.579893
 20
617.924177
 30
0.0
 10
271.980886
 20
623.825836
 30
0.0
 10
270.045826
 20
629.754573
 30
0.0
 10
266.959281
 20
635.144905
 30
0.0
  0
SPLINE
  5
122
100
AcDbEntity
  8
Layer_1
 62
7
100
AcDbSpline
 70
8
 71
3
 72
8
 73
4
 74
0
 40
0
 40
0
 40
0
 40
0
 40
1
 40
1
 40
1
 40
1
 10
266.959281
 20
635.144905
 30
0.0
 10
261.087586
 20
645.325990
 30
0.0
 10
251.661967
 20
652.616886
 30
0.0
 10
241.657036
 20
654.716673
 30
0.0
  0
LWPOLYLINE
  5
123
100
AcDbEntity
  8
Layer_1
 62
7
100
AcDbPolyline
 90
2
 70
0
 10
288.047169
 20
704.795281
 30
0.0
 10
272.579893
 20
617.924177
 30
0.0
  0
SPLINE
  5
124
100
AcDbEntity
  8
Layer_1
 62
7
100
AcDbSpline
 70
8
 71
3
 72
8
 73
4
 74
0
 40
0
 40
0
 40
0
 40
0
 40
1
 40
1
 40
1
 40
1
 10
222.401662
 20
620.035053
 30
0.0
 10
222.401662
 20
620.035053
 30
0.0
 10
212.585746
 20
638.036484
 30
0.0
 10
212.585746
 20
638.036484
 30
0.0
  0
SPLINE
  5
125
100
AcDbEntity
  8
Layer_1
 62
7
100
AcDbSpline
 70
8
 71
3
 72
8
 73
4
 74
0
 40
0
 40
0
 40
0
 40
0
 40
1
 40
1
 40
1
 40
1
 10
212.585746
 20
638.036484
 30
0.0
 10
210.426042
 20
631.484556
 30
0.0
 10
210.415769
 20
623.880131
 30
0.0
 10
212.556492
 20
616.381705
 30
0.0
  0
LWPOLYLINE
  5
126
100
AcDbEntity
  8
Layer_1
 62
7
100
AcDbPolyline
 90
4
 70
0
 10
241.657036
 20
654.716673
 30
0.0
 10
251.881651
 20
635.968142
 30
0.0
 10
242.946096
 20
617.360224
 30
0.0
 10
222.401662
 20
620.035053
 30
0.0
  0
SPLINE
  5
127
100
AcDbEntity
  8
Layer_1
 62
7
100
AcDbSpline
 70
8
 71
3
 72
8
 73
4
 74
0
 40
0
 40
0
 40
0
 40
0
 40
1
 40
1
 40
1
 40
1
 10
161.855271
 20
659.241561
 30
0.0
 10
161.855271
 20
659.241561
 30
0.0
 10
204.797166
 20
584.577009
 30
0.0
 10
204.797166
 20
584.577009
 30
0.0
  0
SPLINE
  5
128
100
AcDbEntity
  8
Layer_1
 62
7
100
AcDbSpline
 70
8
 71
3
 72
8
 73
4
 74
0
 40
0
 40
0
 40
0
 40
0
 40
1
 40
1
 40
1
 40
1
 10
204.797166
 20
584.577009
 30
0.0
 10
200.803376
 20
588.167123
 30
0.0
 10
196.009347
 20
591.050556
 30
0.0
 10
190.785951
 20
593.004240
 30
0.0
  0
SPLINE
  5
129
100
AcDbEntity
  8
Layer_1
 62
7
100
AcDbSpline
 70
8
 71
3
 72
8
 73
4
 74
0
 40
0
 40
0
 40
0
 40
0
 40
1
 40
1
 40
1
 40
1
 10
190.785951
 20
593.004240
 30
0.0
 10
179.761431
 20
597.076255
 30
0.0
 10
167.853031
 20
596.653904
 30
0.0
 10
158.818657
 20
591.870467
 30
0.0
  0
LWPOLYLINE
  5
12a
100
AcDbEntity
  8
Layer_1
 62
7
100
AcDbPolyline
 90
2
 70
0
 10
212.556492
 20
616.381705
 30
0.0
 10
161.855271
 20
659.241561
 30
0.0
  0
SPLINE
  5
12b
100
AcDbEntity
  8
Layer_1
 62
7
100
AcDbSpline
 70
8
 71
3
 72
8
 73
4
 74
0
 40
0
 40
0
 40
0
 40
0
 40
1
 40
1
 40
1
 40
1
 10
166.194150
 20
552.893896
 30
0.0
 10
166.194150
 20
552.893896
 30
0.0
 10
147.136516
 20
560.456895
 30
0.0
 10
147.136516
 20
560.456895
 30
0.0
  0
SPLINE
  5
12c
100
AcDbEntity
  8
Layer_1
 62
7
100
AcDbSpline
 70
8
 71
3
 72
8
 73
4
 74
0
 40
0
 40
0
 40
0
 40
0
 40
1
 40
1
 40
1
 40
1
 10
147.136516
 20
560.456895
 30
0.0
 10
149.815323
 20
553.631460
 30
0.0
 10
155.118718
 20
547.455046
 30
0.0
 10
162.139445
 20
542.984258
 30
0.0
  0
LWPOLYLINE
  5
12d
100
AcDbEntity
  8
Layer_1
 62
7
100
AcDbPolyline
 90
4
 70
0
 10
158.818657
 20
591.870467
 30
0.0
 10
178.668743
 20
583.995481
 30
0.0
 10
183.699023
 20
563.975456
 30
0.0
 10
166.194150
 20
552.893896
 30
0.0
  0
SPLINE
  5
12e
100
AcDbEntity
  8
Layer_1
 62
7
100
AcDbSpline
 70
8
 71
3
 72
8
 73
4
 74
0
 40
0
 40
0
 40
0
 40
0
 40
1
 40
1
 40
1
 40
1
 10
94.468062
 20
543.231723
 30
0.0
 10
94.468062
 20
543.231723
 30
0.0
 10
172.347968
 20
514.737581
 30
0.0
 10
172.347968
 20
514.737581
 30
0.0
  0
SPLINE
  5
12f
100
AcDbEntity
  8
Layer_1
 62
7
100
AcDbSpline
 70
8
 71
3
 72
8
 73
4
 74
0
 40
0
 40
0
 40
0
 40
0
 40
1
 40
1
 40
1
 40
1
 10
172.347968
 20
514.737581
 30
0.0
 10
167.907896
 20
514.581342
 30
0.0
 10
163.421215
 20
513.722666
 30
0.0
 10
159.121879
 20
512.206328
 30
0.0
  0
SPLINE
  5
130
100
AcDbEntity
  8
Layer_1
 62
7
100
AcDbSpline
 70
8
 71
3
 72
8
 73
4
 74
0
 40
0
 40
0
 40
0
 40
0
 40
1
 40
1
 40
1
 40
1
 10
159.121879
 20
512.206328
 30
0.0
 10
148.057102
 20
508.244483
 30
0.0
 10
139.202302
 20
500.270428
 30
0.0
 10
135.351845
 20
490.800586
 30
0.0
  0
LWPOLYLINE
  5
131
100
AcDbEntity
  8
Layer_1
 62
7
100
AcDbPolyline
 90
2
 70
0
 10
162.139445
 20
542.984258
 30
0.0
 10
94.468062
 20
543.231723
 30
0.0
  0
SPLINE
  5
132
100
AcDbEntity
  8
Layer_1
 62
7
100
AcDbSpline
 70
8
 71
3
 72
8
 73
4
 74
0
 40
0
 40
0
 40
0
 40
0
 40
1
 40
1
 40
1
 40
1
 10
166.043262
 20
465.669723
 30
0.0
 10
166.043262
 20
465.669723
 30
0.0
 10
146.579905
 20
459.221471
 30
0.0
 10
146.579905
 20
459.221471
 30
0.0
  0
SPLINE
  5
133
100
AcDbEntity
  8
Layer_1
 62
7
100
AcDbSpline
 70
8
 71
3
 72
8
 73
4
 74
0
 40
0
 40
0
 40
0
 40
0
 40
1
 40
1
 40
1
 40
1
 10
146.579905
 20
459.221471
 30
0.0
 10
153.505705
 20
455.455089
 30
0.0
 10
162.252257
 20
454.222227
 30
0.0
 10
171.105772
 20
455.764450
 30
0.0
  0
LWPOLYLINE
  5
134
100
AcDbEntity
  8
Layer_1
 62
7
100
AcDbPolyline
 90
4
 70
0
 10
135.351845
 20
490.800586
 30
0.0
 10
155.623842
 20
497.518328
 30
0.0
 10
172.340626
 20
485.407020
 30
0.0
 10
166.043262
 20
465.669723
 30
0.0
  0
SPLINE
  5
135
100
AcDbEntity
  8
Layer_1
 62
7
100
AcDbSpline
 70
8
 71
3
 72
8
 73
4
 74
0
 40
0
 40
0
 40
0
 40
0
 40
1
 40
1
 40
1
 40
1
 10
117.416305
 20
411.047263
 30
0.0
 10
117.416305
 20
411.047263
 30
0.0
 10
196.194141
 20
439.570658
 30
0.0
 10
196.194141
 20
439.570658
 30
0.0
  0
SPLINE
  5
136
100
AcDbEntity
  8
Layer_1
 62
7
100
AcDbSpline
 70
8
 71
3
 72
8
 73
4
 74
0
 40
0
 40
0
 40
0
 40
0
 40
1
 40
1
 40
1
 40
1
 10
196.194141
 20
439.570658
 30
0.0
 10
192.602555
 20
436.540994
 30
0.0
 10
189.456691
 20
432.853306
 30
0.0
 10
186.940723
 20
428.723490
 30
0.0
  0
SPLINE
  5
137
100
AcDbEntity
  8
Layer_1
 62
7
100
AcDbSpline
 70
8
 71
3
 72
8
 73
4
 74
0
 40
0
 40
0
 40
0
 40
0
 40
1
 40
1
 40
1
 40
1
 10
186.940723
 20
428.723490
 30
0.0
 10
180.867492
 20
418.661752
 30
0.0
 10
179.042194
 20
406.886496
 30
0.0
 10
182.040840
 20
397.113647
 30
0.0
  0
LWPOLYLINE
  5
138
100
AcDbEntity
  8
Layer_1
 62
7
100
AcDbPolyline
 90
2
 70
0
 10
171.105772
 20
455.764450
 30
0.0
 10
117.416305
 20
411.047263
 30
0.0
  0
SPLINE
  5
139
100
AcDbEntity
  8
Layer_1
 62
7
100
AcDbSpline
 70
8
 71
3
 72
8
 73
4
 74
0
 40
0
 40
0
 40
0
 40
0
 40
1
 40
1
 40
1
 40
1
 10
221.707327
 20
397.024299
 30
0.0
 10
221.707327
 20
397.024299
 30
0.0
 10
210.694626
 20
379.728879
 30
0.0
 10
210.694626
 20
379.728879
 30
0.0
  0
SPLINE
  5
13a
100
AcDbEntity
  8
Layer_1
 62
7
100
AcDbSpline
 70
8
 71
3
 72
8
 73
4
 74
0
 40
0
 40
0
 40
0
 40
0
 40
1
 40
1
 40
1
 40
1
 10
210.694626
 20
379.728879
 30
0.0
 10
218.628820
 20
381.219775
 30
0.0
 10
226.357139
 20
385.974582
 30
0.0
 10
232.296681
 20
393.019427
 30
0.0
  0
LWPOLYLINE
  5
13b
100
AcDbEntity
  8
Layer_1
 62
7
100
AcDbPolyline
 90
4
 70
0
 10
182.040840
 20
397.113647
 30
0.0
 10
193.509082
 20
415.128302
 30
0.0
 10
214.117971
 20
416.301647
 30
0.0
 10
221.707327
 20
397.024299
 30
0.0
  0
SPLINE
  5
13c
100
AcDbEntity
  8
Layer_1
 62
7
100
AcDbSpline
 70
8
 71
3
 72
8
 73
4
 74
0
 40
0
 40
0
 40
0
 40
0
 40
1
 40
1
 40
1
 40
1
 10
354.123354
 20
324.184961
 30
0.0
 10
354.123354
 20
324.184961
 30
0.0
 10
342.713679
 20
389.533096
 30
0.0
 10
342.713679
 20
389.533096
 30
0.0
  0
SPLINE
  5
13d
100
AcDbEntity
  8
Layer_1
 62
7
100
AcDbSpline
 70
8
 71
3
 72
8
 73
4
 74
0
 40
0
 40
0
 40
0
 40
0
 40
1
 40
1
 40
1
 40
1
 10
342.713679
 20
389.533096
 30
0.0
 10
348.257428
 20
383.469048
 30
0.0
 10
355.149831
 20
379.347776
 30
0.0
 10
362.238576
 20
377.858296
 30
0.0
  0
LWPOLYLINE
  5
13e
100
AcDbEntity
  8
Layer_1
 62
7
100
AcDbPolyline
 90
4
 70
0
 10
232.296681
 20
393.019427
 30
0.0
 10
219.962699
 20
324.539433
 30
0.0
 10
287.354296
 20
440.815776
 30
0.0
 10
354.123354
 20
324.184961
 30
0.0
  0
SPLINE
  5
13f
100
AcDbEntity
  8
Layer_1
 62
7
100
AcDbSpline
 70
8
 71
3
 72
8
 73
4
 74
0
 40
0
 40
0
 40
0
 40
0
 40
1
 40
1
 40
1
 40
1
 10
391.280570
 20
394.589735
 30
0.0
 10
394.487966
 20
404.294739
 30
0.0
 10
392.919785
 20
416.104106
 30
0.0
 10
387.070611
 20
426.293320
 30
0.0
  0
SPLINE
  5
140
100
AcDbEntity
  8
Layer_1
 62
7
100
AcDbSpline
 70
8
 71
3
 72
8
 73
4
 74
0
 40
0
 40
0
 40
0
 40
0
 40
1
 40
1
 40
1
 40
1
 10
387.070611
 20
426.293320
 30
0.0
 10
383.568746
 20
432.350492
 30
0.0
 10
378.751055
 20
437.472848
 30
0.0
 10
373.195616
 20
441.045751
 30
0.0
  0
LWPOLYLINE
  5
141
100
AcDbEntity
  8
Layer_1
 62
7
100
AcDbPolyline
 90
5
 70
0
 10
362.238576
 20
377.858296
 30
0.0
 10
351.486624
 20
397.572151
 30
0.0
 10
360.422164
 20
416.180069
 30
0.0
 10
380.966598
 20
413.505269
 30
0.0
 10
391.280570
 20
394.589735
 30
0.0
  0
SPLINE
  5
142
100
AcDbEntity
  8
Layer_1
 62
7
100
AcDbSpline
 70
8
 71
3
 72
8
 73
4
 74
0
 40
0
 40
0
 40
0
 40
0
 40
1
 40
1
 40
1
 40
1
 10
457.123805
 20
410.150778
 30
0.0
 10
457.123805
 20
410.150778
 30
0.0
 10
406.809383
 20
452.514047
 30
0.0
 10
406.809383
 20
452.514047
 30
0.0
  0
SPLINE
  5
143
100
AcDbEntity
  8
Layer_1
 62
7
100
AcDbSpline
 70
8
 71
3
 72
8
 73
4
 74
0
 40
0
 40
0
 40
0
 40
0
 40
1
 40
1
 40
1
 40
1
 10
406.809383
 20
452.514047
 30
0.0
 10
414.706820
 20
451.567867
 30
0.0
 10
422.363115
 20
452.841411
 30
0.0
 10
428.569625
 20
456.133635
 30
0.0
  0
LWPOLYLINE
  5
144
100
AcDbEntity
  8
Layer_1
 62
7
100
AcDbPolyline
 90
2
 70
0
 10
373.195616
 20
441.045751
 30
0.0
 10
457.123805
 20
410.150778
 30
0.0
  0
SPLINE
  5
145
100
AcDbEntity
  8
Layer_1
 62
7
100
AcDbSpline
 70
8
 71
3
 72
8
 73
4
 74
0
 40
0
 40
0
 40
0
 40
0
 40
1
 40
1
 40
1
 40
1
 10
420.171704
 20
495.514517
 30
0.0
 10
420.171704
 20
495.514517
 30
0.0
 10
440.197540
 20
487.569203
 30
0.0
 10
440.197540
 20
487.569203
 30
0.0
  0
SPLINE
  5
146
100
AcDbEntity
  8
Layer_1
 62
7
100
AcDbSpline
 70
8
 71
3
 72
8
 73
4
 74
0
 40
0
 40
0
 40
0
 40
0
 40
1
 40
1
 40
1
 40
1
 10
440.197540
 20
487.569203
 30
0.0
 10
436.457040
 20
497.081398
 30
0.0
 10
427.699462
 20
505.157466
 30
0.0
 10
416.686791
 20
509.250359
 30
0.0
  0
SPLINE
  5
147
100
AcDbEntity
  8
Layer_1
 62
7
100
AcDbSpline
 70
8
 71
3
 72
8
 73
4
 74
0
 40
0
 40
0
 40
0
 40
0
 40
1
 40
1
 40
1
 40
1
 10
416.686791
 20
509.250359
 30
0.0
 10
409.859040
 20
511.773044
 30
0.0
 10
402.586773
 20
512.605853
 30
0.0
 10
395.811326
 20
511.640986
 30
0.0
  0
LWPOLYLINE
  5
148
100
AcDbEntity
  8
Layer_1
 62
7
100
AcDbPolyline
 90
4
 70
0
 10
428.569625
 20
456.133635
 30
0.0
 10
407.697080
 20
464.414400
 30
0.0
 10
402.666775
 20
484.434425
 30
0.0
 10
420.171704
 20
495.514517
 30
0.0
  0
SPLINE
  5
149
100
AcDbEntity
  8
Layer_1
 62
7
100
AcDbSpline
 70
8
 71
3
 72
8
 73
4
 74
0
 40
0
 40
0
 40
0
 40
0
 40
1
 40
1
 40
1
 40
1
 10
480.770787
 20
542.212299
 30
0.0
 10
480.770787
 20
542.212299
 30
0.0
 10
413.282523
 20
542.325118
 30
0.0
 10
413.282523
 20
542.325118
 30
0.0
  0
SPLINE
  5
14a
100
AcDbEntity
  8
Layer_1
 62
7
100
AcDbSpline
 70
8
 71
3
 72
8
 73
4
 74
0
 40
0
 40
0
 40
0
 40
0
 40
1
 40
1
 40
1
 40
1
 10
413.282523
 20
542.325118
 30
0.0
 10
420.730411
 20
546.728787
 30
0.0
 10
426.408763
 20
553.029622
 30
0.0
 10
429.277153
 20
560.073141
 30
0.0
  0
LWPOLYLINE
  5
14b
100
AcDbEntity
  8
Layer_1
 62
7
100
AcDbPolyline
 90
2
 70
0
 10
395.811326
 20
511.640986
 30
0.0
 10
480.770787
 20
542.212299
 30
0.0
  0
SPLINE
  5
14c
100
AcDbEntity
  8
Layer_1
 62
7
100
AcDbSpline
 70
8
 71
3
 72
8
 73
4
 74
0
 40
0
 40
0
 40
0
 40
0
 40
1
 40
1
 40
1
 40
1
 10
397.541310
 20
584.858319
 30
0.0
 10
397.541310
 20
584.858319
 30
0.0
 10
417.993477
 20
591.634681
 30
0.0
 10
417.993477
 20
591.634681
 30
0.0
  0
SPLINE
  5
14d
100
AcDbEntity
  8
Layer_1
 62
7
100
AcDbSpline
 70
8
 71
3
 72
8
 73
4
 74
0
 40
0
 40
0
 40
0
 40
0
 40
1
 40
1
 40
1
 40
1
 10
417.993477
 20
591.634681
 30
0.0
 10
409.015959
 20
596.521698
 30
0.0
 10
397.115937
 20
597.084805
 30
0.0
 10
386.046680
 20
593.146397
 30
0.0
  0
SPLINE
  5
14e
100
AcDbEntity
  8
Layer_1
 62
7
100
AcDbSpline
 70
8
 71
3
 72
8
 73
4
 74
0
 40
0
 40
0
 40
0
 40
0
 40
1
 40
1
 40
1
 40
1
 10
386.046680
 20
593.146397
 30
0.0
 10
379.971754
 20
590.961913
 30
0.0
 10
374.471318
 20
587.529889
 30
0.0
 10
370.110643
 20
583.203027
 30
0.0
  0
LWPOLYLINE
  5
14f
100
AcDbEntity
  8
Layer_1
 62
7
100
AcDbPolyline
 90
4
 70
0
 10
429.277153
 20
560.073141
 30
0.0
 10
407.960731
 20
553.009691
 30
0.0
 10
391.245392
 20
565.120993
 30
0.0
 10
397.541310
 20
584.858319
 30
0.0
  0
SPLINE
  5
150
100
AcDbEntity
  8
Layer_1
 62
7
100
AcDbSpline
 70
8
 71
3
 72
8
 73
4
 74
0
 40
0
 40
0
 40
0
 40
0
 40
1
 40
1
 40
1
 40
1
 10
413.995918
 20
658.576559
 30
0.0
 10
413.995918
 20
658.576559
 30
0.0
 10
366.735657
 20
619.055087
 30
0.0
 10
366.735657
 20
619.055087
 30
0.0
  0
SPLINE
  5
151
100
AcDbEntity
  8
Layer_1
 62
7
100
AcDbSpline
 70
8
 71
3
 72
8
 73
4
 74
0
 40
0
 40
0
 40
0
 40
0
 40
1
 40
1
 40
1
 40
1
 10
366.735657
 20
619.055087
 30
0.0
 10
367.956925
 20
625.148702
 30
0.0
 10
367.739092
 20
631.171076
 30
0.0
 10
366.104296
 20
636.510155
 30
0.0
  0
LWPOLYLINE
  5
152
100
AcDbEntity
  8
Layer_1
 62
7
100
AcDbPolyline
 90
2
 70
0
 10
370.110643
 20
583.203027
 30
0.0
 10
413.995918
 20
658.576559
 30
0.0
  0
SPLINE
  5
153
100
AcDbEntity
  8
Layer_1
 62
7
100
AcDbSpline
 70
8
 71
3
 72
8
 73
4
 74
0
 40
0
 40
0
 40
0
 40
0
 40
1
 40
1
 40
1
 40
1
 10
325.846006
 20
635.672262
 30
0.0
 10
325.846006
 20
635.672262
 30
0.0
 10
337.418277
 20
653.845110
 30
0.0
 10
337.418277
 20
653.845110
 30
0.0
  0
SPLINE
  5
154
100
AcDbEntity
  8
Layer_1
 62
7
100
AcDbSpline
 70
8
 71
3
 72
8
 73
4
 74
0
 40
0
 40
0
 40
0
 40
0
 40
1
 40
1
 40
1
 40
1
 10
337.418277
 20
653.845110
 30
0.0
 10
327.371848
 20
651.961253
 30
0.0
 10
317.791915
 20
644.879301
 30
0.0
 10
311.700019
 20
634.832923
 30
0.0
  0
SPLINE
  5
155
100
AcDbEntity
  8
Layer_1
 62
7
100
AcDbSpline
 70
8
 71
3
 72
8
 73
4
 74
0
 40
0
 40
0
 40
0
 40
0
 40
1
 40
1
 40
1
 40
1
 10
311.700019
 20
634.832923
 30
0.0
 10
305.135537
 20
623.966050
 30
0.0
 10
303.560242
 20
611.162771
 30
0.0
 10
307.544230
 20
601.056561
 30
0.0
  0
LWPOLYLINE
  5
156
100
AcDbEntity
  8
Layer_1
 62
7
100
AcDbPolyline
 90
4
 70
0
 10
366.104296
 20
636.510155
 30
0.0
 10
354.045713
 20
617.568259
 30
0.0
 10
333.435345
 20
616.393468
 30
0.0
 10
325.846006
 20
635.672262
 30
0.0
  0
LWPOLYLINE
  5
157
100
AcDbEntity
  8
Layer_1
 62
7
100
AcDbPolyline
 90
3
 70
0
 10
307.544230
 20
601.056561
 30
0.0
 10
306.302060
 20
599.004306
 30
0.0
 10
288.047169
 20
704.795281
 30
0.0
  0
ENDSEC
  0
SECTION
  2
OBJECTS
  0
DICTIONARY
  5
C
330
0
100
AcDbDictionary
  3
ACAD_GROUP
350
D
  3
ACAD_MLINESTYLE
350
17
  0
DICTIONARY
  5
D
330
C
100
AcDbDictionary
  0
DICTIONARY
  5
1A
330
C
100
AcDbDictionary
  0
DICTIONARY
  5
17
330
C
100
AcDbDictionary
  3
STANDARD
350
18
  0
DICTIONARY
  5
19
330
C
100
AcDbDictionary
  0
ENDSEC
  0
EOF
