0
SECTION
2
HEADER
9
$INSUNITS
70
4
9
$ACADVER
1
AC1014
9
$HANDSEED
5
FFFF
0
ENDSEC
0
SECTION
2
TABLES
0
TABLE
2
VPORT
5
8
100
AcDbSymbolTable
0
ENDTAB
0
TABLE
2
LTYPE
5
5
100
AcDbSymbolTable
0
LTYPE
5
14
100
AcDbSymbolTableRecord
100
AcDbLinetypeTableRecord
2
BYBLOCK
70
0
0
LTYPE
5
15
100
AcDbSymbolTableRecord
100
AcDbLinetypeTableRecord
2
BYLAYER
70
0
0
ENDTAB
0
TABLE
2
LAYER
5
2
100
AcDbSymbolTable
70
2
0
LAYER
5
50
100
AcDbSymbolTableRecord
100
AcDbLayerTableRecord
2
0
70
0
6
CONTINUOUS
0
ENDTAB
0
TABLE
2
STYLE
5
3
100
AcDbSymbolTable
70
1
0
STYLE
5
11
100
AcDbSymbolTableRecord
100
AcDbTextStyleTableRecord
2
STANDARD
70
0
0
ENDTAB
0
TABLE
2
VIEW
5
6
100
AcDbSymbolTable
70
0
0
ENDTAB
0
TABLE
2
UCS
5
7
100
AcDbSymbolTable
70
0
0
ENDTAB
0
TABLE
2
APPID
5
9
100
AcDbSymbolTable
70
2
0
APPID
5
12
100
AcDbSymbolTableRecord
100
AcDbRegAppTableRecord
2
ACAD
70
0
0
ENDTAB
0
TABLE
2
DIMSTYLE
5
A
100
AcDbSymbolTable
70
1
0
ENDTAB
0
TABLE
2
BLOCK_RECORD
5
1
100
AcDbSymbolTable
70
1
0
BLOCK_RECORD
5
1F
100
AcDbSymbolTableRecord
100
AcDbBlockTableRecord
2
*MODEL_SPACE
0
BLOCK_RECORD
5
1B
100
AcDbSymbolTableRecord
100
AcDbBlockTableRecord
2
*PAPER_SPACE
0
ENDTAB
0
ENDSEC
0
SECTION
2
BLOCKS
0
BLOCK
5
20
100
AcDbEntity
100
AcDbBlockBegin
2
*MODEL_SPACE
0
ENDBLK
5
21
100
AcDbEntity
100
AcDbBlockEnd
0
BLOCK
5
1C
100
AcDbEntity
100
AcDbBlockBegin
2
*PAPER_SPACE
0
ENDBLK
5
1D
100
AcDbEntity
100
AcDbBlockEnd
0
ENDSEC
0
SECTION
2
ENTITIES
0
LINE
5
100
100
AcDbEntity
8
0
100
AcDbLine
10
18.093294991277517
20
-247.53929076827663
30
0
11
-36.292576608681401
21
-249.83124915960082
31
0
0
LINE
5
101
100
AcDbEntity
8
0
100
AcDbLine
10
92.377957395188446
20
-34.086819662474625
30
0
11
115.36561294478233
21
-43.236538263795723
31
0
0
LINE
5
102
100
AcDbEntity
8
0
100
AcDbLine
10
-22.803483298766281
20
-94.910436323953462
30
0
11
18.093294991277517
21
-247.53929076827663
31
0
0
LINE
5
103
100
AcDbEntity
8
0
100
AcDbLine
10
-64.126633283890243
20
-145.95313546696866
30
0
11
-36.292576608681401
21
-249.83124915960082
31
0
0
ARC
5
104
100
AcDbEntity
8
0
100
AcDbCircle
10
-303.89150762981728
20
56.643850058156488
30
0
40
25.181616210503428
100
AcDbArc
50
197.26536721360867
51
342.73463278639139
0
ARC
5
105
100
AcDbEntity
8
0
100
AcDbCircle
10
-150.69542232746556
20
-247.83423757952738
30
0
40
345.87080000000134
100
AcDbArc
50
38.033032942134447
51
120.8274575354761
0
ARC
5
106
100
AcDbEntity
8
0
100
AcDbCircle
10
-150.69542232746556
20
-247.83423757952738
30
0
40
323.68600000000123
100
AcDbArc
50
41.32689365709642
51
67.598019584153676
0
ARC
5
107
100
AcDbEntity
8
0
100
AcDbCircle
10
-150.69542232746556
20
-247.83423757952738
30
0
40
323.68600000000123
100
AcDbArc
50
80.714506610714594
51
100.15928226632485
0
ARC
5
108
100
AcDbEntity
8
0
100
AcDbCircle
10
-150.69542232746556
20
-247.83423757952738
30
0
40
323.68600000000117
100
AcDbArc
50
105.74773792797468
51
113.52948291083122
0
ARC
5
109
100
AcDbEntity
8
0
100
AcDbCircle
10
117.39956926191491
20
-38.126448078681904
30
0
40
5.5000000000000027
100
AcDbArc
50
-111.70391473937482
51
38.033032942134646
0
LINE
5
110
100
AcDbEntity
8
0
100
AcDbLine
10
-213.33508336655083
20
62.600393553574413
30
0
11
-213.335083366552
21
-12.889950844083859
31
0
0
LINE
5
111
100
AcDbEntity
8
0
100
AcDbLine
10
-129.78381098435858
20
-21.68995084408386
30
0
11
-170.20000495016575
21
-21.68995084408385
31
0
0
LINE
5
112
100
AcDbEntity
8
0
100
AcDbLine
10
-170.20000495016575
20
-21.68995084408385
30
0
11
-204.53508336655202
21
-21.689950844083874
31
0
0
LINE
5
113
100
AcDbEntity
8
0
100
AcDbLine
10
-92.168068876333024
20
-4.530914010790255
30
0
11
-92.680244423322478
21
8.8725753404937286
31
0
0
LINE
5
114
100
AcDbEntity
8
0
100
AcDbLine
10
-129.78381098435858
20
-21.68995084408386
30
0
11
-100.46383928597433
21
-21.689950844083896
31
0
0
LINE
5
115
100
AcDbEntity
8
0
100
AcDbLine
10
-92.669422159410345
20
3.7804398642463211
30
0
11
-92.796139605679215
21
63.404046241243023
31
0
0
ARC
5
116
100
AcDbEntity
8
0
100
AcDbCircle
10
-101.59611973157574
20
63.38534373268088
30
0
40
8.8000000000000203
100
AcDbArc
50
0.1217699560903147
51
69.17372180254138
0
LINE
5
117
100
AcDbEntity
8
0
100
AcDbLine
10
-91.663839285974319
20
-12.889950844083884
30
0
11
-92.168068876333024
21
-4.530914010790255
31
0
0
ARC
5
118
100
AcDbEntity
8
0
100
AcDbCircle
10
-100.46383928597433
20
-12.889950844083884
30
0
40
8.8000000000000096
100
AcDbArc
50
-90
51
6.9039683690993252
0
ARC
5
119
100
AcDbEntity
8
0
100
AcDbCircle
10
-204.53508336655202
20
-12.88995084408387
30
0
40
8.7999999999999687
100
AcDbArc
50
180
51
270
0
ARC
5
120
100
AcDbEntity
8
0
100
AcDbCircle
10
-204.53508336655193
20
62.600393553574413
30
0
40
8.7999999999988461
100
AcDbArc
50
87.978167010714785
51
180
0
LINE
5
121
100
AcDbEntity
8
0
100
AcDbLine
10
-37.796119731576312
20
42.781744526108454
30
0
11
-37.796119731576312
21
4.3257882234763336
31
0
0
ARC
5
122
100
AcDbEntity
8
0
100
AcDbCircle
10
298.12236447815883
20
4.3257882234760201
30
0
40
335.91848420973287
100
AcDbArc
50
180
51
197.18257877606354
0
ARC
5
123
100
AcDbEntity
8
0
100
AcDbCircle
10
-28.9961197315763
20
42.781744526108454
30
0
40
8.7999999999999954
100
AcDbArc
50
55.416904328485217
51
180
0
LWPOLYLINE
5
124
100
AcDbEntity
8
0
100
AcDbPolyline
90
4
70
1
43
0.0
10
-41.256532470331251
20
-86.997681242577428
10
-43.940381323312003
20
-74.051170793927795
10
-65.923312044044323
20
-79.941479327817319
10
-62.506900648691058
20
-92.691700234832894
0
LWPOLYLINE
5
125
100
AcDbEntity
8
0
100
AcDbPolyline
90
4
70
1
43
0.0
10
-53.965872160307669
20
-124.56725250237221
10
-32.715503981948132
20
-118.87323351011679
10
-29.29909258659481
20
-131.62345441713248
10
-50.549460764954375
20
-137.31747340938793
0
LWPOLYLINE
5
126
100
AcDbEntity
8
0
100
AcDbPolyline
90
4
70
1
43
0.0
10
-5.3842128191219452
20
-220.87500076624275
10
-8.8006242144752012
20
-208.124779859227
10
-30.05099239283469
20
-213.81879885148251
10
-26.634580997481436
20
-226.5690197584982
0
LWPOLYLINE
5
127
100
AcDbEntity
8
0
100
AcDbPolyline
90
4
70
1
43
0.0
10
-20.758064098211804
20
-163.49900668467177
10
-17.341652702858394
20
-176.24922759168766
10
-38.59202088121792
20
-181.94324658394308
10
-42.008432276571376
20
-169.19302567692722
0
LWPOLYLINE
5
128
100
AcDbEntity
8
0
100
AcDbPolyline
90
4
70
1
43
0.0
10
-222.97870566728179
20
-65.631723200065423
10
-84.576518371787131
20
-65.680439526412442
10
-70.021515517374866
20
-123.95313546696866
10
-181.37465357278759
20
-123.95313546696858
42
-0.51500657484711199
0
LINE
5
129
100
AcDbEntity
8
0
100
AcDbLine
10
-64.126633283890243
20
-145.95313546696866
30
0
11
-194.57465357278764
21
-145.95313546696866
31
0
0
ARC
5
130
100
AcDbEntity
8
0
100
AcDbCircle
10
-194.57465357278764
20
-101.95313546696865
30
0
40
44
100
AcDbArc
50
180
51
270
0
LWPOLYLINE
5
131
100
AcDbEntity
8
0
100
AcDbPolyline
90
4
70
1
43
0.0
10
-114.10000000000004
20
-32.689950844086411
10
-114.10000000000004
20
-54.689950844086411
10
-102.00000000000001
20
-54.689950844086411
10
-102.00000000000001
20
-32.689950844086411
0
LWPOLYLINE
5
132
100
AcDbEntity
8
0
100
AcDbPolyline
90
4
70
1
43
0.0
10
-135.00000000000003
20
-54.689950844086411
10
-135.00000000000003
20
-32.689950844086411
10
-147.10000000000005
20
-32.689950844086411
10
-147.10000000000005
20
-54.689950844086411
0
LWPOLYLINE
5
133
100
AcDbEntity
8
0
100
AcDbPolyline
90
4
70
1
43
0.0
10
-180.10000000000002
20
-32.689950844086411
10
-180.10000000000002
20
-54.689950844086411
10
-168
20
-54.689950844086411
10
-168
20
-32.689950844086411
0
LWPOLYLINE
5
134
100
AcDbEntity
8
0
100
AcDbPolyline
90
4
70
1
43
0.0
10
-213.10000000000008
20
-32.689950844086411
10
-201
20
-32.689950844086411
10
-201
20
-54.689950844086411
10
-213.10000000000008
20
-54.689950844086411
0
LINE
5
135
100
AcDbEntity
8
0
100
AcDbLine
10
-238.57465357278761
20
-101.95313553867054
30
0
11
-238.54459619149918
21
63.702516668518811
31
0
0
LWPOLYLINE
5
136
100
AcDbEntity
8
0
100
AcDbPolyline
90
4
70
1
43
0.0
10
-124.67245842350529
20
215.44955410853908
10
-124.67245842350529
20
202.24955410853906
10
29.32754157649476
20
202.24955410853914
10
29.327541576494767
20
215.44955410853916
0
LWPOLYLINE
5
137
100
AcDbEntity
8
0
100
AcDbPolyline
90
4
70
1
43
0.0
10
-167.8397968783591
20
283.60190973141118
10
-167.8397968783591
20
271.28190973141113
10
-155.5197968783591
20
271.28190973141113
10
-155.5197968783591
20
283.60190973141118
0
ARC
5
138
100
AcDbEntity
8
0
100
AcDbCircle
10
-57.99999758642349
20
495.29742270556108
30
0
40
248.40347226934509
100
AcDbArc
50
251.15089293852085
51
288.84910719904701
0
ARC
5
139
100
AcDbEntity
8
0
100
AcDbCircle
10
-57.999997947573476
20
523.95936112448692
30
0
40
248.40347471786319
100
AcDbArc
50
251.15089306803085
51
288.84910517295356
0
ARC
5
140
100
AcDbEntity
8
0
100
AcDbCircle
10
-57.999997586423603
20
495.2974227055609
30
0
40
248.40347226934495
100
AcDbArc
50
251.15089293852088
51
288.84910719904707
0
LINE
5
141
100
AcDbEntity
8
0
100
AcDbLine
10
-143.03041871868641
20
266.00190973141105
30
0
11
-177.73979709327426
21
266.00190972307735
31
0
0
LINE
5
142
100
AcDbEntity
8
0
100
AcDbLine
10
-177.73979768272022
20
288.87709612307737
30
0
11
-138.25342988272018
21
288.87709607125339
31
0
0
ARC
5
143
100
AcDbEntity
8
0
100
AcDbCircle
10
-57.999999660271875
20
523.95936218535178
30
0
40
248.40347200433649
100
AcDbArc
50
251.15089321135474
51
288.84910650338497
0
LINE
5
144
100
AcDbEntity
8
0
100
AcDbLine
10
-177.73979768272022
20
288.87709612307737
30
0
11
-177.73979709327426
21
266.00190972307735
31
0
0
LINE
5
145
100
AcDbEntity
8
0
100
AcDbLine
10
27.030430142152582
20
266.00192117310763
30
0
11
60.639592946652165
21
266.00191599061463
31
0
0
LINE
5
146
100
AcDbEntity
8
0
100
AcDbLine
10
-138.25342901391633
20
260.21515672282055
30
0
11
-138.25342901325627
21
261.22492002285827
31
0
0
LINE
5
147
100
AcDbEntity
8
0
100
AcDbLine
10
-138.25342901391633
20
260.21515672282044
30
0
11
-138.25342901325627
21
261.22492002285827
31
0
0
LINE
5
148
100
AcDbEntity
8
0
100
AcDbLine
10
22.253426522435031
20
288.87709017930325
30
0
11
60.639579106519719
21
288.87708863835985
31
0
0
ARC
5
149
100
AcDbEntity
8
0
100
AcDbCircle
10
-143.03041871868641
20
261.22492002598085
30
0
40
4.776989705430136
100
AcDbArc
50
0
51
90
0
ARC
5
150
100
AcDbEntity
8
0
100
AcDbCircle
10
27.030429638252773
20
261.22492594549129
30
0
40
4.776995227616406
100
AcDbArc
50
89.999993956173086
51
180
0
LINE
5
151
100
AcDbEntity
8
0
100
AcDbLine
10
22.25343440550478
20
260.21515691550997
30
0
11
22.253434410636412
21
261.22492596976792
31
0
0
LINE
5
152
100
AcDbEntity
8
0
100
AcDbLine
10
60.639579106519719
20
288.87708863835985
30
0
11
60.639592946652165
21
266.00191599061463
31
0
0
LWPOLYLINE
5
153
100
AcDbEntity
8
0
100
AcDbPolyline
90
4
70
1
43
0.0
10
38.419593009171173
20
283.60191605389502
10
38.419592946652166
20
271.29988123235682
10
50.739592946652152
20
271.28191599061461
10
50.757558188393901
20
283.6019159906146
0
LINE
5
154
100
AcDbEntity
8
0
100
AcDbLine
10
22.25343440550478
20
260.21515691550997
30
0
11
22.253434410636412
21
261.22492596976792
31
0
0
ENDSEC
0
SECTION
2
OBJECTS
0
DICTIONARY
5
C
100
AcDbDictionary
3
ACAD_GROUP
350
D
3
ACAD_MLINESTYLE
350
17
0
DICTIONARY
5
D
100
AcDbDictionary
0
DICTIONARY
5
1A
330
C
100
AcDbDictionary
0
DICTIONARY
5
17
100
AcDbDictionary
0
ENDSEC
0
EOF
