  0
SECTION
  2
HEADER
  9
$ACADVER
  1
AC1014
  9
$HANDSEED
  5
FFFF
  9
$MEASUREMENT
 70
     1
  0
ENDSEC
  0
SECTION
  2
TABLES
  0
TABLE
  2
VPORT
  5
8
330
0
100
AcDbSymbolTable
 70
     4
  0
VPORT
  5
2E
330
8
100
AcDbSymbolTableRecord
100
AcDbViewportTableRecord
  2
*ACTIVE
 70
     0
 10
0.0
 20
0.0
 11
1.0
 21
1.0
 12
210.0
 22
148.5
 13
0.0
 23
0.0
 14
10.0
 24
10.0
 15
10.0
 25
10.0
 16
0.0
 26
0.0
 36
1.0
 17
0.0
 27
0.0
 37
0.0
 40
341.0
 41
1.24
 42
50.0
 43
0.0
 44
0.0
 50
0.0
 51
0.0
 71
     0
 72
   100
 73
     1
 74
     3
 75
     0
 76
     0
 77
     0
 78
     0
  0
ENDTAB
  0
TABLE
  2
LTYPE
  5
5
330
0
100
AcDbSymbolTable
 70
     1
  0
LTYPE
  5
14
330
5
100
AcDbSymbolTableRecord
100
AcDbLinetypeTableRecord
  2
BYBLOCK
 70
     0
  3

 72
    65
 73
     0
 40
0.0
  0
LTYPE
  5
15
330
5
100
AcDbSymbolTableRecord
100
AcDbLinetypeTableRecord
  2
BYLAYER
 70
     0
  3

 72
    65
 73
     0
 40
0.0
  0
LTYPE
  5
16
330
5
100
AcDbSymbolTableRecord
100
AcDbLinetypeTableRecord
  2
CONTINUOUS
 70
     0
  3
Solid line
 72
    65
 73
     0
 40
0.0
  0
ENDTAB
  0
TABLE
  2
LAYER
  5
2
100
AcDbSymbolTable
 70
1
  0
LAYER
  5
50
100
AcDbSymbolTableRecord
100
AcDbLayerTableRecord
  2
0
 70
0
  6
CONTINUOUS
  0
ENDTAB
  0
TABLE
  2
STYLE
  5
3
330
0
100
AcDbSymbolTable
 70
     1
  0
STYLE
  5
11
330
3
100
AcDbSymbolTableRecord
100
AcDbTextStyleTableRecord
  2
STANDARD
 70
     0
 40
0.0
 41
1.0
 50
0.0
 71
     0
 42
2.5
  3
txt
  4

  0
ENDTAB
  0
TABLE
  2
VIEW
  5
6
330
0
100
AcDbSymbolTable
 70
     0
  0
ENDTAB
  0
TABLE
  2
UCS
  5
7
330
0
100
AcDbSymbolTable
 70
     0
  0
ENDTAB
  0
TABLE
  2
APPID
  5
9
330
0
100
AcDbSymbolTable
 70
     2
  0
APPID
  5
12
330
9
100
AcDbSymbolTableRecord
100
AcDbRegAppTableRecord
  2
ACAD
 70
     0
  0
ENDTAB
  0
TABLE
  2
DIMSTYLE
  5
A
330
0
100
AcDbSymbolTable
 70
     1
  0
DIMSTYLE
105
27
330
A
100
AcDbSymbolTableRecord
100
AcDbDimStyleTableRecord
  2
ISO-25
 70
     0
  3

  4

  5

  6

  7

 40
1.0
 41
2.5
 42
0.625
 43
3.75
 44
1.25
 45
0.0
 46
0.0
 47
0.0
 48
0.0
140
2.5
141
2.5
142
0.0
143
0.03937007874016
144
1.0
145
0.0
146
1.0
147
0.625
 71
     0
 72
     0
 73
     0
 74
     0
 75
     0
 76
     0
 77
     1
 78
     8
170
     0
171
     3
172
     1
173
     0
174
     0
175
     0
176
     0
177
     0
178
     0
270
     2
271
     2
272
     2
273
     2
274
     3
340
11
275
     0
280
     0
281
     0
282
     0
283
     0
284
     8
285
     0
286
     0
287
     3
288
     0
  0
ENDTAB
  0
TABLE
  2
BLOCK_RECORD
  5
1
330
0
100
AcDbSymbolTable
 70
     1
  0
BLOCK_RECORD
  5
1F
330
1
100
AcDbSymbolTableRecord
100
AcDbBlockTableRecord
  2
*MODEL_SPACE
  0
BLOCK_RECORD
  5
1B
330
1
100
AcDbSymbolTableRecord
100
AcDbBlockTableRecord
  2
*PAPER_SPACE
  0
ENDTAB
  0
ENDSEC
  0
SECTION
  2
BLOCKS
  0
BLOCK
  5
20
330
1F
100
AcDbEntity
  8
0
100
AcDbBlockBegin
  2
*MODEL_SPACE
 70
     0
 10
0.0
 20
0.0
 30
0.0
  3
*MODEL_SPACE
  1

  0
ENDBLK
  5
21
330
1F
100
AcDbEntity
  8
0
100
AcDbBlockEnd
  0
BLOCK
  5
1C
330
1B
100
AcDbEntity
 67
     1
  8
0
100
AcDbBlockBegin
  2
*PAPER_SPACE
  1

  0
ENDBLK
  5
1D
330
1B
100
AcDbEntity
 67
     1
  8
0
100
AcDbBlockEnd
  0
ENDSEC
  0
SECTION
  2
ENTITIES
  0
SPLINE
  5
100
100
AcDbEntity
  8
0
 62
1
100
AcDbSpline
 70
8
 71
3
 72
8
 73
4
 74
0
 40
0
 40
0
 40
0
 40
0
 40
1
 40
1
 40
1
 40
1
 10
64.278757
 20
33.229665
 30
0.0
 10
58.680800
 20
35.426535
 30
0.0
 10
56.590856
 20
36.609585
 30
0.0
 10
53.018757
 20
39.603608
 30
0.0
  0
SPLINE
  5
101
100
AcDbEntity
  8
0
 62
1
100
AcDbSpline
 70
8
 71
3
 72
8
 73
4
 74
0
 40
0
 40
0
 40
0
 40
0
 40
1
 40
1
 40
1
 40
1
 10
53.018757
 20
39.603608
 30
0.0
 10
50.606339
 20
41.625623
 30
0.0
 10
47.826662
 20
44.473560
 30
0.0
 10
46.841696
 20
45.932370
 30
0.0
  0
SPLINE
  5
102
100
AcDbEntity
  8
0
 62
1
100
AcDbSpline
 70
8
 71
3
 72
8
 73
4
 74
0
 40
0
 40
0
 40
0
 40
0
 40
1
 40
1
 40
1
 40
1
 10
46.293712
 20
375.151014
 30
0.0
 10
49.803581
 20
381.599801
 30
0.0
 10
56.798045
 20
386.943756
 30
0.0
 10
65.955211
 20
390.172921
 30
0.0
  0
LWPOLYLINE
  5
103
100
AcDbEntity
  8
0
 62
1
100
AcDbPolyline
 90
5
 70
0
 10
46.841696
 20
45.932370
 30
0.0
 10
45.050848
 20
48.584745
 30
0.0
 10
44.845077
 20
210.348038
 30
0.0
 10
44.639307
 20
372.111326
 30
0.0
 10
46.293712
 20
375.151014
 30
0.0
  0
SPLINE
  5
104
100
AcDbEntity
  8
0
 62
1
100
AcDbSpline
 70
8
 71
3
 72
8
 73
4
 74
0
 40
0
 40
0
 40
0
 40
0
 40
1
 40
1
 40
1
 40
1
 10
161.322037
 20
392.418118
 30
0.0
 10
210.915255
 20
392.644949
 30
0.0
 10
285.005182
 20
392.857226
 30
0.0
 10
325.966320
 20
392.889845
 30
0.0
  0
LWPOLYLINE
  5
105
100
AcDbEntity
  8
0
 62
1
100
AcDbPolyline
 90
3
 70
0
 10
65.955211
 20
390.172921
 30
0.0
 10
71.152542
 20
392.005697
 30
0.0
 10
161.322037
 20
392.418118
 30
0.0
  0
SPLINE
  5
106
100
AcDbEntity
  8
0
 62
1
100
AcDbSpline
 70
8
 71
3
 72
8
 73
4
 74
0
 40
0
 40
0
 40
0
 40
0
 40
1
 40
1
 40
1
 40
1
 10
405.754455
 20
391.411965
 30
0.0
 10
414.199267
 20
388.968817
 30
0.0
 10
419.203567
 20
386.376522
 30
0.0
 10
423.570847
 20
382.182847
 30
0.0
  0
SPLINE
  5
107
100
AcDbEntity
  8
0
 62
1
100
AcDbSpline
 70
8
 71
3
 72
8
 73
4
 74
0
 40
0
 40
0
 40
0
 40
0
 40
1
 40
1
 40
1
 40
1
 10
423.570847
 20
382.182847
 30
0.0
 10
425.692957
 20
380.145092
 30
0.0
 10
428.019090
 20
377.529435
 30
0.0
 10
428.740035
 20
376.370277
 30
0.0
  0
LWPOLYLINE
  5
108
100
AcDbEntity
  8
0
 62
1
100
AcDbPolyline
 90
3
 70
0
 10
325.966320
 20
392.889845
 30
0.0
 10
400.441117
 20
392.949155
 30
0.0
 10
405.754455
 20
391.411965
 30
0.0
  0
SPLINE
  5
109
100
AcDbEntity
  8
0
 62
1
100
AcDbSpline
 70
8
 71
3
 72
8
 73
4
 74
0
 40
0
 40
0
 40
0
 40
0
 40
1
 40
1
 40
1
 40
1
 10
430.211572
 20
211.863210
 30
0.0
 10
430.359105
 20
62.801850
 30
0.0
 10
430.292985
 20
49.310333
 30
0.0
 10
429.406590
 20
47.596230
 30
0.0
  0
SPLINE
  5
10a
100
AcDbEntity
  8
0
 62
1
100
AcDbSpline
 70
8
 71
3
 72
8
 73
4
 74
0
 40
0
 40
0
 40
0
 40
0
 40
1
 40
1
 40
1
 40
1
 10
429.406590
 20
47.596230
 30
0.0
 10
427.909200
 20
44.700585
 30
0.0
 10
423.288255
 20
40.026592
 30
0.0
 10
419.461560
 20
37.537035
 30
0.0
  0
SPLINE
  5
10b
100
AcDbEntity
  8
0
 62
1
100
AcDbSpline
 70
8
 71
3
 72
8
 73
4
 74
0
 40
0
 40
0
 40
0
 40
0
 40
1
 40
1
 40
1
 40
1
 10
419.461560
 20
37.537035
 30
0.0
 10
417.552712
 20
36.295170
 30
0.0
 10
413.202105
 20
34.201897
 30
0.0
 10
409.793550
 20
32.885317
 30
0.0
  0
LWPOLYLINE
  5
10c
100
AcDbEntity
  8
0
 62
1
100
AcDbPolyline
 90
3
 70
0
 10
428.740035
 20
376.370277
 30
0.0
 10
430.050847
 20
374.262715
 30
0.0
 10
430.211572
 20
211.863210
 30
0.0
  0
SPLINE
  5
10d
100
AcDbEntity
  8
0
 62
1
100
AcDbSpline
 70
8
 71
3
 72
8
 73
4
 74
0
 40
0
 40
0
 40
0
 40
0
 40
1
 40
1
 40
1
 40
1
 10
402.040350
 20
41.664202
 30
0.0
 10
406.058407
 20
43.286025
 30
0.0
 10
409.631273
 20
45.895890
 30
0.0
 10
412.198613
 20
49.084493
 30
0.0
  0
LWPOLYLINE
  5
10e
100
AcDbEntity
  8
0
 62
1
100
AcDbPolyline
 90
5
 70
0
 10
409.793550
 20
32.885317
 30
0.0
 10
403.596172
 20
30.491527
 30
0.0
 10
237.374355
 20
30.511852
 30
0.0
 10
71.152542
 20
30.532177
 30
0.0
 10
64.278757
 20
33.229665
 30
0.0
  0
SPLINE
  5
10f
100
AcDbEntity
  8
0
 62
1
100
AcDbSpline
 70
8
 71
3
 72
8
 73
4
 74
0
 40
0
 40
0
 40
0
 40
0
 40
1
 40
1
 40
1
 40
1
 10
414.433702
 20
211.330253
 30
0.0
 10
414.829252
 20
369.594356
 30
0.0
 10
414.821123
 20
371.316685
 30
0.0
 10
413.669430
 20
373.183094
 30
0.0
  0
SPLINE
  5
110
100
AcDbEntity
  8
0
 62
1
100
AcDbSpline
 70
8
 71
3
 72
8
 73
4
 74
0
 40
0
 40
0
 40
0
 40
0
 40
1
 40
1
 40
1
 40
1
 10
413.669430
 20
373.183094
 30
0.0
 10
411.809820
 20
376.196760
 30
0.0
 10
408.899580
 20
378.387426
 30
0.0
 10
403.881487
 20
380.550900
 30
0.0
  0
LWPOLYLINE
  5
111
100
AcDbEntity
  8
0
 62
1
100
AcDbPolyline
 90
3
 70
0
 10
412.198613
 20
49.084493
 30
0.0
 10
414.033900
 20
51.363900
 30
0.0
 10
414.433702
 20
211.330253
 30
0.0
  0
SPLINE
  5
112
100
AcDbEntity
  8
0
 62
1
100
AcDbSpline
 70
8
 71
3
 72
8
 73
4
 74
0
 40
0
 40
0
 40
0
 40
0
 40
1
 40
1
 40
1
 40
1
 10
241.770397
 20
382.736983
 30
0.0
 10
153.235387
 20
382.832127
 30
0.0
 10
81.791332
 20
382.675610
 30
0.0
 10
78.519585
 20
382.379333
 30
0.0
  0
SPLINE
  5
113
100
AcDbEntity
  8
0
 62
1
100
AcDbSpline
 70
8
 71
3
 72
8
 73
4
 74
0
 40
0
 40
0
 40
0
 40
0
 40
1
 40
1
 40
1
 40
1
 10
78.519585
 20
382.379333
 30
0.0
 10
73.210014
 20
381.898520
 30
0.0
 10
72.337635
 20
381.636167
 30
0.0
 10
68.533513
 20
379.376180
 30
0.0
  0
SPLINE
  5
114
100
AcDbEntity
  8
0
 62
1
100
AcDbSpline
 70
8
 71
3
 72
8
 73
4
 74
0
 40
0
 40
0
 40
0
 40
0
 40
1
 40
1
 40
1
 40
1
 10
68.533513
 20
379.376180
 30
0.0
 10
65.806529
 20
377.756108
 30
0.0
 10
63.743887
 20
375.996736
 30
0.0
 10
62.568220
 20
374.287962
 30
0.0
  0
LWPOLYLINE
  5
115
100
AcDbEntity
  8
0
 62
1
100
AcDbPolyline
 90
3
 70
0
 10
403.881487
 20
380.550900
 30
0.0
 10
399.203392
 20
382.567796
 30
0.0
 10
241.770397
 20
382.736983
 30
0.0
  0
SPLINE
  5
116
100
AcDbEntity
  8
0
 62
1
100
AcDbSpline
 70
8
 71
3
 72
8
 73
4
 74
0
 40
0
 40
0
 40
0
 40
0
 40
1
 40
1
 40
1
 40
1
 10
60.787319
 20
223.477860
 30
0.0
 10
60.802679
 20
82.456485
 30
0.0
 10
61.077803
 20
54.342878
 30
0.0
 10
62.493836
 20
49.100010
 30
0.0
  0
SPLINE
  5
117
100
AcDbEntity
  8
0
 62
1
100
AcDbSpline
 70
8
 71
3
 72
8
 73
4
 74
0
 40
0
 40
0
 40
0
 40
0
 40
1
 40
1
 40
1
 40
1
 10
62.493836
 20
49.100010
 30
0.0
 10
62.834743
 20
47.837805
 30
0.0
 10
63.669834
 20
46.459500
 30
0.0
 10
64.349593
 20
46.037123
 30
0.0
  0
SPLINE
  5
118
100
AcDbEntity
  8
0
 62
1
100
AcDbSpline
 70
8
 71
3
 72
8
 73
4
 74
0
 40
0
 40
0
 40
0
 40
0
 40
1
 40
1
 40
1
 40
1
 10
64.349593
 20
46.037123
 30
0.0
 10
66.973728
 20
44.406563
 30
0.0
 10
72.974737
 20
41.535233
 30
0.0
 10
75.271920
 20
40.811048
 30
0.0
  0
SPLINE
  5
119
100
AcDbEntity
  8
0
 62
1
100
AcDbSpline
 70
8
 71
3
 72
8
 73
4
 74
0
 40
0
 40
0
 40
0
 40
0
 40
1
 40
1
 40
1
 40
1
 10
75.271920
 20
40.811048
 30
0.0
 10
77.204475
 20
40.201815
 30
0.0
 10
109.256167
 20
40.074900
 30
0.0
 10
238.144065
 20
40.166108
 30
0.0
  0
LWPOLYLINE
  5
11a
100
AcDbEntity
  8
0
 62
1
100
AcDbPolyline
 90
3
 70
0
 10
62.568220
 20
374.287962
 30
0.0
 10
60.771187
 20
371.676063
 30
0.0
 10
60.787319
 20
223.477860
 30
0.0
  0
SPLINE
  5
11b
100
AcDbEntity
  8
0
 62
1
100
AcDbSpline
 70
8
 71
3
 72
8
 73
4
 74
0
 40
0
 40
0
 40
0
 40
0
 40
1
 40
1
 40
1
 40
1
 10
149.910053
 20
247.915155
 30
0.0
 10
144.674242
 20
249.052672
 30
0.0
 10
139.532737
 20
251.987752
 30
0.0
 10
135.981750
 20
255.866242
 30
0.0
  0
SPLINE
  5
11c
100
AcDbEntity
  8
0
 62
1
100
AcDbSpline
 70
8
 71
3
 72
8
 73
4
 74
0
 40
0
 40
0
 40
0
 40
0
 40
1
 40
1
 40
1
 40
1
 10
135.981750
 20
255.866242
 30
0.0
 10
129.860588
 20
262.551967
 30
0.0
 10
128.814030
 20
267.663795
 30
0.0
 10
130.688565
 20
281.720340
 30
0.0
  0
SPLINE
  5
11d
100
AcDbEntity
  8
0
 62
1
100
AcDbSpline
 70
8
 71
3
 72
8
 73
4
 74
0
 40
0
 40
0
 40
0
 40
0
 40
1
 40
1
 40
1
 40
1
 10
130.688565
 20
281.720340
 30
0.0
 10
134.983380
 20
313.925872
 30
0.0
 10
139.751902
 20
347.410708
 30
0.0
 10
140.218012
 20
348.636665
 30
0.0
  0
SPLINE
  5
11e
100
AcDbEntity
  8
0
 62
1
100
AcDbSpline
 70
8
 71
3
 72
8
 73
4
 74
0
 40
0
 40
0
 40
0
 40
0
 40
1
 40
1
 40
1
 40
1
 10
140.218012
 20
348.636665
 30
0.0
 10
140.824845
 20
350.232770
 30
0.0
 10
142.362998
 20
350.734070
 30
0.0
 10
158.652540
 20
354.644710
 30
0.0
  0
SPLINE
  5
11f
100
AcDbEntity
  8
0
 62
1
100
AcDbSpline
 70
8
 71
3
 72
8
 73
4
 74
0
 40
0
 40
0
 40
0
 40
0
 40
1
 40
1
 40
1
 40
1
 10
158.652540
 20
354.644710
 30
0.0
 10
202.534680
 20
365.179519
 30
0.0
 10
244.207418
 20
365.948242
 30
0.0
 10
288.221700
 20
357.034826
 30
0.0
  0
SPLINE
  5
120
100
AcDbEntity
  8
0
 62
1
100
AcDbSpline
 70
8
 71
3
 72
8
 73
4
 74
0
 40
0
 40
0
 40
0
 40
0
 40
1
 40
1
 40
1
 40
1
 10
288.221700
 20
357.034826
 30
0.0
 10
300.913793
 20
354.464526
 30
0.0
 10
316.701735
 20
350.300053
 30
0.0
 10
317.415158
 20
349.334300
 30
0.0
  0
SPLINE
  5
121
100
AcDbEntity
  8
0
 62
1
100
AcDbSpline
 70
8
 71
3
 72
8
 73
4
 74
0
 40
0
 40
0
 40
0
 40
0
 40
1
 40
1
 40
1
 40
1
 10
317.415158
 20
349.334300
 30
0.0
 10
318.232560
 20
348.227795
 30
0.0
 10
318.895320
 20
344.000738
 30
0.0
 10
323.923800
 20
307.822035
 30
0.0
  0
SPLINE
  5
122
100
AcDbEntity
  8
0
 62
1
100
AcDbSpline
 70
8
 71
3
 72
8
 73
4
 74
0
 40
0
 40
0
 40
0
 40
0
 40
1
 40
1
 40
1
 40
1
 10
323.923800
 20
307.822035
 30
0.0
 10
326.746770
 20
287.511510
 30
0.0
 10
327.900908
 20
277.390665
 30
0.0
 10
327.949223
 20
272.522542
 30
0.0
  0
SPLINE
  5
123
100
AcDbEntity
  8
0
 62
1
100
AcDbSpline
 70
8
 71
3
 72
8
 73
4
 74
0
 40
0
 40
0
 40
0
 40
0
 40
1
 40
1
 40
1
 40
1
 10
327.949223
 20
272.522542
 30
0.0
 10
328.014473
 20
265.943377
 30
0.0
 10
327.946973
 20
265.554697
 30
0.0
 10
326.067630
 20
261.728400
 30
0.0
  0
SPLINE
  5
124
100
AcDbEntity
  8
0
 62
1
100
AcDbSpline
 70
8
 71
3
 72
8
 73
4
 74
0
 40
0
 40
0
 40
0
 40
0
 40
1
 40
1
 40
1
 40
1
 10
326.067630
 20
261.728400
 30
0.0
 10
321.169853
 20
251.755515
 30
0.0
 10
309.834938
 20
245.829712
 30
0.0
 10
298.909920
 20
247.530585
 30
0.0
  0
SPLINE
  5
125
100
AcDbEntity
  8
0
 62
1
100
AcDbSpline
 70
8
 71
3
 72
8
 73
4
 74
0
 40
0
 40
0
 40
0
 40
0
 40
1
 40
1
 40
1
 40
1
 10
298.909920
 20
247.530585
 30
0.0
 10
296.719208
 20
247.871647
 30
0.0
 10
293.028870
 20
249.059857
 30
0.0
 10
290.709165
 20
250.171065
 30
0.0
  0
SPLINE
  5
126
100
AcDbEntity
  8
0
 62
1
100
AcDbSpline
 70
8
 71
3
 72
8
 73
4
 74
0
 40
0
 40
0
 40
0
 40
0
 40
1
 40
1
 40
1
 40
1
 10
290.709165
 20
250.171065
 30
0.0
 10
281.815283
 20
254.431477
 30
0.0
 10
278.012843
 20
259.864868
 30
0.0
 10
276.112530
 20
271.028505
 30
0.0
  0
SPLINE
  5
127
100
AcDbEntity
  8
0
 62
1
100
AcDbSpline
 70
8
 71
3
 72
8
 73
4
 74
0
 40
0
 40
0
 40
0
 40
0
 40
1
 40
1
 40
1
 40
1
 10
276.112530
 20
271.028505
 30
0.0
 10
275.520000
 20
274.509435
 30
0.0
 10
274.874280
 20
277.518375
 30
0.0
 10
274.677600
 20
277.715055
 30
0.0
  0
SPLINE
  5
128
100
AcDbEntity
  8
0
 62
1
100
AcDbSpline
 70
8
 71
3
 72
8
 73
4
 74
0
 40
0
 40
0
 40
0
 40
0
 40
1
 40
1
 40
1
 40
1
 10
274.677600
 20
277.715055
 30
0.0
 10
274.028198
 20
278.364465
 30
0.0
 10
186.354383
 20
278.626688
 30
0.0
 10
184.720373
 20
277.984110
 30
0.0
  0
SPLINE
  5
129
100
AcDbEntity
  8
0
 62
1
100
AcDbSpline
 70
8
 71
3
 72
8
 73
4
 74
0
 40
0
 40
0
 40
0
 40
0
 40
1
 40
1
 40
1
 40
1
 10
184.720373
 20
277.984110
 30
0.0
 10
183.356790
 20
277.447875
 30
0.0
 10
183.079470
 20
276.758873
 30
0.0
 10
181.976708
 20
271.167503
 30
0.0
  0
SPLINE
  5
12a
100
AcDbEntity
  8
0
 62
1
100
AcDbSpline
 70
8
 71
3
 72
8
 73
4
 74
0
 40
0
 40
0
 40
0
 40
0
 40
1
 40
1
 40
1
 40
1
 10
181.976708
 20
271.167503
 30
0.0
 10
181.302000
 20
267.746467
 30
0.0
 10
180.061763
 20
263.444220
 30
0.0
 10
179.220638
 20
261.606960
 30
0.0
  0
SPLINE
  5
12b
100
AcDbEntity
  8
0
 62
1
100
AcDbSpline
 70
8
 71
3
 72
8
 73
4
 74
0
 40
0
 40
0
 40
0
 40
0
 40
1
 40
1
 40
1
 40
1
 10
179.220638
 20
261.606960
 30
0.0
 10
176.084243
 20
254.756168
 30
0.0
 10
168.092820
 20
248.909820
 30
0.0
 10
160.068593
 20
247.595738
 30
0.0
  0
SPLINE
  5
12c
100
AcDbEntity
  8
0
 62
1
100
AcDbSpline
 70
8
 71
3
 72
8
 73
4
 74
0
 40
0
 40
0
 40
0
 40
0
 40
1
 40
1
 40
1
 40
1
 10
160.068593
 20
247.595738
 30
0.0
 10
155.694488
 20
246.879420
 30
0.0
 10
154.505243
 20
246.916808
 30
0.0
 10
149.910053
 20
247.915155
 30
0.0
  0
LWPOLYLINE
  5
12d
100
AcDbEntity
  8
0
 62
1
100
AcDbPolyline
 90
3
 70
0
 10
238.144065
 20
40.166108
 30
0.0
 10
398.610172
 20
40.279658
 30
0.0
 10
402.040350
 20
41.664202
 30
0.0
  0
LWPOLYLINE
  5
12e
100
AcDbEntity
  8
0
 62
1
100
AcDbPolyline
 90
1
 70
1
 10
149.910053
 20
247.915155
 30
0.0
  0
SPLINE
  5
12f
100
AcDbEntity
  8
0
 62
1
100
AcDbSpline
 70
8
 71
3
 72
8
 73
4
 74
0
 40
0
 40
0
 40
0
 40
0
 40
1
 40
1
 40
1
 40
1
 10
282.516750
 20
294.121605
 30
0.0
 10
288.707542
 20
297.342675
 30
0.0
 10
288.960285
 20
305.934787
 30
0.0
 10
282.938265
 20
308.450955
 30
0.0
  0
SPLINE
  5
130
100
AcDbEntity
  8
0
 62
1
100
AcDbSpline
 70
8
 71
3
 72
8
 73
4
 74
0
 40
0
 40
0
 40
0
 40
0
 40
1
 40
1
 40
1
 40
1
 10
282.938265
 20
308.450955
 30
0.0
 10
276.245437
 20
311.247390
 30
0.0
 10
269.476717
 20
306.843142
 30
0.0
 10
270.358912
 20
300.265868
 30
0.0
  0
SPLINE
  5
131
100
AcDbEntity
  8
0
 62
1
100
AcDbSpline
 70
8
 71
3
 72
8
 73
4
 74
0
 40
0
 40
0
 40
0
 40
0
 40
1
 40
1
 40
1
 40
1
 10
270.358912
 20
300.265868
 30
0.0
 10
271.062000
 20
295.023982
 30
0.0
 10
277.752502
 20
291.642772
 30
0.0
 10
282.516750
 20
294.121605
 30
0.0
  0
LWPOLYLINE
  5
132
100
AcDbEntity
  8
0
 62
1
100
AcDbPolyline
 90
24
 70
1
 10
187.720335
 20
301.000005
 30
0.0
 10
187.720335
 20
308.711865
 30
0.0
 10
196.025422
 20
308.711865
 30
0.0
 10
204.330510
 20
308.711865
 30
0.0
 10
204.330510
 20
317.016953
 30
0.0
 10
204.330510
 20
325.322032
 30
0.0
 10
196.025422
 20
325.322032
 30
0.0
 10
187.720335
 20
325.322032
 30
0.0
 10
187.720335
 20
333.033900
 30
0.0
 10
187.720335
 20
340.745767
 30
0.0
 10
179.118645
 20
340.745767
 30
0.0
 10
170.516948
 20
340.745767
 30
0.0
 10
170.516948
 20
333.033900
 30
0.0
 10
170.516948
 20
325.322032
 30
0.0
 10
162.211867
 20
325.322032
 30
0.0
 10
153.906780
 20
325.322032
 30
0.0
 10
153.906780
 20
317.016953
 30
0.0
 10
153.906780
 20
308.711865
 30
0.0
 10
162.211867
 20
308.711865
 30
0.0
 10
170.516948
 20
308.711865
 30
0.0
 10
170.516948
 20
301.000005
 30
0.0
 10
170.516948
 20
293.288138
 30
0.0
 10
179.118645
 20
293.288138
 30
0.0
 10
187.720335
 20
293.288138
 30
0.0
  0
SPLINE
  5
133
100
AcDbEntity
  8
0
 62
1
100
AcDbSpline
 70
8
 71
3
 72
8
 73
4
 74
0
 40
0
 40
0
 40
0
 40
0
 40
1
 40
1
 40
1
 40
1
 10
266.021070
 20
309.669165
 30
0.0
 10
274.290480
 20
312.977933
 30
0.0
 10
271.617885
 20
324.845145
 30
0.0
 10
262.572540
 20
324.981780
 30
0.0
  0
SPLINE
  5
134
100
AcDbEntity
  8
0
 62
1
100
AcDbSpline
 70
8
 71
3
 72
8
 73
4
 74
0
 40
0
 40
0
 40
0
 40
0
 40
1
 40
1
 40
1
 40
1
 10
262.572540
 20
324.981780
 30
0.0
 10
257.385457
 20
325.060133
 30
0.0
 10
254.169255
 20
321.957705
 30
0.0
 10
254.065237
 20
316.775422
 30
0.0
  0
SPLINE
  5
135
100
AcDbEntity
  8
0
 62
1
100
AcDbSpline
 70
8
 71
3
 72
8
 73
4
 74
0
 40
0
 40
0
 40
0
 40
0
 40
1
 40
1
 40
1
 40
1
 10
254.065237
 20
316.775422
 30
0.0
 10
253.940377
 20
310.554960
 30
0.0
 10
259.691557
 20
307.136602
 30
0.0
 10
266.021070
 20
309.669165
 30
0.0
  0
LWPOLYLINE
  5
136
100
AcDbEntity
  8
0
 62
1
100
AcDbPolyline
 90
1
 70
1
 10
282.516750
 20
294.121605
 30
0.0
  0
SPLINE
  5
137
100
AcDbEntity
  8
0
 62
1
100
AcDbSpline
 70
8
 71
3
 72
8
 73
4
 74
0
 40
0
 40
0
 40
0
 40
0
 40
1
 40
1
 40
1
 40
1
 10
299.717347
 20
309.983010
 30
0.0
 10
302.984482
 20
311.564602
 30
0.0
 10
304.246095
 20
314.158905
 30
0.0
 10
303.833947
 20
318.448163
 30
0.0
  0
SPLINE
  5
138
100
AcDbEntity
  8
0
 62
1
100
AcDbSpline
 70
8
 71
3
 72
8
 73
4
 74
0
 40
0
 40
0
 40
0
 40
0
 40
1
 40
1
 40
1
 40
1
 10
303.833947
 20
318.448163
 30
0.0
 10
303.618630
 20
320.688998
 30
0.0
 10
303.174322
 20
321.720015
 30
0.0
 10
301.981980
 20
322.745625
 30
0.0
  0
SPLINE
  5
139
100
AcDbEntity
  8
0
 62
1
100
AcDbSpline
 70
8
 71
3
 72
8
 73
4
 74
0
 40
0
 40
0
 40
0
 40
0
 40
1
 40
1
 40
1
 40
1
 10
301.981980
 20
322.745625
 30
0.0
 10
297.007342
 20
327.024623
 30
0.0
 10
289.107540
 20
325.070783
 30
0.0
 10
287.474835
 20
319.157610
 30
0.0
  0
SPLINE
  5
13a
100
AcDbEntity
  8
0
 62
1
100
AcDbSpline
 70
8
 71
3
 72
8
 73
4
 74
0
 40
0
 40
0
 40
0
 40
0
 40
1
 40
1
 40
1
 40
1
 10
287.474835
 20
319.157610
 30
0.0
 10
286.405642
 20
315.285323
 30
0.0
 10
288.143017
 20
311.489550
 30
0.0
 10
291.730065
 20
309.860903
 30
0.0
  0
SPLINE
  5
13b
100
AcDbEntity
  8
0
 62
1
100
AcDbSpline
 70
8
 71
3
 72
8
 73
4
 74
0
 40
0
 40
0
 40
0
 40
0
 40
1
 40
1
 40
1
 40
1
 10
291.730065
 20
309.860903
 30
0.0
 10
294.934350
 20
308.406038
 30
0.0
 10
296.509507
 20
308.430120
 30
0.0
 10
299.717347
 20
309.983010
 30
0.0
  0
LWPOLYLINE
  5
13c
100
AcDbEntity
  8
0
 62
1
100
AcDbPolyline
 90
1
 70
1
 10
266.021070
 20
309.669165
 30
0.0
  0
SPLINE
  5
13d
100
AcDbEntity
  8
0
 62
1
100
AcDbSpline
 70
8
 71
3
 72
8
 73
4
 74
0
 40
0
 40
0
 40
0
 40
0
 40
1
 40
1
 40
1
 40
1
 10
283.610205
 20
325.698638
 30
0.0
 10
286.196955
 20
326.926132
 30
0.0
 10
287.381355
 20
329.206358
 30
0.0
 10
287.381355
 20
332.958923
 30
0.0
  0
SPLINE
  5
13e
100
AcDbEntity
  8
0
 62
1
100
AcDbSpline
 70
8
 71
3
 72
8
 73
4
 74
0
 40
0
 40
0
 40
0
 40
0
 40
1
 40
1
 40
1
 40
1
 10
287.381355
 20
332.958923
 30
0.0
 10
287.381355
 20
338.200463
 30
0.0
 10
283.227517
 20
341.325075
 30
0.0
 10
277.417658
 20
340.453838
 30
0.0
  0
SPLINE
  5
13f
100
AcDbEntity
  8
0
 62
1
100
AcDbSpline
 70
8
 71
3
 72
8
 73
4
 74
0
 40
0
 40
0
 40
0
 40
0
 40
1
 40
1
 40
1
 40
1
 10
277.417658
 20
340.453838
 30
0.0
 10
269.957115
 20
339.335055
 30
0.0
 10
267.791580
 20
329.136495
 30
0.0
 10
274.267193
 20
325.616813
 30
0.0
  0
SPLINE
  5
140
100
AcDbEntity
  8
0
 62
1
100
AcDbSpline
 70
8
 71
3
 72
8
 73
4
 74
0
 40
0
 40
0
 40
0
 40
0
 40
1
 40
1
 40
1
 40
1
 10
274.267193
 20
325.616813
 30
0.0
 10
276.367478
 20
324.475245
 30
0.0
 10
281.119807
 20
324.516863
 30
0.0
 10
283.610205
 20
325.698638
 30
0.0
  0
LWPOLYLINE
  5
141
100
AcDbEntity
  8
0
 62
1
100
AcDbPolyline
 90
1
 70
1
 10
299.717347
 20
309.983010
 30
0.0
  0
SPLINE
  5
142
100
AcDbEntity
  8
0
 62
1
100
AcDbSpline
 70
8
 71
3
 72
8
 73
4
 74
0
 40
0
 40
0
 40
0
 40
0
 40
1
 40
1
 40
1
 40
1
 10
161.949578
 20
161.108145
 30
0.0
 10
162.476258
 20
162.767565
 30
0.0
 10
180.943740
 20
206.286645
 30
0.0
 10
181.800878
 20
207.888210
 30
0.0
  0
SPLINE
  5
143
100
AcDbEntity
  8
0
 62
1
100
AcDbSpline
 70
8
 71
3
 72
8
 73
4
 74
0
 40
0
 40
0
 40
0
 40
0
 40
1
 40
1
 40
1
 40
1
 10
181.800878
 20
207.888210
 30
0.0
 10
182.390595
 20
208.990117
 30
0.0
 10
182.930385
 20
209.078565
 30
0.0
 10
188.119928
 20
208.923637
 30
0.0
  0
LWPOLYLINE
  5
144
100
AcDbEntity
  8
0
 62
1
100
AcDbPolyline
 90
1
 70
1
 10
283.610205
 20
325.698638
 30
0.0
  0
SPLINE
  5
145
100
AcDbEntity
  8
0
 62
1
100
AcDbSpline
 70
8
 71
3
 72
8
 73
4
 74
0
 40
0
 40
0
 40
0
 40
0
 40
1
 40
1
 40
1
 40
1
 10
198.808665
 20
197.483047
 30
0.0
 10
206.938148
 20
179.210183
 30
0.0
 10
214.261987
 20
162.417427
 30
0.0
 10
214.689960
 20
161.069010
 30
0.0
  0
SPLINE
  5
146
100
AcDbEntity
  8
0
 62
1
100
AcDbSpline
 70
8
 71
3
 72
8
 73
4
 74
0
 40
0
 40
0
 40
0
 40
0
 40
1
 40
1
 40
1
 40
1
 10
214.689960
 20
161.069010
 30
0.0
 10
215.077275
 20
159.848700
 30
0.0
 10
214.925415
 20
159.813593
 30
0.0
 10
209.264550
 20
159.814777
 30
0.0
  0
LWPOLYLINE
  5
147
100
AcDbEntity
  8
0
 62
1
100
AcDbPolyline
 90
3
 70
0
 10
188.119928
 20
208.923637
 30
0.0
 10
193.794187
 20
208.754235
 30
0.0
 10
198.808665
 20
197.483047
 30
0.0
  0
SPLINE
  5
148
100
AcDbEntity
  8
0
 62
1
100
AcDbSpline
 70
8
 71
3
 72
8
 73
4
 74
0
 40
0
 40
0
 40
0
 40
0
 40
1
 40
1
 40
1
 40
1
 10
167.129775
 20
159.813848
 30
0.0
 10
161.652967
 20
159.813848
 30
0.0
 10
161.547090
 20
159.840323
 30
0.0
 10
161.949578
 20
161.108430
 30
0.0
  0
LWPOLYLINE
  5
149
100
AcDbEntity
  8
0
 62
1
100
AcDbPolyline
 90
9
 70
0
 10
209.264550
 20
159.814777
 30
0.0
 10
203.440680
 20
159.816278
 30
0.0
 10
201.321323
 20
165.005738
 30
0.0
 10
199.201972
 20
170.195198
 30
0.0
 10
188.179725
 20
170.356380
 30
0.0
 10
177.157477
 20
170.517570
 30
0.0
 10
174.939165
 20
165.165705
 30
0.0
 10
172.720852
 20
159.813848
 30
0.0
 10
167.129775
 20
159.813848
 30
0.0
  0
SPLINE
  5
14a
100
AcDbEntity
  8
0
 62
1
100
AcDbSpline
 70
8
 71
3
 72
8
 73
4
 74
0
 40
0
 40
0
 40
0
 40
0
 40
1
 40
1
 40
1
 40
1
 10
195.432203
 20
178.534447
 30
0.0
 10
195.432203
 20
179.244937
 30
0.0
 10
188.799795
 20
195.142372
 30
0.0
 10
188.285828
 20
195.663840
 30
0.0
  0
SPLINE
  5
14b
100
AcDbEntity
  8
0
 62
1
100
AcDbSpline
 70
8
 71
3
 72
8
 73
4
 74
0
 40
0
 40
0
 40
0
 40
0
 40
1
 40
1
 40
1
 40
1
 10
188.285828
 20
195.663840
 30
0.0
 10
187.485008
 20
196.476337
 30
0.0
 10
187.318035
 20
196.183132
 30
0.0
 10
184.205385
 20
188.498783
 30
0.0
  0
SPLINE
  5
14c
100
AcDbEntity
  8
0
 62
1
100
AcDbSpline
 70
8
 71
3
 72
8
 73
4
 74
0
 40
0
 40
0
 40
0
 40
0
 40
1
 40
1
 40
1
 40
1
 10
184.205385
 20
188.498783
 30
0.0
 10
180.154928
 20
178.499220
 30
0.0
 10
180.241545
 20
178.926772
 30
0.0
 10
182.206395
 20
178.630860
 30
0.0
  0
SPLINE
  5
14d
100
AcDbEntity
  8
0
 62
1
100
AcDbSpline
 70
8
 71
3
 72
8
 73
4
 74
0
 40
0
 40
0
 40
0
 40
0
 40
1
 40
1
 40
1
 40
1
 10
182.206395
 20
178.630860
 30
0.0
 10
184.789672
 20
178.241805
 30
0.0
 10
195.432203
 20
178.164225
 30
0.0
 10
195.432203
 20
178.534447
 30
0.0
  0
LWPOLYLINE
  5
14e
100
AcDbEntity
  8
0
 62
1
100
AcDbPolyline
 90
2
 70
0
 10
161.949578
 20
161.108430
 30
0.0
 10
161.949578
 20
161.108145
 30
0.0
  0
LWPOLYLINE
  5
14f
100
AcDbEntity
  8
0
 62
1
100
AcDbPolyline
 90
1
 70
1
 10
195.432203
 20
178.534447
 30
0.0
  0
SPLINE
  5
150
100
AcDbEntity
  8
0
 62
1
100
AcDbSpline
 70
8
 71
3
 72
8
 73
4
 74
0
 40
0
 40
0
 40
0
 40
0
 40
1
 40
1
 40
1
 40
1
 10
239.182200
 20
208.920007
 30
0.0
 10
250.851983
 20
208.748280
 30
0.0
 10
256.799235
 20
208.437187
 30
0.0
 10
258.016950
 20
207.934792
 30
0.0
  0
SPLINE
  5
151
100
AcDbEntity
  8
0
 62
1
100
AcDbSpline
 70
8
 71
3
 72
8
 73
4
 74
0
 40
0
 40
0
 40
0
 40
0
 40
1
 40
1
 40
1
 40
1
 10
258.016950
 20
207.934792
 30
0.0
 10
260.543370
 20
206.892457
 30
0.0
 10
264.195870
 20
203.233747
 30
0.0
 10
265.489890
 20
200.449155
 30
0.0
  0
SPLINE
  5
152
100
AcDbEntity
  8
0
 62
1
100
AcDbSpline
 70
8
 71
3
 72
8
 73
4
 74
0
 40
0
 40
0
 40
0
 40
0
 40
1
 40
1
 40
1
 40
1
 10
265.489890
 20
200.449155
 30
0.0
 10
266.835968
 20
197.552550
 30
0.0
 10
266.893200
 20
195.360217
 30
0.0
 10
265.725420
 20
191.427870
 30
0.0
  0
SPLINE
  5
153
100
AcDbEntity
  8
0
 62
1
100
AcDbSpline
 70
8
 71
3
 72
8
 73
4
 74
0
 40
0
 40
0
 40
0
 40
0
 40
1
 40
1
 40
1
 40
1
 10
265.725420
 20
191.427870
 30
0.0
 10
264.682267
 20
187.915192
 30
0.0
 10
261.473970
 20
184.670467
 30
0.0
 10
257.199735
 20
182.805390
 30
0.0
  0
SPLINE
  5
154
100
AcDbEntity
  8
0
 62
1
100
AcDbSpline
 70
8
 71
3
 72
8
 73
4
 74
0
 40
0
 40
0
 40
0
 40
0
 40
1
 40
1
 40
1
 40
1
 10
257.199735
 20
182.805390
 30
0.0
 10
255.691575
 20
182.147295
 30
0.0
 10
254.355653
 20
181.519252
 30
0.0
 10
254.231010
 20
181.409730
 30
0.0
  0
SPLINE
  5
155
100
AcDbEntity
  8
0
 62
1
100
AcDbSpline
 70
8
 71
3
 72
8
 73
4
 74
0
 40
0
 40
0
 40
0
 40
0
 40
1
 40
1
 40
1
 40
1
 10
254.231010
 20
181.409730
 30
0.0
 10
254.106368
 20
181.300215
 30
0.0
 10
255.400590
 20
179.682945
 30
0.0
 10
257.107050
 20
177.815805
 30
0.0
  0
SPLINE
  5
156
100
AcDbEntity
  8
0
 62
1
100
AcDbSpline
 70
8
 71
3
 72
8
 73
4
 74
0
 40
0
 40
0
 40
0
 40
0
 40
1
 40
1
 40
1
 40
1
 10
257.107050
 20
177.815805
 30
0.0
 10
260.291153
 20
174.331882
 30
0.0
 10
265.552582
 20
167.567550
 30
0.0
 10
268.857720
 20
162.708607
 30
0.0
  0
LWPOLYLINE
  5
157
100
AcDbEntity
  8
0
 62
1
100
AcDbPolyline
 90
3
 70
0
 10
222.127117
 20
184.224540
 30
0.0
 10
222.127117
 20
209.170980
 30
0.0
 10
239.182200
 20
208.920007
 30
0.0
  0
SPLINE
  5
158
100
AcDbEntity
  8
0
 62
1
100
AcDbSpline
 70
8
 71
3
 72
8
 73
4
 74
0
 40
0
 40
0
 40
0
 40
0
 40
1
 40
1
 40
1
 40
1
 10
267.994245
 20
159.594202
 30
0.0
 10
266.494042
 20
159.388575
 30
0.0
 10
263.623620
 20
159.220343
 30
0.0
 10
261.615525
 20
159.220343
 30
0.0
  0
LWPOLYLINE
  5
159
100
AcDbEntity
  8
0
 62
1
100
AcDbPolyline
 90
3
 70
0
 10
268.857720
 20
162.708607
 30
0.0
 10
270.721882
 20
159.968070
 30
0.0
 10
267.994245
 20
159.594202
 30
0.0
  0
SPLINE
  5
15a
100
AcDbEntity
  8
0
 62
1
100
AcDbSpline
 70
8
 71
3
 72
8
 73
4
 74
0
 40
0
 40
0
 40
0
 40
0
 40
1
 40
1
 40
1
 40
1
 10
254.134762
 20
164.401215
 30
0.0
 10
243.805830
 20
178.374435
 30
0.0
 10
242.536522
 20
179.515335
 30
0.0
 10
236.593343
 20
180.168075
 30
0.0
  0
LWPOLYLINE
  5
15b
100
AcDbEntity
  8
0
 62
1
100
AcDbPolyline
 90
3
 70
0
 10
261.615525
 20
159.220343
 30
0.0
 10
257.964443
 20
159.220343
 30
0.0
 10
254.134762
 20
164.401215
 30
0.0
  0
SPLINE
  5
15c
100
AcDbEntity
  8
0
 62
1
100
AcDbSpline
 70
8
 71
3
 72
8
 73
4
 74
0
 40
0
 40
0
 40
0
 40
0
 40
1
 40
1
 40
1
 40
1
 10
233.129752
 20
170.305718
 30
0.0
 10
232.893360
 20
164.698170
 30
0.0
 10
232.656862
 20
160.080398
 30
0.0
 10
232.604205
 20
160.044008
 30
0.0
  0
SPLINE
  5
15d
100
AcDbEntity
  8
0
 62
1
100
AcDbSpline
 70
8
 71
3
 72
8
 73
4
 74
0
 40
0
 40
0
 40
0
 40
0
 40
1
 40
1
 40
1
 40
1
 10
232.604205
 20
160.044008
 30
0.0
 10
232.551555
 20
160.007632
 30
0.0
 10
230.172667
 20
159.820403
 30
0.0
 10
227.317800
 20
159.627968
 30
0.0
  0
LWPOLYLINE
  5
15e
100
AcDbEntity
  8
0
 62
1
100
AcDbPolyline
 90
3
 70
0
 10
236.593343
 20
180.168075
 30
0.0
 10
233.559577
 20
180.501270
 30
0.0
 10
233.129752
 20
170.305718
 30
0.0
  0
SPLINE
  5
15f
100
AcDbEntity
  8
0
 62
1
100
AcDbSpline
 70
8
 71
3
 72
8
 73
4
 74
0
 40
0
 40
0
 40
0
 40
0
 40
1
 40
1
 40
1
 40
1
 10
246.972135
 20
188.868788
 30
0.0
 10
253.040385
 20
189.566453
 30
0.0
 10
254.509515
 20
190.422983
 30
0.0
 10
255.041805
 20
193.573575
 30
0.0
  0
SPLINE
  5
160
100
AcDbEntity
  8
0
 62
1
100
AcDbSpline
 70
8
 71
3
 72
8
 73
4
 74
0
 40
0
 40
0
 40
0
 40
0
 40
1
 40
1
 40
1
 40
1
 10
255.041805
 20
193.573575
 30
0.0
 10
255.981488
 20
199.135515
 30
0.0
 10
253.331932
 20
200.530523
 30
0.0
 10
240.665258
 20
201.142905
 30
0.0
  0
LWPOLYLINE
  5
161
100
AcDbEntity
  8
0
 62
1
100
AcDbPolyline
 90
3
 70
0
 10
227.317800
 20
159.627968
 30
0.0
 10
222.127117
 20
159.278093
 30
0.0
 10
222.127117
 20
184.224540
 30
0.0
  0
SPLINE
  5
162
100
AcDbEntity
  8
0
 62
1
100
AcDbSpline
 70
8
 71
3
 72
8
 73
4
 74
0
 40
0
 40
0
 40
0
 40
0
 40
1
 40
1
 40
1
 40
1
 10
237.402540
 20
188.292638
 30
0.0
 10
239.931142
 20
188.294888
 30
0.0
 10
244.237462
 20
188.554380
 30
0.0
 10
246.972135
 20
188.868780
 30
0.0
  0
LWPOLYLINE
  5
163
100
AcDbEntity
  8
0
 62
1
100
AcDbPolyline
 90
5
 70
0
 10
240.665258
 20
201.142905
 30
0.0
 10
232.805085
 20
201.522915
 30
0.0
 10
232.805085
 20
194.905530
 30
0.0
 10
232.805085
 20
188.288138
 30
0.0
 10
237.402540
 20
188.292638
 30
0.0
  0
LWPOLYLINE
  5
164
100
AcDbEntity
  8
0
 62
1
100
AcDbPolyline
 90
1
 70
1
 10
246.972135
 20
188.868780
 30
0.0
  0
SPLINE
  5
165
100
AcDbEntity
  8
0
 62
1
100
AcDbSpline
 70
8
 71
3
 72
8
 73
4
 74
0
 40
0
 40
0
 40
0
 40
0
 40
1
 40
1
 40
1
 40
1
 10
312.148305
 20
201.727073
 30
0.0
 10
309.456570
 20
201.517538
 30
0.0
 10
305.852753
 20
201.344498
 30
0.0
 10
304.139828
 20
201.342540
 30
0.0
  0
LWPOLYLINE
  5
166
100
AcDbEntity
  8
0
 62
1
100
AcDbPolyline
 90
11
 70
0
 10
289.020300
 20
180.131355
 30
0.0
 10
288.864405
 20
201.042375
 30
0.0
 10
281.300850
 20
201.208403
 30
0.0
 10
273.737288
 20
201.374430
 30
0.0
 10
273.737288
 20
205.212637
 30
0.0
 10
273.737288
 20
209.050845
 30
0.0
 10
295.389833
 20
209.050845
 30
0.0
 10
317.042370
 20
209.050845
 30
0.0
 10
317.042370
 20
205.579448
 30
0.0
 10
317.042370
 20
202.108058
 30
0.0
 10
312.148305
 20
201.727073
 30
0.0
  0
SPLINE
  5
167
100
AcDbEntity
  8
0
 62
1
100
AcDbSpline
 70
8
 71
3
 72
8
 73
4
 74
0
 40
0
 40
0
 40
0
 40
0
 40
1
 40
1
 40
1
 40
1
 10
94.788660
 20
76.194060
 30
0.0
 10
88.072380
 20
77.522828
 30
0.0
 10
82.018447
 20
83.566995
 30
0.0
 10
80.755260
 20
90.204817
 30
0.0
  0
SPLINE
  5
168
100
AcDbEntity
  8
0
 62
1
100
AcDbSpline
 70
8
 71
3
 72
8
 73
4
 74
0
 40
0
 40
0
 40
0
 40
0
 40
1
 40
1
 40
1
 40
1
 10
80.755260
 20
90.204817
 30
0.0
 10
80.310592
 20
92.541503
 30
0.0
 10
80.841075
 20
92.780123
 30
0.0
 10
86.476485
 20
92.778255
 30
0.0
  0
LWPOLYLINE
  5
169
100
AcDbEntity
  8
0
 62
1
100
AcDbPolyline
 90
7
 70
0
 10
304.139828
 20
201.342540
 30
0.0
 10
301.025423
 20
201.338790
 30
0.0
 10
301.025423
 20
180.279465
 30
0.0
 10
301.025423
 20
159.220148
 30
0.0
 10
295.100813
 20
159.220148
 30
0.0
 10
289.176195
 20
159.220148
 30
0.0
 10
289.020300
 20
180.131355
 30
0.0
  0
SPLINE
  5
16a
100
AcDbEntity
  8
0
 62
1
100
AcDbSpline
 70
8
 71
3
 72
8
 73
4
 74
0
 40
0
 40
0
 40
0
 40
0
 40
1
 40
1
 40
1
 40
1
 10
92.477542
 20
89.430173
 30
0.0
 10
94.895895
 20
84.802118
 30
0.0
 10
97.563862
 20
83.603813
 30
0.0
 10
104.487907
 20
84.035790
 30
0.0
  0
SPLINE
  5
16b
100
AcDbEntity
  8
0
 62
1
100
AcDbSpline
 70
8
 71
3
 72
8
 73
4
 74
0
 40
0
 40
0
 40
0
 40
0
 40
1
 40
1
 40
1
 40
1
 10
104.487907
 20
84.035790
 30
0.0
 10
110.110388
 20
84.386565
 30
0.0
 10
111.737130
 20
85.181422
 30
0.0
 10
113.217623
 20
88.301325
 30
0.0
  0
SPLINE
  5
16c
100
AcDbEntity
  8
0
 62
1
100
AcDbSpline
 70
8
 71
3
 72
8
 73
4
 74
0
 40
0
 40
0
 40
0
 40
0
 40
1
 40
1
 40
1
 40
1
 10
113.217623
 20
88.301325
 30
0.0
 10
115.252868
 20
92.590283
 30
0.0
 10
113.350980
 20
94.043385
 30
0.0
 10
101.122485
 20
97.542435
 30
0.0
  0
SPLINE
  5
16d
100
AcDbEntity
  8
0
 62
1
100
AcDbSpline
 70
8
 71
3
 72
8
 73
4
 74
0
 40
0
 40
0
 40
0
 40
0
 40
1
 40
1
 40
1
 40
1
 10
101.122485
 20
97.542435
 30
0.0
 10
91.019123
 20
100.433407
 30
0.0
 10
88.997895
 20
101.385038
 30
0.0
 10
86.064420
 20
104.632043
 30
0.0
  0
SPLINE
  5
16e
100
AcDbEntity
  8
0
 62
1
100
AcDbSpline
 70
8
 71
3
 72
8
 73
4
 74
0
 40
0
 40
0
 40
0
 40
0
 40
1
 40
1
 40
1
 40
1
 10
86.064420
 20
104.632043
 30
0.0
 10
83.350530
 20
107.635995
 30
0.0
 10
82.720343
 20
109.215068
 30
0.0
 10
82.720343
 20
113.011327
 30
0.0
  0
SPLINE
  5
16f
100
AcDbEntity
  8
0
 62
1
100
AcDbSpline
 70
8
 71
3
 72
8
 73
4
 74
0
 40
0
 40
0
 40
0
 40
0
 40
1
 40
1
 40
1
 40
1
 10
82.720343
 20
113.011327
 30
0.0
 10
82.720343
 20
118.180102
 30
0.0
 10
85.852208
 20
122.438535
 30
0.0
 10
91.498973
 20
124.947735
 30
0.0
  0
SPLINE
  5
170
100
AcDbEntity
  8
0
 62
1
100
AcDbSpline
 70
8
 71
3
 72
8
 73
4
 74
0
 40
0
 40
0
 40
0
 40
0
 40
1
 40
1
 40
1
 40
1
 10
91.498973
 20
124.947735
 30
0.0
 10
93.729803
 20
125.939032
 30
0.0
 10
95.220870
 20
126.057165
 30
0.0
 10
103.417508
 20
125.892045
 30
0.0
  0
LWPOLYLINE
  5
171
100
AcDbEntity
  8
0
 62
1
100
AcDbPolyline
 90
3
 70
0
 10
86.476485
 20
92.778255
 30
0.0
 10
90.728812
 20
92.776755
 30
0.0
 10
92.477542
 20
89.430173
 30
0.0
  0
SPLINE
  5
172
100
AcDbEntity
  8
0
 62
1
100
AcDbSpline
 70
8
 71
3
 72
8
 73
4
 74
0
 40
0
 40
0
 40
0
 40
0
 40
1
 40
1
 40
1
 40
1
 10
116.107988
 20
123.495997
 30
0.0
 10
119.682653
 20
121.120635
 30
0.0
 10
122.294078
 20
117.434880
 30
0.0
 10
122.856060
 20
113.971815
 30
0.0
  0
SPLINE
  5
173
100
AcDbEntity
  8
0
 62
1
100
AcDbSpline
 70
8
 71
3
 72
8
 73
4
 74
0
 40
0
 40
0
 40
0
 40
0
 40
1
 40
1
 40
1
 40
1
 10
122.856060
 20
113.971815
 30
0.0
 10
123.176663
 20
111.996180
 30
0.0
 10
123.121058
 20
111.927697
 30
0.0
 10
120.898103
 20
111.560452
 30
0.0
  0
SPLINE
  5
174
100
AcDbEntity
  8
0
 62
1
100
AcDbSpline
 70
8
 71
3
 72
8
 73
4
 74
0
 40
0
 40
0
 40
0
 40
0
 40
1
 40
1
 40
1
 40
1
 10
120.898103
 20
111.560452
 30
0.0
 10
119.639738
 20
111.352567
 30
0.0
 10
117.221175
 20
111.179535
 30
0.0
 10
115.523520
 20
111.175942
 30
0.0
  0
SPLINE
  5
175
100
AcDbEntity
  8
0
 62
1
100
AcDbSpline
 70
8
 71
3
 72
8
 73
4
 74
0
 40
0
 40
0
 40
0
 40
0
 40
1
 40
1
 40
1
 40
1
 10
115.523520
 20
111.175942
 30
0.0
 10
112.441073
 20
111.169192
 30
0.0
 10
112.435290
 20
111.172942
 30
0.0
 10
111.274665
 20
113.796787
 30
0.0
  0
SPLINE
  5
176
100
AcDbEntity
  8
0
 62
1
100
AcDbSpline
 70
8
 71
3
 72
8
 73
4
 74
0
 40
0
 40
0
 40
0
 40
0
 40
1
 40
1
 40
1
 40
1
 10
111.274665
 20
113.796787
 30
0.0
 10
109.742295
 20
117.260970
 30
0.0
 10
107.691510
 20
118.288057
 30
0.0
 10
102.307013
 20
118.288057
 30
0.0
  0
SPLINE
  5
177
100
AcDbEntity
  8
0
 62
1
100
AcDbSpline
 70
8
 71
3
 72
8
 73
4
 74
0
 40
0
 40
0
 40
0
 40
0
 40
1
 40
1
 40
1
 40
1
 10
102.307013
 20
118.288057
 30
0.0
 10
97.229910
 20
118.288057
 30
0.0
 10
94.179413
 20
117.166927
 30
0.0
 10
93.663495
 20
115.111365
 30
0.0
  0
SPLINE
  5
178
100
AcDbEntity
  8
0
 62
1
100
AcDbSpline
 70
8
 71
3
 72
8
 73
4
 74
0
 40
0
 40
0
 40
0
 40
0
 40
1
 40
1
 40
1
 40
1
 10
93.663495
 20
115.111365
 30
0.0
 10
92.680260
 20
111.193845
 30
0.0
 10
94.470795
 20
109.925565
 30
0.0
 10
105.123698
 20
106.993792
 30
0.0
  0
SPLINE
  5
179
100
AcDbEntity
  8
0
 62
1
100
AcDbSpline
 70
8
 71
3
 72
8
 73
4
 74
0
 40
0
 40
0
 40
0
 40
0
 40
1
 40
1
 40
1
 40
1
 10
105.123698
 20
106.993792
 30
0.0
 10
118.663778
 20
103.267455
 30
0.0
 10
122.193585
 20
100.982587
 30
0.0
 10
123.997748
 20
94.776502
 30
0.0
  0
SPLINE
  5
17a
100
AcDbEntity
  8
0
 62
1
100
AcDbSpline
 70
8
 71
3
 72
8
 73
4
 74
0
 40
0
 40
0
 40
0
 40
0
 40
1
 40
1
 40
1
 40
1
 10
123.997748
 20
94.776502
 30
0.0
 10
126.489758
 20
86.204265
 30
0.0
 10
121.087763
 20
78.310230
 30
0.0
 10
111.314025
 20
76.241557
 30
0.0
  0
SPLINE
  5
17b
100
AcDbEntity
  8
0
 62
1
100
AcDbSpline
 70
8
 71
3
 72
8
 73
4
 74
0
 40
0
 40
0
 40
0
 40
0
 40
1
 40
1
 40
1
 40
1
 10
111.314025
 20
76.241557
 30
0.0
 10
107.753850
 20
75.488025
 30
0.0
 10
98.491718
 20
75.461363
 30
0.0
 10
94.788660
 20
76.194007
 30
0.0
  0
LWPOLYLINE
  5
17c
100
AcDbEntity
  8
0
 62
1
100
AcDbPolyline
 90
3
 70
0
 10
103.417508
 20
125.892045
 30
0.0
 10
112.786215
 20
125.703315
 30
0.0
 10
116.107988
 20
123.495997
 30
0.0
  0
LWPOLYLINE
  5
17d
100
AcDbEntity
  8
0
 62
1
100
AcDbPolyline
 90
1
 70
1
 10
94.788660
 20
76.194007
 30
0.0
  0
SPLINE
  5
17e
100
AcDbEntity
  8
0
 62
1
100
AcDbSpline
 70
8
 71
3
 72
8
 73
4
 74
0
 40
0
 40
0
 40
0
 40
0
 40
1
 40
1
 40
1
 40
1
 10
144.341100
 20
117.917370
 30
0.0
 10
143.321505
 20
118.121295
 30
0.0
 10
139.717687
 20
118.288133
 30
0.0
 10
136.332630
 20
118.288133
 30
0.0
  0
LWPOLYLINE
  5
17f
100
AcDbEntity
  8
0
 62
1
100
AcDbPolyline
 90
3
 70
0
 10
146.194912
 20
96.858052
 30
0.0
 10
146.194912
 20
117.546607
 30
0.0
 10
144.341100
 20
117.917370
 30
0.0
  0
SPLINE
  5
180
100
AcDbEntity
  8
0
 62
1
100
AcDbSpline
 70
8
 71
3
 72
8
 73
4
 74
0
 40
0
 40
0
 40
0
 40
0
 40
1
 40
1
 40
1
 40
1
 10
170.655480
 20
77.207625
 30
0.0
 10
170.807775
 20
77.778600
 30
0.0
 10
175.424782
 20
88.856992
 30
0.0
 10
180.915480
 20
101.826270
 30
0.0
  0
LWPOLYLINE
  5
181
100
AcDbEntity
  8
0
 62
1
100
AcDbPolyline
 90
15
 70
0
 10
136.332630
 20
118.288133
 30
0.0
 10
130.177965
 20
118.288133
 30
0.0
 10
130.177965
 20
122.144070
 30
0.0
 10
130.177965
 20
126.000000
 30
0.0
 10
152.127120
 20
126.000000
 30
0.0
 10
174.076267
 20
126.000000
 30
0.0
 10
174.076267
 20
122.144070
 30
0.0
 10
174.076267
 20
118.288133
 30
0.0
 10
165.771187
 20
118.288133
 30
0.0
 10
157.466100
 20
118.288133
 30
0.0
 10
157.466100
 20
97.228815
 30
0.0
 10
157.466100
 20
76.169490
 30
0.0
 10
151.830510
 20
76.169490
 30
0.0
 10
146.194913
 20
76.169490
 30
0.0
 10
146.194912
 20
96.858052
 30
0.0
  0
SPLINE
  5
182
100
AcDbEntity
  8
0
 62
1
100
AcDbSpline
 70
8
 71
3
 72
8
 73
4
 74
0
 40
0
 40
0
 40
0
 40
0
 40
1
 40
1
 40
1
 40
1
 10
213.474802
 20
101.388765
 30
0.0
 10
219.255938
 20
88.178857
 30
0.0
 10
223.818915
 20
77.100465
 30
0.0
 10
223.614750
 20
76.770120
 30
0.0
  0
SPLINE
  5
183
100
AcDbEntity
  8
0
 62
1
100
AcDbSpline
 70
8
 71
3
 72
8
 73
4
 74
0
 40
0
 40
0
 40
0
 40
0
 40
1
 40
1
 40
1
 40
1
 10
223.614750
 20
76.770120
 30
0.0
 10
223.210770
 20
76.116472
 30
0.0
 10
217.752502
 20
75.973890
 30
0.0
 10
214.396035
 20
76.529302
 30
0.0
  0
SPLINE
  5
184
100
AcDbEntity
  8
0
 62
1
100
AcDbSpline
 70
8
 71
3
 72
8
 73
4
 74
0
 40
0
 40
0
 40
0
 40
0
 40
1
 40
1
 40
1
 40
1
 10
214.396035
 20
76.529302
 30
0.0
 10
212.401552
 20
76.859340
 30
0.0
 10
212.199315
 20
77.123527
 30
0.0
 10
210.200407
 20
82.010062
 30
0.0
  0
LWPOLYLINE
  5
185
100
AcDbEntity
  8
0
 62
1
100
AcDbPolyline
 90
5
 70
0
 10
180.915480
 20
101.826270
 30
0.0
 10
190.898580
 20
125.406780
 30
0.0
 10
196.931115
 20
125.406780
 30
0.0
 10
202.963650
 20
125.406780
 30
0.0
 10
213.474802
 20
101.388765
 30
0.0
  0
SPLINE
  5
186
100
AcDbEntity
  8
0
 62
1
100
AcDbSpline
 70
8
 71
3
 72
8
 73
4
 74
0
 40
0
 40
0
 40
0
 40
0
 40
1
 40
1
 40
1
 40
1
 10
184.028332
 20
82.267740
 30
0.0
 10
181.606342
 20
76.349647
 30
0.0
 10
181.562040
 20
76.320817
 30
0.0
 10
174.748605
 20
76.228620
 30
0.0
  0
SPLINE
  5
187
100
AcDbEntity
  8
0
 62
1
100
AcDbSpline
 70
8
 71
3
 72
8
 73
4
 74
0
 40
0
 40
0
 40
0
 40
0
 40
1
 40
1
 40
1
 40
1
 10
174.748605
 20
76.228620
 30
0.0
 10
170.861137
 20
76.176045
 30
0.0
 10
170.409150
 20
76.284120
 30
0.0
 10
170.655480
 20
77.207625
 30
0.0
  0
LWPOLYLINE
  5
188
100
AcDbEntity
  8
0
 62
1
100
AcDbPolyline
 90
5
 70
0
 10
210.200407
 20
82.010062
 30
0.0
 10
208.100272
 20
87.144067
 30
0.0
 10
197.128020
 20
87.305070
 30
0.0
 10
186.155760
 20
87.466065
 30
0.0
 10
184.028332
 20
82.267740
 30
0.0
  0
SPLINE
  5
189
100
AcDbEntity
  8
0
 62
1
100
AcDbSpline
 70
8
 71
3
 72
8
 73
4
 74
0
 40
0
 40
0
 40
0
 40
0
 40
1
 40
1
 40
1
 40
1
 10
204.330510
 20
95.700555
 30
0.0
 10
204.330510
 20
96.483563
 30
0.0
 10
197.799428
 20
111.955882
 30
0.0
 10
197.207648
 20
112.574820
 30
0.0
  0
SPLINE
  5
18a
100
AcDbEntity
  8
0
 62
1
100
AcDbSpline
 70
8
 71
3
 72
8
 73
4
 74
0
 40
0
 40
0
 40
0
 40
0
 40
1
 40
1
 40
1
 40
1
 10
197.207648
 20
112.574820
 30
0.0
 10
196.272832
 20
113.552527
 30
0.0
 10
189.647205
 20
97.763715
 30
0.0
 10
190.289700
 20
96.089400
 30
0.0
  0
SPLINE
  5
18b
100
AcDbEntity
  8
0
 62
1
100
AcDbSpline
 70
8
 71
3
 72
8
 73
4
 74
0
 40
0
 40
0
 40
0
 40
0
 40
1
 40
1
 40
1
 40
1
 10
190.289700
 20
96.089400
 30
0.0
 10
190.588523
 20
95.310682
 30
0.0
 10
191.803905
 20
95.152545
 30
0.0
 10
197.489858
 20
95.152545
 30
0.0
  0
SPLINE
  5
18c
100
AcDbEntity
  8
0
 62
1
100
AcDbSpline
 70
8
 71
3
 72
8
 73
4
 74
0
 40
0
 40
0
 40
0
 40
0
 40
1
 40
1
 40
1
 40
1
 10
197.489858
 20
95.152545
 30
0.0
 10
201.278617
 20
95.152545
 30
0.0
 10
204.330510
 20
95.397037
 30
0.0
 10
204.330510
 20
95.700555
 30
0.0
  0
LWPOLYLINE
  5
18d
100
AcDbEntity
  8
0
 62
1
100
AcDbPolyline
 90
1
 70
1
 10
170.655480
 20
77.207625
 30
0.0
  0
LWPOLYLINE
  5
18e
100
AcDbEntity
  8
0
 62
1
100
AcDbPolyline
 90
1
 70
1
 10
204.330510
 20
95.700555
 30
0.0
  0
SPLINE
  5
18f
100
AcDbEntity
  8
0
 62
1
100
AcDbSpline
 70
8
 71
3
 72
8
 73
4
 74
0
 40
0
 40
0
 40
0
 40
0
 40
1
 40
1
 40
1
 40
1
 10
235.103813
 20
117.917370
 30
0.0
 10
234.084217
 20
118.121295
 30
0.0
 10
230.480400
 20
118.288133
 30
0.0
 10
227.095343
 20
118.288133
 30
0.0
  0
LWPOLYLINE
  5
190
100
AcDbEntity
  8
0
 62
1
100
AcDbPolyline
 90
3
 70
0
 10
236.957625
 20
96.858052
 30
0.0
 10
236.957625
 20
117.546607
 30
0.0
 10
235.103813
 20
117.917370
 30
0.0
  0
LWPOLYLINE
  5
191
100
AcDbEntity
  8
0
 62
1
100
AcDbPolyline
 90
15
 70
0
 10
227.095343
 20
118.288133
 30
0.0
 10
220.940678
 20
118.288133
 30
0.0
 10
220.940678
 20
122.144070
 30
0.0
 10
220.940678
 20
126.000000
 30
0.0
 10
242.918138
 20
126.000000
 30
0.0
 10
264.895598
 20
126.000000
 30
0.0
 10
264.718987
 20
122.292375
 30
0.0
 10
264.542370
 20
118.584743
 30
0.0
 10
256.385595
 20
118.419698
 30
0.0
 10
248.228812
 20
118.254653
 30
0.0
 10
248.228812
 20
97.212075
 30
0.0
 10
248.228812
 20
76.169490
 30
0.0
 10
242.593222
 20
76.169490
 30
0.0
 10
236.957625
 20
76.169490
 30
0.0
 10
236.957625
 20
96.858052
 30
0.0
  0
SPLINE
  5
192
100
AcDbEntity
  8
0
 62
1
100
AcDbSpline
 70
8
 71
3
 72
8
 73
4
 74
0
 40
0
 40
0
 40
0
 40
0
 40
1
 40
1
 40
1
 40
1
 10
308.280600
 20
76.495995
 30
0.0
 10
303.965625
 20
77.657692
 30
0.0
 10
301.909860
 20
78.815655
 30
0.0
 10
298.500083
 20
82.005097
 30
0.0
  0
SPLINE
  5
193
100
AcDbEntity
  8
0
 62
1
100
AcDbSpline
 70
8
 71
3
 72
8
 73
4
 74
0
 40
0
 40
0
 40
0
 40
0
 40
1
 40
1
 40
1
 40
1
 10
298.500083
 20
82.005097
 30
0.0
 10
293.233650
 20
86.931232
 30
0.0
 10
290.567955
 20
94.340445
 30
0.0
 10
291.102015
 20
102.567795
 30
0.0
  0
SPLINE
  5
194
100
AcDbEntity
  8
0
 62
1
100
AcDbSpline
 70
8
 71
3
 72
8
 73
4
 74
0
 40
0
 40
0
 40
0
 40
0
 40
1
 40
1
 40
1
 40
1
 10
291.102015
 20
102.567795
 30
0.0
 10
291.791355
 20
113.187293
 30
0.0
 10
297.570218
 20
121.781040
 30
0.0
 10
306.194850
 20
125.012355
 30
0.0
  0
SPLINE
  5
195
100
AcDbEntity
  8
0
 62
1
100
AcDbSpline
 70
8
 71
3
 72
8
 73
4
 74
0
 40
0
 40
0
 40
0
 40
0
 40
1
 40
1
 40
1
 40
1
 10
306.194850
 20
125.012355
 30
0.0
 10
312.529380
 20
127.385655
 30
0.0
 10
324.079965
 20
126.857798
 30
0.0
 10
330.591795
 20
123.897427
 30
0.0
  0
SPLINE
  5
196
100
AcDbEntity
  8
0
 62
1
100
AcDbSpline
 70
8
 71
3
 72
8
 73
4
 74
0
 40
0
 40
0
 40
0
 40
0
 40
1
 40
1
 40
1
 40
1
 10
330.591795
 20
123.897427
 30
0.0
 10
335.041530
 20
121.874520
 30
0.0
 10
340.295835
 20
116.364690
 30
0.0
 10
341.923328
 20
112.014833
 30
0.0
  0
SPLINE
  5
197
100
AcDbEntity
  8
0
 62
1
100
AcDbSpline
 70
8
 71
3
 72
8
 73
4
 74
0
 40
0
 40
0
 40
0
 40
0
 40
1
 40
1
 40
1
 40
1
 10
341.923328
 20
112.014833
 30
0.0
 10
344.364863
 20
105.489240
 30
0.0
 10
344.109525
 20
95.013915
 30
0.0
 10
341.356845
 20
88.774972
 30
0.0
  0
SPLINE
  5
198
100
AcDbEntity
  8
0
 62
1
100
AcDbSpline
 70
8
 71
3
 72
8
 73
4
 74
0
 40
0
 40
0
 40
0
 40
0
 40
1
 40
1
 40
1
 40
1
 10
341.356845
 20
88.774972
 30
0.0
 10
338.712188
 20
82.780845
 30
0.0
 10
331.281068
 20
77.283840
 30
0.0
 10
324.270120
 20
76.135447
 30
0.0
  0
SPLINE
  5
199
100
AcDbEntity
  8
0
 62
1
100
AcDbSpline
 70
8
 71
3
 72
8
 73
4
 74
0
 40
0
 40
0
 40
0
 40
0
 40
1
 40
1
 40
1
 40
1
 10
324.270120
 20
76.135447
 30
0.0
 10
319.448182
 20
75.345615
 30
0.0
 10
311.923297
 20
75.515295
 30
0.0
 10
308.280600
 20
76.495995
 30
0.0
  0
LWPOLYLINE
  5
19a
100
AcDbEntity
  8
0
 62
1
100
AcDbPolyline
 90
8
 70
1
 10
271.364407
 20
101.084745
 30
0.0
 10
271.364407
 20
126.000000
 30
0.0
 10
276.999998
 20
126.000000
 30
0.0
 10
282.635595
 20
126.000000
 30
0.0
 10
282.635595
 20
101.084745
 30
0.0
 10
282.635595
 20
76.169490
 30
0.0
 10
276.999998
 20
76.169490
 30
0.0
 10
271.364407
 20
76.169490
 30
0.0
  0
SPLINE
  5
19b
100
AcDbEntity
  8
0
 62
1
100
AcDbSpline
 70
8
 71
3
 72
8
 73
4
 74
0
 40
0
 40
0
 40
0
 40
0
 40
1
 40
1
 40
1
 40
1
 10
324.634222
 20
85.153282
 30
0.0
 10
327.548693
 20
86.564153
 30
0.0
 10
330.278010
 20
90.256440
 30
0.0
 10
331.361122
 20
94.253587
 30
0.0
  0
SPLINE
  5
19c
100
AcDbEntity
  8
0
 62
1
100
AcDbSpline
 70
8
 71
3
 72
8
 73
4
 74
0
 40
0
 40
0
 40
0
 40
0
 40
1
 40
1
 40
1
 40
1
 10
331.361122
 20
94.253587
 30
0.0
 10
332.256090
 20
97.556407
 30
0.0
 10
332.173905
 20
106.180305
 30
0.0
 10
331.217070
 20
109.368952
 30
0.0
  0
SPLINE
  5
19d
100
AcDbEntity
  8
0
 62
1
100
AcDbSpline
 70
8
 71
3
 72
8
 73
4
 74
0
 40
0
 40
0
 40
0
 40
0
 40
1
 40
1
 40
1
 40
1
 10
331.217070
 20
109.368952
 30
0.0
 10
330.179078
 20
112.828050
 30
0.0
 10
326.382705
 20
116.774835
 30
0.0
 10
323.271187
 20
117.629632
 30
0.0
  0
SPLINE
  5
19e
100
AcDbEntity
  8
0
 62
1
100
AcDbSpline
 70
8
 71
3
 72
8
 73
4
 74
0
 40
0
 40
0
 40
0
 40
0
 40
1
 40
1
 40
1
 40
1
 10
323.271187
 20
117.629632
 30
0.0
 10
316.784160
 20
119.411767
 30
0.0
 10
310.038712
 20
117.872422
 30
0.0
 10
306.445072
 20
113.789828
 30
0.0
  0
SPLINE
  5
19f
100
AcDbEntity
  8
0
 62
1
100
AcDbSpline
 70
8
 71
3
 72
8
 73
4
 74
0
 40
0
 40
0
 40
0
 40
0
 40
1
 40
1
 40
1
 40
1
 10
306.445072
 20
113.789828
 30
0.0
 10
303.539212
 20
110.488597
 30
0.0
 10
302.491252
 20
106.883467
 30
0.0
 10
302.573092
 20
100.469655
 30
0.0
  0
SPLINE
  5
1a0
100
AcDbEntity
  8
0
 62
1
100
AcDbSpline
 70
8
 71
3
 72
8
 73
4
 74
0
 40
0
 40
0
 40
0
 40
0
 40
1
 40
1
 40
1
 40
1
 10
302.573092
 20
100.469655
 30
0.0
 10
302.672347
 20
92.690595
 30
0.0
 10
305.442172
 20
87.492893
 30
0.0
 10
310.813560
 20
85.006020
 30
0.0
  0
SPLINE
  5
1a1
100
AcDbEntity
  8
0
 62
1
100
AcDbSpline
 70
8
 71
3
 72
8
 73
4
 74
0
 40
0
 40
0
 40
0
 40
0
 40
1
 40
1
 40
1
 40
1
 10
310.813560
 20
85.006020
 30
0.0
 10
314.273587
 20
83.404080
 30
0.0
 10
321.172710
 20
83.477595
 30
0.0
 10
324.634222
 20
85.153282
 30
0.0
  0
LWPOLYLINE
  5
1a2
100
AcDbEntity
  8
0
 62
1
100
AcDbPolyline
 90
1
 70
1
 10
308.280600
 20
76.495995
 30
0.0
  0
LWPOLYLINE
  5
1a3
100
AcDbEntity
  8
0
 62
1
100
AcDbPolyline
 90
1
 70
1
 10
324.634222
 20
85.153282
 30
0.0
  0
SPLINE
  5
1a4
100
AcDbEntity
  8
0
 62
1
100
AcDbSpline
 70
8
 71
3
 72
8
 73
4
 74
0
 40
0
 40
0
 40
0
 40
0
 40
1
 40
1
 40
1
 40
1
 10
372.059010
 20
112.189155
 30
0.0
 10
383.003752
 20
95.751390
 30
0.0
 10
384.834322
 20
93.240322
 30
0.0
 10
385.550175
 20
93.682740
 30
0.0
  0
SPLINE
  5
1a5
100
AcDbEntity
  8
0
 62
1
100
AcDbSpline
 70
8
 71
3
 72
8
 73
4
 74
0
 40
0
 40
0
 40
0
 40
0
 40
1
 40
1
 40
1
 40
1
 10
385.550175
 20
93.682740
 30
0.0
 10
385.893637
 20
93.895012
 30
0.0
 10
386.121877
 20
100.298017
 30
0.0
 10
386.121877
 20
109.721400
 30
0.0
  0
LWPOLYLINE
  5
1a6
100
AcDbEntity
  8
0
 62
1
100
AcDbPolyline
 90
5
 70
0
 10
352.901535
 20
101.084745
 30
0.0
 10
352.901535
 20
125.406780
 30
0.0
 10
358.092217
 20
125.388330
 30
0.0
 10
363.282893
 20
125.369880
 30
0.0
 10
372.059010
 20
112.189155
 30
0.0
  0
SPLINE
  5
1a7
100
AcDbEntity
  8
0
 62
1
100
AcDbSpline
 70
8
 71
3
 72
8
 73
4
 74
0
 40
0
 40
0
 40
0
 40
0
 40
1
 40
1
 40
1
 40
1
 10
376.455412
 20
89.090422
 30
0.0
 10
366.050925
 20
104.717175
 30
0.0
 10
364.180042
 20
107.265705
 30
0.0
 10
363.574140
 20
106.637377
 30
0.0
  0
SPLINE
  5
1a8
100
AcDbEntity
  8
0
 62
1
100
AcDbSpline
 70
8
 71
3
 72
8
 73
4
 74
0
 40
0
 40
0
 40
0
 40
0
 40
1
 40
1
 40
1
 40
1
 10
363.574140
 20
106.637377
 30
0.0
 10
363.303480
 20
106.356697
 30
0.0
 10
362.889877
 20
99.520058
 30
0.0
 10
362.655022
 20
91.444845
 30
0.0
  0
LWPOLYLINE
  5
1a9
100
AcDbEntity
  8
0
 62
1
100
AcDbPolyline
 90
9
 70
0
 10
386.121877
 20
109.721400
 30
0.0
 10
386.121877
 20
125.406727
 30
0.0
 10
390.571027
 20
125.406727
 30
0.0
 10
395.020185
 20
125.406727
 30
0.0
 10
395.020185
 20
101.084692
 30
0.0
 10
395.020185
 20
76.762657
 30
0.0
 10
389.829502
 20
76.781107
 30
0.0
 10
384.638827
 20
76.799557
 30
0.0
 10
376.455412
 20
89.090422
 30
0.0
  0
LWPOLYLINE
  5
1aa
100
AcDbEntity
  8
0
 62
1
100
AcDbPolyline
 90
5
 70
0
 10
362.655022
 20
91.444845
 30
0.0
 10
362.228017
 20
76.762642
 30
0.0
 10
357.564780
 20
76.762642
 30
0.0
 10
352.901535
 20
76.762642
 30
0.0
 10
352.901535
 20
101.084745
 30
0.0
  0
ENDSEC
  0
SECTION
  2
OBJECTS
  0
DICTIONARY
  5
C
330
0
100
AcDbDictionary
  3
ACAD_GROUP
350
D
  3
ACAD_MLINESTYLE
350
17
  0
DICTIONARY
  5
D
330
C
100
AcDbDictionary
  0
DICTIONARY
  5
1A
330
C
100
AcDbDictionary
  0
DICTIONARY
  5
17
330
C
100
AcDbDictionary
  3
STANDARD
350
18
  0
DICTIONARY
  5
19
330
C
100
AcDbDictionary
  0
ENDSEC
  0
EOF
