0
SECTION
2
HEADER
9
$INSUNITS
70
4
9
$ACADVER
1
AC1014
9
$HANDSEED
5
FFFF
0
ENDSEC
0
SECTION
2
TABLES
0
TABLE
2
VPORT
5
8
100
AcDbSymbolTable
0
ENDTAB
0
TABLE
2
LTYPE
5
5
100
AcDbSymbolTable
0
LTYPE
5
14
100
AcDbSymbolTableRecord
100
AcDbLinetypeTableRecord
2
BYBLOCK
70
0
0
LTYPE
5
15
100
AcDbSymbolTableRecord
100
AcDbLinetypeTableRecord
2
BYLAYER
70
0
0
ENDTAB
0
TABLE
2
LAYER
5
2
100
AcDbSymbolTable
70
2
0
LAYER
5
50
100
AcDbSymbolTableRecord
100
AcDbLayerTableRecord
2
0
70
0
6
CONTINUOUS
0
ENDTAB
0
TABLE
2
STYLE
5
3
100
AcDbSymbolTable
70
1
0
STYLE
5
11
100
AcDbSymbolTableRecord
100
AcDbTextStyleTableRecord
2
STANDARD
70
0
0
ENDTAB
0
TABLE
2
VIEW
5
6
100
AcDbSymbolTable
70
0
0
ENDTAB
0
TABLE
2
UCS
5
7
100
AcDbSymbolTable
70
0
0
ENDTAB
0
TABLE
2
APPID
5
9
100
AcDbSymbolTable
70
2
0
APPID
5
12
100
AcDbSymbolTableRecord
100
AcDbRegAppTableRecord
2
ACAD
70
0
0
ENDTAB
0
TABLE
2
DIMSTYLE
5
A
100
AcDbSymbolTable
70
1
0
ENDTAB
0
TABLE
2
BLOCK_RECORD
5
1
100
AcDbSymbolTable
70
1
0
BLOCK_RECORD
5
1F
100
AcDbSymbolTableRecord
100
AcDbBlockTableRecord
2
*MODEL_SPACE
0
BLOCK_RECORD
5
1B
100
AcDbSymbolTableRecord
100
AcDbBlockTableRecord
2
*PAPER_SPACE
0
ENDTAB
0
ENDSEC
0
SECTION
2
BLOCKS
0
BLOCK
5
20
100
AcDbEntity
100
AcDbBlockBegin
2
*MODEL_SPACE
0
ENDBLK
5
21
100
AcDbEntity
100
AcDbBlockEnd
0
BLOCK
5
1C
100
AcDbEntity
100
AcDbBlockBegin
2
*PAPER_SPACE
0
ENDBLK
5
1D
100
AcDbEntity
100
AcDbBlockEnd
0
ENDSEC
0
SECTION
2
ENTITIES
0
LWPOLYLINE
5
100
100
AcDbEntity
8
0
100
AcDbPolyline
90
4
70
1
43
0.0
10
1000
20
13.082606622203061
10
0
20
13.08260662220242
10
-4.2632564145606011e-13
20
613.08260662220221
10
1000
20
613.082606622203
0
SPLINE
5
101
100
AcDbEntity
8
0
100
AcDbSpline
70
1064
71
2
72
12
73
9
74
0
42
0.000000001
43
0.0000000001
44
0.0000000001
40
0
40
0
40
0
40
6.2831853071795853
40
6.2831853071795853
40
12.566370614359169
40
12.566370614359169
40
18.849555921538762
40
18.849555921538762
40
25.132741228718338
40
25.132741228718338
40
25.132741228718338
10
92.55673177212644
20
514.48170924211104
30
9
10
92.556731772126454
20
518.48170924211092
30
9
10
88.55673177212644
20
518.48170924211092
30
9
10
84.556731772126383
20
518.48170924211092
30
9
10
84.556731772126454
20
514.48170924211104
30
9
10
84.556731772126383
20
510.48170924211098
30
9
10
88.55673177212644
20
510.48170924211092
30
9
10
92.556731772126454
20
510.48170924211098
30
9
10
92.55673177212644
20
514.48170924211104
30
9
0
SPLINE
5
102
100
AcDbEntity
8
0
100
AcDbSpline
70
1064
71
2
72
12
73
9
74
0
42
0.000000001
43
0.0000000001
44
0.0000000001
40
0
40
0
40
0
40
6.2831853071795853
40
6.2831853071795853
40
12.566370614359169
40
12.566370614359169
40
18.849555921538762
40
18.849555921538762
40
25.132741228718338
40
25.132741228718338
40
25.132741228718338
10
92.55673177212644
20
514.48170924211104
30
0
10
92.556731772126454
20
518.48170924211092
30
0
10
88.55673177212644
20
518.48170924211092
30
0
10
84.556731772126383
20
518.48170924211092
30
0
10
84.556731772126454
20
514.48170924211104
30
0
10
84.556731772126383
20
510.48170924211098
30
0
10
88.55673177212644
20
510.48170924211092
30
0
10
92.556731772126454
20
510.48170924211098
30
0
10
92.55673177212644
20
514.48170924211104
30
0
0
SPLINE
5
103
100
AcDbEntity
8
0
100
AcDbSpline
70
1064
71
2
72
12
73
9
74
0
42
0.000000001
43
0.0000000001
44
0.0000000001
40
-25.132741228718338
40
-25.132741228718338
40
-25.132741228718338
40
-18.849555921538762
40
-18.849555921538762
40
-12.566370614359169
40
-12.566370614359169
40
-6.2831853071795853
40
-6.2831853071795853
40
0
40
0
40
0
10
52.671481189988079
20
514.48170924211104
30
4.5
10
52.671481189988114
20
510.48170924211098
30
4.5
10
48.671481189988071
20
510.48170924211092
30
4.5
10
44.671481189988057
20
510.48170924211098
30
4.5
10
44.671481189988071
20
514.48170924211104
30
4.5
10
44.671481189988057
20
518.48170924211092
30
4.5
10
48.671481189988071
20
518.48170924211092
30
4.5
10
52.671481189988114
20
518.48170924211092
30
4.5
10
52.671481189988079
20
514.48170924211104
30
4.5
0
LWPOLYLINE
5
104
100
AcDbEntity
8
0
100
AcDbPolyline
90
4
70
1
43
0.0
10
52.671481189987972
20
514.48170924211104
10
52.671481189987972
20
514.48170924211104
10
44.671481189988071
20
514.48170924211104
10
44.671481189987965
20
514.48170924211104
0
LWPOLYLINE
5
105
100
AcDbEntity
8
0
100
AcDbPolyline
90
4
70
1
43
0.0
10
48.671481189987929
20
518.48170924211092
10
48.671481189987929
20
510.48170924211092
10
48.671481189987929
20
510.48170924211092
10
48.671481189987929
20
518.48170924211092
0
LWPOLYLINE
5
106
100
AcDbEntity
8
0
100
AcDbPolyline
90
4
70
1
43
0.0
10
88.556731772126568
20
518.48170924211092
10
88.556731772126568
20
518.48170924211092
10
88.556731772126568
20
510.48170924211092
10
88.55673177212644
20
510.48170924211092
0
LWPOLYLINE
5
107
100
AcDbEntity
8
0
100
AcDbPolyline
90
4
70
1
43
0.0
10
92.55673177212644
20
514.48170924211104
10
84.556731772126454
20
514.48170924211104
10
84.556731772126454
20
514.48170924211104
10
92.55673177212644
20
514.48170924211104
0
LWPOLYLINE
5
108
100
AcDbEntity
8
0
100
AcDbPolyline
90
4
70
1
43
0.0
10
52.671481189988405
20
80.481709242110924
10
52.671481189988405
20
80.481709242110924
10
44.671481189988526
20
80.481709242110924
10
44.671481189988526
20
80.481709242110924
0
SPLINE
5
109
100
AcDbEntity
8
0
100
AcDbSpline
70
1064
71
2
72
12
73
9
74
0
42
0.000000001
43
0.0000000001
44
0.0000000001
40
0
40
0
40
0
40
6.2831853071795853
40
6.2831853071795853
40
12.566370614359169
40
12.566370614359169
40
18.849555921538762
40
18.849555921538762
40
25.132741228718338
40
25.132741228718338
40
25.132741228718338
10
52.671481189988405
20
80.481709242110924
30
0
10
52.671481189988477
20
84.481709242110981
30
0
10
48.671481189988413
20
84.481709242110924
30
0
10
44.671481189988413
20
84.481709242110981
30
0
10
44.671481189988413
20
80.481709242110924
30
0
10
44.671481189988413
20
76.481709242110924
30
0
10
48.671481189988413
20
76.481709242110924
30
0
10
52.671481189988477
20
76.481709242110924
30
0
10
52.671481189988405
20
80.481709242110924
30
0
0
LWPOLYLINE
5
110
100
AcDbEntity
8
0
100
AcDbPolyline
90
4
70
1
43
0.0
10
92.556731772126696
20
80.48170924211081
10
92.556731772126696
20
80.48170924211081
10
84.556731772126682
20
80.481709242110867
10
84.556731772126795
20
80.48170924211081
0
SPLINE
5
111
100
AcDbEntity
8
0
100
AcDbSpline
70
1064
71
2
72
12
73
9
74
0
42
0.000000001
43
0.0000000001
44
0.0000000001
40
0
40
0
40
0
40
6.2831853071795853
40
6.2831853071795853
40
12.566370614359169
40
12.566370614359169
40
18.849555921538762
40
18.849555921538762
40
25.132741228718338
40
25.132741228718338
40
25.132741228718338
10
52.671481189988405
20
80.481709242110924
30
9
10
52.671481189988477
20
84.481709242110981
30
9
10
48.671481189988413
20
84.481709242110924
30
9
10
44.671481189988413
20
84.481709242110981
30
9
10
44.671481189988413
20
80.481709242110924
30
9
10
44.671481189988413
20
76.481709242110924
30
9
10
48.671481189988413
20
76.481709242110924
30
9
10
52.671481189988477
20
76.481709242110924
30
9
10
52.671481189988405
20
80.481709242110924
30
9
0
LWPOLYLINE
5
112
100
AcDbEntity
8
0
100
AcDbPolyline
90
4
70
1
43
0.0
10
48.671481189988384
20
84.481709242110924
10
48.671481189988384
20
76.481709242110938
10
48.671481189988384
20
76.481709242110938
10
48.671481189988526
20
84.481709242110924
0
SPLINE
5
113
100
AcDbEntity
8
0
100
AcDbSpline
70
1064
71
2
72
12
73
9
74
0
42
0.000000001
43
0.0000000001
44
0.0000000001
40
0
40
0
40
0
40
6.2831853071795853
40
6.2831853071795853
40
12.566370614359169
40
12.566370614359169
40
18.849555921538762
40
18.849555921538762
40
25.132741228718338
40
25.132741228718338
40
25.132741228718338
10
52.671481189987972
20
514.48170924211104
30
0
10
52.671481189988008
20
518.48170924211092
30
0
10
48.671481189987972
20
518.48170924211092
30
0
10
44.671481189987929
20
518.48170924211092
30
0
10
44.671481189987965
20
514.48170924211104
30
0
10
44.671481189987929
20
510.48170924211098
30
0
10
48.671481189987972
20
510.48170924211092
30
0
10
52.671481189988008
20
510.48170924211098
30
0
10
52.671481189987972
20
514.48170924211104
30
0
0
LWPOLYLINE
5
114
100
AcDbEntity
8
0
100
AcDbPolyline
90
4
70
1
43
0.0
10
88.556731772126653
20
84.481709242110824
10
88.556731772126653
20
76.48170924211081
10
88.556731772126653
20
76.48170924211081
10
88.556731772126653
20
84.481709242110824
0
LWPOLYLINE
5
115
100
AcDbEntity
8
0
100
AcDbPolyline
90
4
70
1
43
0.0
10
695.1712873634408
20
193.78160961340564
10
687.17128736344068
20
193.78160961340564
10
687.17128736344068
20
193.78160961340552
10
695.1712873634408
20
193.78160961340564
0
LWPOLYLINE
5
116
100
AcDbEntity
8
0
100
AcDbPolyline
90
4
70
1
43
0.0
10
691.17128736344057
20
197.78160961340561
10
691.17128736344057
20
189.78160961340549
10
691.17128736344057
20
189.78160961340549
10
691.17128736344057
20
197.78160961340561
0
SPLINE
5
117
100
AcDbEntity
8
0
100
AcDbSpline
70
1064
71
2
72
12
73
9
74
0
42
0.000000001
43
0.0000000001
44
0.0000000001
40
-25.132741228718338
40
-25.132741228718338
40
-25.132741228718338
40
-18.849555921538762
40
-18.849555921538762
40
-12.566370614359169
40
-12.566370614359169
40
-6.2831853071795853
40
-6.2831853071795853
40
0
40
0
40
0
10
92.556731772126554
20
514.48170924211104
30
4.5
10
92.556731772126554
20
510.48170924211098
30
4.5
10
88.556731772126568
20
510.48170924211092
30
4.5
10
84.556731772126511
20
510.48170924211098
30
4.5
10
84.556731772126568
20
514.48170924211104
30
4.5
10
84.556731772126511
20
518.48170924211092
30
4.5
10
88.556731772126568
20
518.48170924211092
30
4.5
10
92.556731772126554
20
518.48170924211092
30
4.5
10
92.556731772126554
20
514.48170924211104
30
4.5
0
SPLINE
5
118
100
AcDbEntity
8
0
100
AcDbSpline
70
1064
71
2
72
12
73
9
74
0
42
0.000000001
43
0.0000000001
44
0.0000000001
40
0
40
0
40
0
40
6.2831853071795853
40
6.2831853071795853
40
12.566370614359169
40
12.566370614359169
40
18.849555921538762
40
18.849555921538762
40
25.132741228718338
40
25.132741228718338
40
25.132741228718338
10
52.671481189987972
20
514.48170924211104
30
9
10
52.671481189988008
20
518.48170924211092
30
9
10
48.671481189987972
20
518.48170924211092
30
9
10
44.671481189987929
20
518.48170924211092
30
9
10
44.671481189987965
20
514.48170924211104
30
9
10
44.671481189987929
20
510.48170924211098
30
9
10
48.671481189987972
20
510.48170924211092
30
9
10
52.671481189988008
20
510.48170924211098
30
9
10
52.671481189987972
20
514.48170924211104
30
9
0
SPLINE
5
119
100
AcDbEntity
8
0
100
AcDbSpline
70
1064
71
2
72
12
73
9
74
0
42
0.000000001
43
0.0000000001
44
0.0000000001
40
-25.132741228718338
40
-25.132741228718338
40
-25.132741228718338
40
-18.849555921538762
40
-18.849555921538762
40
-12.566370614359169
40
-12.566370614359169
40
-6.2831853071795853
40
-6.2831853071795853
40
0
40
0
40
0
10
52.671481189988533
20
80.481709242110924
30
4.5
10
52.671481189988604
20
76.481709242110924
30
4.5
10
48.671481189988526
20
76.481709242110924
30
4.5
10
44.671481189988526
20
76.481709242110924
30
4.5
10
44.671481189988526
20
80.481709242110924
30
4.5
10
44.671481189988526
20
84.481709242110981
30
4.5
10
48.671481189988526
20
84.481709242110924
30
4.5
10
52.671481189988604
20
84.481709242110981
30
4.5
10
52.671481189988533
20
80.481709242110924
30
4.5
0
SPLINE
5
120
100
AcDbEntity
8
0
100
AcDbSpline
70
1064
71
2
72
12
73
9
74
0
42
0.000000001
43
0.0000000001
44
0.0000000001
40
0
40
0
40
0
40
6.2831853071795853
40
6.2831853071795853
40
12.566370614359169
40
12.566370614359169
40
18.849555921538762
40
18.849555921538762
40
25.132741228718338
40
25.132741228718338
40
25.132741228718338
10
563.49531478158178
20
412.64581270982319
30
0
10
563.4953147815819
20
416.64581270982308
30
0
10
559.49531478158178
20
416.64581270982319
30
0
10
555.49531478158178
20
416.64581270982308
30
0
10
555.49531478158178
20
412.64581270982319
30
0
10
555.49531478158178
20
408.64581270982313
30
0
10
559.49531478158178
20
408.64581270982313
30
0
10
563.4953147815819
20
408.64581270982313
30
0
10
563.49531478158178
20
412.64581270982319
30
0
0
LWPOLYLINE
5
121
100
AcDbEntity
8
0
100
AcDbPolyline
90
4
70
1
43
0.0
10
235.36938441324904
20
388.03698658221435
10
235.36938441324904
20
388.03698658221435
10
227.36938441324901
20
388.03698658221435
10
227.36938441324901
20
388.03698658221435
0
LWPOLYLINE
5
122
100
AcDbEntity
8
0
100
AcDbPolyline
90
4
70
1
43
0.0
10
559.4953147815819
20
408.64581270982313
10
559.4953147815819
20
408.64581270982313
10
559.49531478158178
20
416.64581270982319
10
559.49531478158178
20
416.64581270982319
0
LWPOLYLINE
5
123
100
AcDbEntity
8
0
100
AcDbPolyline
90
4
70
1
43
0.0
10
691.17128736344057
20
397.78160961340552
10
691.17128736344057
20
389.78160961340558
10
691.17128736344057
20
389.78160961340558
10
691.17128736344057
20
397.78160961340552
0
LWPOLYLINE
5
124
100
AcDbEntity
8
0
100
AcDbPolyline
90
4
70
1
43
0.0
10
325.06866938234589
20
572.54437615736606
10
317.06866938234589
20
572.54437615736606
10
317.068669382346
20
572.54437615736606
10
325.06866938234589
20
572.54437615736606
0
LWPOLYLINE
5
125
100
AcDbEntity
8
0
100
AcDbPolyline
90
4
70
1
43
0.0
10
555.4953147815819
20
412.64581270982319
10
555.4953147815819
20
412.64581270982319
10
563.49531478158178
20
412.64581270982319
10
563.49531478158178
20
412.64581270982319
0
SPLINE
5
126
100
AcDbEntity
8
0
100
AcDbSpline
70
1064
71
2
72
12
73
9
74
0
42
0.000000001
43
0.0000000001
44
0.0000000001
40
0
40
0
40
0
40
6.2831853071795853
40
6.2831853071795853
40
12.566370614359169
40
12.566370614359169
40
18.849555921538762
40
18.849555921538762
40
25.132741228718338
40
25.132741228718338
40
25.132741228718338
10
235.36938441324904
20
388.03698658221435
30
9
10
235.36938441324904
20
392.03698658221441
30
9
10
231.36938441324901
20
392.03698658221435
30
9
10
227.36938441324901
20
392.03698658221441
30
9
10
227.36938441324901
20
388.03698658221435
30
9
10
227.36938441324901
20
384.0369865822143
30
9
10
231.36938441324901
20
384.0369865822143
30
9
10
235.36938441324904
20
384.0369865822143
30
9
10
235.36938441324904
20
388.03698658221435
30
9
0
LWPOLYLINE
5
127
100
AcDbEntity
8
0
100
AcDbPolyline
90
4
70
1
43
0.0
10
183.36419438123971
20
303.10485245653132
10
175.36419438123971
20
303.10485245653132
10
175.36419438123983
20
303.10485245653132
10
183.36419438123971
20
303.10485245653132
0
LWPOLYLINE
5
128
100
AcDbEntity
8
0
100
AcDbPolyline
90
4
70
1
43
0.0
10
179.36419438123974
20
307.10485245653132
10
179.36419438123974
20
299.10485245653138
10
179.36419438123983
20
299.10485245653138
10
179.36419438123983
20
307.10485245653132
0
LWPOLYLINE
5
129
100
AcDbEntity
8
0
100
AcDbPolyline
90
4
70
1
43
0.0
10
231.36938441324912
20
384.0369865822143
10
231.36938441324912
20
384.0369865822143
10
231.36938441324912
20
392.03698658221435
10
231.36938441324912
20
392.03698658221435
0
SPLINE
5
130
100
AcDbEntity
8
0
100
AcDbSpline
70
1064
71
2
72
12
73
9
74
0
42
0.000000001
43
0.0000000001
44
0.0000000001
40
-25.132741228718338
40
-25.132741228718338
40
-25.132741228718338
40
-18.849555921538762
40
-18.849555921538762
40
-12.566370614359169
40
-12.566370614359169
40
-6.2831853071795853
40
-6.2831853071795853
40
0
40
0
40
0
10
235.36938441324909
20
388.03698658221435
30
4.5
10
235.36938441324921
20
384.0369865822143
30
4.5
10
231.36938441324912
20
384.0369865822143
30
4.5
10
227.36938441324912
20
384.0369865822143
30
4.5
10
227.36938441324909
20
388.03698658221435
30
4.5
10
227.36938441324912
20
392.03698658221441
30
4.5
10
231.36938441324912
20
392.03698658221435
30
4.5
10
235.36938441324921
20
392.03698658221441
30
4.5
10
235.36938441324909
20
388.03698658221435
30
4.5
0
SPLINE
5
131
100
AcDbEntity
8
0
100
AcDbSpline
70
1064
71
2
72
12
73
9
74
0
42
0.000000001
43
0.0000000001
44
0.0000000001
40
0
40
0
40
0
40
6.2831853071795853
40
6.2831853071795853
40
12.566370614359169
40
12.566370614359169
40
18.849555921538762
40
18.849555921538762
40
25.132741228718338
40
25.132741228718338
40
25.132741228718338
10
695.17128736344057
20
393.78160961340552
30
9
10
695.17128736344057
20
397.78160961340575
30
9
10
691.17128736344057
20
397.78160961340552
30
9
10
687.17128736344068
20
397.78160961340575
30
9
10
687.17128736344068
20
393.78160961340552
30
9
10
687.17128736344068
20
389.78160961340558
30
9
10
691.17128736344057
20
389.78160961340558
30
9
10
695.17128736344057
20
389.78160961340558
30
9
10
695.17128736344057
20
393.78160961340552
30
9
0
LWPOLYLINE
5
132
100
AcDbEntity
8
0
100
AcDbPolyline
90
4
70
1
43
0.0
10
321.068669382346
20
576.54437615736606
10
321.068669382346
20
576.54437615736606
10
321.068669382346
20
568.54437615736606
10
321.06866938234583
20
568.54437615736606
0
LWPOLYLINE
5
133
100
AcDbEntity
8
0
100
AcDbPolyline
90
4
70
1
43
0.0
10
695.17128736344057
20
393.78160961340552
10
695.17128736344057
20
393.78160961340552
10
687.17128736344068
20
393.78160961340569
10
687.17128736344068
20
393.78160961340569
0
SPLINE
5
134
100
AcDbEntity
8
0
100
AcDbSpline
70
1064
71
2
72
12
73
9
74
0
42
0.000000001
43
0.0000000001
44
0.0000000001
40
-25.132741228718338
40
-25.132741228718338
40
-25.132741228718338
40
-18.849555921538762
40
-18.849555921538762
40
-12.566370614359169
40
-12.566370614359169
40
-6.2831853071795853
40
-6.2831853071795853
40
0
40
0
40
0
10
92.556731772126795
20
80.48170924211081
30
4.5
10
92.556731772126909
20
76.481709242110838
30
4.5
10
88.556731772126795
20
76.48170924211081
30
4.5
10
84.55673177212681
20
76.481709242110838
30
4.5
10
84.556731772126795
20
80.48170924211081
30
4.5
10
84.55673177212681
20
84.481709242110909
30
4.5
10
88.556731772126795
20
84.481709242110824
30
4.5
10
92.556731772126909
20
84.481709242110909
30
4.5
10
92.556731772126795
20
80.48170924211081
30
4.5
0
SPLINE
5
135
100
AcDbEntity
8
0
100
AcDbSpline
70
1064
71
2
72
12
73
9
74
0
42
0.000000001
43
0.0000000001
44
0.0000000001
40
0
40
0
40
0
40
6.2831853071795853
40
6.2831853071795853
40
12.566370614359169
40
12.566370614359169
40
18.849555921538762
40
18.849555921538762
40
25.132741228718338
40
25.132741228718338
40
25.132741228718338
10
695.17128736344057
20
393.78160961340552
30
0
10
695.17128736344057
20
397.78160961340575
30
0
10
691.17128736344057
20
397.78160961340552
30
0
10
687.17128736344068
20
397.78160961340575
30
0
10
687.17128736344068
20
393.78160961340552
30
0
10
687.17128736344068
20
389.78160961340558
30
0
10
691.17128736344057
20
389.78160961340558
30
0
10
695.17128736344057
20
389.78160961340558
30
0
10
695.17128736344057
20
393.78160961340552
30
0
0
SPLINE
5
136
100
AcDbEntity
8
0
100
AcDbSpline
70
1064
71
2
72
12
73
9
74
0
42
0.000000001
43
0.0000000001
44
0.0000000001
40
0
40
0
40
0
40
6.2831853071795853
40
6.2831853071795853
40
12.566370614359169
40
12.566370614359169
40
18.849555921538762
40
18.849555921538762
40
25.132741228718338
40
25.132741228718338
40
25.132741228718338
10
325.06866938234589
20
572.54437615736606
30
0
10
325.06866938234589
20
576.54437615736629
30
0
10
321.06866938234589
20
576.54437615736606
30
0
10
317.06866938234594
20
576.54437615736629
30
0
10
317.06866938234589
20
572.54437615736606
30
0
10
317.06866938234594
20
568.54437615736606
30
0
10
321.06866938234589
20
568.54437615736606
30
0
10
325.06866938234589
20
568.54437615736606
30
0
10
325.06866938234589
20
572.54437615736606
30
0
0
LWPOLYLINE
5
137
100
AcDbEntity
8
0
100
AcDbPolyline
90
4
70
1
43
0.0
10
642.8912873634406
20
470.25465064756958
10
642.8912873634406
20
470.25465064756958
10
650.89128736344037
20
470.25465064756958
10
650.89128736344037
20
470.25465064756958
0
SPLINE
5
138
100
AcDbEntity
8
0
100
AcDbSpline
70
1064
71
2
72
12
73
9
74
0
42
0.000000001
43
0.0000000001
44
0.0000000001
40
0
40
0
40
0
40
6.2831853071795853
40
6.2831853071795853
40
12.566370614359169
40
12.566370614359169
40
18.849555921538762
40
18.849555921538762
40
25.132741228718338
40
25.132741228718338
40
25.132741228718338
10
563.49531478158178
20
412.64581270982319
30
9
10
563.4953147815819
20
416.64581270982308
30
9
10
559.49531478158178
20
416.64581270982319
30
9
10
555.49531478158178
20
416.64581270982308
30
9
10
555.49531478158178
20
412.64581270982319
30
9
10
555.49531478158178
20
408.64581270982313
30
9
10
559.49531478158178
20
408.64581270982313
30
9
10
563.4953147815819
20
408.64581270982313
30
9
10
563.49531478158178
20
412.64581270982319
30
9
0
SPLINE
5
139
100
AcDbEntity
8
0
100
AcDbSpline
70
1064
71
2
72
12
73
9
74
0
42
0.000000001
43
0.0000000001
44
0.0000000001
40
-25.132741228718338
40
-25.132741228718338
40
-25.132741228718338
40
-18.849555921538762
40
-18.849555921538762
40
-12.566370614359169
40
-12.566370614359169
40
-6.2831853071795853
40
-6.2831853071795853
40
0
40
0
40
0
10
183.36419438123983
20
303.10485245653132
30
4.5
10
183.36419438123988
20
299.10485245653138
30
4.5
10
179.36419438123983
20
299.10485245653138
30
4.5
10
175.36419438123983
20
299.10485245653138
30
4.5
10
175.36419438123983
20
303.10485245653132
30
4.5
10
175.36419438123983
20
307.10485245653138
30
4.5
10
179.36419438123983
20
307.10485245653132
30
4.5
10
183.36419438123988
20
307.10485245653138
30
4.5
10
183.36419438123983
20
303.10485245653132
30
4.5
0
SPLINE
5
140
100
AcDbEntity
8
0
100
AcDbSpline
70
1064
71
2
72
12
73
9
74
0
42
0.000000001
43
0.0000000001
44
0.0000000001
40
0
40
0
40
0
40
6.2831853071795853
40
6.2831853071795853
40
12.566370614359169
40
12.566370614359169
40
18.849555921538762
40
18.849555921538762
40
25.132741228718338
40
25.132741228718338
40
25.132741228718338
10
235.36938441324904
20
388.03698658221435
30
0
10
235.36938441324904
20
392.03698658221441
30
0
10
231.36938441324901
20
392.03698658221435
30
0
10
227.36938441324901
20
392.03698658221441
30
0
10
227.36938441324901
20
388.03698658221435
30
0
10
227.36938441324901
20
384.0369865822143
30
0
10
231.36938441324901
20
384.0369865822143
30
0
10
235.36938441324904
20
384.0369865822143
30
0
10
235.36938441324904
20
388.03698658221435
30
0
0
SPLINE
5
141
100
AcDbEntity
8
0
100
AcDbSpline
70
1064
71
2
72
12
73
9
74
0
42
0.000000001
43
0.0000000001
44
0.0000000001
40
0
40
0
40
0
40
6.2831853071795853
40
6.2831853071795853
40
12.566370614359169
40
12.566370614359169
40
18.849555921538762
40
18.849555921538762
40
25.132741228718338
40
25.132741228718338
40
25.132741228718338
10
183.36419438123971
20
303.10485245653132
30
0
10
183.36419438123986
20
307.10485245653138
30
0
10
179.36419438123974
20
307.10485245653132
30
0
10
175.36419438123971
20
307.10485245653138
30
0
10
175.36419438123971
20
303.10485245653132
30
0
10
175.36419438123971
20
299.10485245653138
30
0
10
179.36419438123974
20
299.10485245653138
30
0
10
183.36419438123986
20
299.10485245653138
30
0
10
183.36419438123971
20
303.10485245653132
30
0
0
SPLINE
5
142
100
AcDbEntity
8
0
100
AcDbSpline
70
1064
71
2
72
12
73
9
74
0
42
0.000000001
43
0.0000000001
44
0.0000000001
40
0
40
0
40
0
40
6.2831853071795853
40
6.2831853071795853
40
12.566370614359169
40
12.566370614359169
40
18.849555921538762
40
18.849555921538762
40
25.132741228718338
40
25.132741228718338
40
25.132741228718338
10
92.556731772126696
20
80.48170924211081
30
0
10
92.556731772126767
20
84.481709242110909
30
0
10
88.55673177212671
20
84.481709242110824
30
0
10
84.556731772126724
20
84.481709242110909
30
0
10
84.556731772126682
20
80.48170924211081
30
0
10
84.556731772126724
20
76.481709242110838
30
0
10
88.55673177212671
20
76.48170924211081
30
0
10
92.556731772126767
20
76.481709242110838
30
0
10
92.556731772126696
20
80.48170924211081
30
0
0
SPLINE
5
143
100
AcDbEntity
8
0
100
AcDbSpline
70
1064
71
2
72
12
73
9
74
0
42
0.000000001
43
0.0000000001
44
0.0000000001
40
0
40
0
40
0
40
6.2831853071795853
40
6.2831853071795853
40
12.566370614359169
40
12.566370614359169
40
18.849555921538762
40
18.849555921538762
40
25.132741228718338
40
25.132741228718338
40
25.132741228718338
10
92.556731772126696
20
80.48170924211081
30
9
10
92.556731772126767
20
84.481709242110909
30
9
10
88.55673177212671
20
84.481709242110824
30
9
10
84.556731772126724
20
84.481709242110909
30
9
10
84.556731772126682
20
80.48170924211081
30
9
10
84.556731772126724
20
76.481709242110838
30
9
10
88.55673177212671
20
76.48170924211081
30
9
10
92.556731772126767
20
76.481709242110838
30
9
10
92.556731772126696
20
80.48170924211081
30
9
0
SPLINE
5
144
100
AcDbEntity
8
0
100
AcDbSpline
70
1064
71
2
72
12
73
9
74
0
42
0.000000001
43
0.0000000001
44
0.0000000001
40
-25.132741228718338
40
-25.132741228718338
40
-25.132741228718338
40
-18.849555921538762
40
-18.849555921538762
40
-12.566370614359169
40
-12.566370614359169
40
-6.2831853071795853
40
-6.2831853071795853
40
0
40
0
40
0
10
325.068669382346
20
572.54437615736606
30
4.5
10
325.06866938234617
20
568.54437615736606
30
4.5
10
321.068669382346
20
568.54437615736606
30
4.5
10
317.06866938234606
20
568.54437615736606
30
4.5
10
317.068669382346
20
572.54437615736606
30
4.5
10
317.06866938234606
20
576.54437615736629
30
4.5
10
321.068669382346
20
576.54437615736606
30
4.5
10
325.06866938234617
20
576.54437615736629
30
4.5
10
325.068669382346
20
572.54437615736606
30
4.5
0
SPLINE
5
145
100
AcDbEntity
8
0
100
AcDbSpline
70
1064
71
2
72
12
73
9
74
0
42
0.000000001
43
0.0000000001
44
0.0000000001
40
0
40
0
40
0
40
6.2831853071795853
40
6.2831853071795853
40
12.566370614359169
40
12.566370614359169
40
18.849555921538762
40
18.849555921538762
40
25.132741228718338
40
25.132741228718338
40
25.132741228718338
10
183.36419438123971
20
303.10485245653132
30
9
10
183.36419438123986
20
307.10485245653138
30
9
10
179.36419438123974
20
307.10485245653132
30
9
10
175.36419438123971
20
307.10485245653138
30
9
10
175.36419438123971
20
303.10485245653132
30
9
10
175.36419438123971
20
299.10485245653138
30
9
10
179.36419438123974
20
299.10485245653138
30
9
10
183.36419438123986
20
299.10485245653138
30
9
10
183.36419438123971
20
303.10485245653132
30
9
0
SPLINE
5
146
100
AcDbEntity
8
0
100
AcDbSpline
70
1064
71
2
72
12
73
9
74
0
42
0.000000001
43
0.0000000001
44
0.0000000001
40
0
40
0
40
0
40
6.2831853071795853
40
6.2831853071795853
40
12.566370614359169
40
12.566370614359169
40
18.849555921538762
40
18.849555921538762
40
25.132741228718338
40
25.132741228718338
40
25.132741228718338
10
325.06866938234589
20
572.54437615736606
30
9
10
325.06866938234589
20
576.54437615736629
30
9
10
321.06866938234589
20
576.54437615736606
30
9
10
317.06866938234594
20
576.54437615736629
30
9
10
317.06866938234589
20
572.54437615736606
30
9
10
317.06866938234594
20
568.54437615736606
30
9
10
321.06866938234589
20
568.54437615736606
30
9
10
325.06866938234589
20
568.54437615736606
30
9
10
325.06866938234589
20
572.54437615736606
30
9
0
LWPOLYLINE
5
147
100
AcDbEntity
8
0
100
AcDbPolyline
90
4
70
1
43
0.0
10
646.89128736344048
20
466.25465064756952
10
646.89128736344048
20
466.25465064756952
10
646.89128736344048
20
474.25465064756958
10
646.89128736344048
20
474.25465064756958
0
SPLINE
5
148
100
AcDbEntity
8
0
100
AcDbSpline
70
1064
71
2
72
12
73
9
74
0
42
0.000000001
43
0.0000000001
44
0.0000000001
40
-25.132741228718338
40
-25.132741228718338
40
-25.132741228718338
40
-18.849555921538762
40
-18.849555921538762
40
-12.566370614359169
40
-12.566370614359169
40
-6.2831853071795853
40
-6.2831853071795853
40
0
40
0
40
0
10
563.4953147815819
20
412.64581270982319
30
4.5
10
563.4953147815819
20
408.64581270982313
30
4.5
10
559.4953147815819
20
408.64581270982313
30
4.5
10
555.4953147815819
20
408.64581270982313
30
4.5
10
555.4953147815819
20
412.64581270982319
30
4.5
10
555.4953147815819
20
416.64581270982308
30
4.5
10
559.4953147815819
20
416.64581270982319
30
4.5
10
563.4953147815819
20
416.64581270982308
30
4.5
10
563.4953147815819
20
412.64581270982319
30
4.5
0
SPLINE
5
149
100
AcDbEntity
8
0
100
AcDbSpline
70
1064
71
2
72
12
73
9
74
0
42
0.000000001
43
0.0000000001
44
0.0000000001
40
0
40
0
40
0
40
6.2831853071795853
40
6.2831853071795853
40
12.566370614359169
40
12.566370614359169
40
18.849555921538762
40
18.849555921538762
40
25.132741228718338
40
25.132741228718338
40
25.132741228718338
10
650.89128736344037
20
470.25465064756958
30
9
10
650.89128736344037
20
474.25465064756952
30
9
10
646.89128736344048
20
474.25465064756958
30
9
10
642.89128736344037
20
474.25465064756952
30
9
10
642.89128736344037
20
470.25465064756958
30
9
10
642.89128736344037
20
466.25465064756952
30
9
10
646.89128736344048
20
466.25465064756952
30
9
10
650.89128736344037
20
466.25465064756952
30
9
10
650.89128736344037
20
470.25465064756958
30
9
0
LWPOLYLINE
5
150
100
AcDbEntity
8
0
100
AcDbPolyline
90
4
70
1
43
0.0
10
880.5509962464032
20
110.94553621238809
10
881.31021638128107
20
102.98164364739229
10
881.31021638128118
20
102.98164364739229
10
880.5509962464032
20
110.94553621238809
0
LWPOLYLINE
5
151
100
AcDbEntity
8
0
100
AcDbPolyline
90
4
70
1
43
0.0
10
560.60303497747509
20
51.705467429564543
10
560.60303497747509
20
51.705467429564543
10
552.63914241247937
20
50.946247294686657
10
552.63914241247937
20
50.946247294686657
0
SPLINE
5
152
100
AcDbEntity
8
0
100
AcDbSpline
70
1064
71
2
72
12
73
9
74
0
42
0.000000001
43
0.0000000001
44
0.0000000001
40
0
40
0
40
0
40
6.2831853071795853
40
6.2831853071795853
40
12.566370614359169
40
12.566370614359169
40
18.849555921538762
40
18.849555921538762
40
25.132741228718338
40
25.132741228718338
40
25.132741228718338
10
326.22067836228717
20
51.7054674295645
30
9
10
325.84106829484836
20
55.687413712062472
30
9
10
321.85912201235033
20
55.307803644623448
30
9
10
317.87717572985235
20
54.928193577184587
30
9
10
318.25678579729129
20
50.946247294686593
30
9
10
318.63639586473033
20
46.964301012188692
30
9
10
322.61834214722819
20
47.34391107962761
30
9
10
326.60028842972616
20
47.723521147066577
30
9
10
326.22067836228717
20
51.7054674295645
30
9
0
LWPOLYLINE
5
153
100
AcDbEntity
8
0
100
AcDbPolyline
90
4
70
1
43
0.0
10
642.56630341615619
20
106.58397986245122
10
642.56630341615619
20
106.58397986245122
10
650.53019598115202
20
107.34319999732911
10
650.53019598115202
20
107.34319999732911
0
LWPOLYLINE
5
154
100
AcDbEntity
8
0
100
AcDbPolyline
90
4
70
1
43
0.0
10
876.94866003134439
20
106.58397986245132
10
876.94866003134439
20
106.58397986245132
10
884.91255259633988
20
107.34319999732919
10
884.91255259633988
20
107.34319999732919
0
LWPOLYLINE
5
155
100
AcDbEntity
8
0
100
AcDbPolyline
90
4
70
1
43
0.0
10
326.22067836228717
20
51.705467429564543
10
318.25678579729129
20
50.946247294686664
10
318.25678579729129
20
50.946247294686664
10
326.22067836228717
20
51.7054674295645
0
LWPOLYLINE
5
156
100
AcDbEntity
8
0
100
AcDbPolyline
90
4
70
1
43
0.0
10
556.2414786275383
20
55.307803644623519
10
556.2414786275383
20
55.307803644623519
10
557.00069876241616
20
47.343911079627674
10
557.00069876241616
20
47.343911079627674
0
LWPOLYLINE
5
157
100
AcDbEntity
8
0
100
AcDbPolyline
90
4
70
1
43
0.0
10
321.85912201235033
20
55.307803644623448
10
322.61834214722819
20
47.343911079627617
10
322.61834214722819
20
47.343911079627617
10
321.85912201235033
20
55.307803644623448
0
LWPOLYLINE
5
158
100
AcDbEntity
8
0
100
AcDbPolyline
90
4
70
1
43
0.0
10
646.168639631215
20
110.94553621238809
10
646.92785976609298
20
102.98164364739229
10
646.92785976609321
20
102.9816436473922
10
646.16863963121523
20
110.94553621238809
0
SPLINE
5
159
100
AcDbEntity
8
0
100
AcDbSpline
70
1064
71
2
72
12
73
9
74
0
42
0.000000001
43
0.0000000001
44
0.0000000001
40
-25.132741228718338
40
-25.132741228718338
40
-25.132741228718338
40
-18.849555921538762
40
-18.849555921538762
40
-12.566370614359169
40
-12.566370614359169
40
-6.2831853071795853
40
-6.2831853071795853
40
0
40
0
40
0
10
884.91255259633999
20
107.34319999732919
30
-4.25
10
885.29216266377944
20
103.36125371483129
30
-4.2499999999999991
10
881.31021638128118
20
102.98164364739229
30
-4.25
10
877.32827009878349
20
102.6020335799534
30
-4.2499999999999991
10
876.94866003134439
20
106.58397986245132
30
-4.25
10
876.56904996390551
20
110.56592614494932
30
-4.2499999999999991
10
880.5509962464032
20
110.94553621238809
30
-4.25
10
884.53294252890134
20
111.32514627982721
30
-4.2499999999999991
10
884.91255259633999
20
107.34319999732919
30
-4.25
0
SPLINE
5
160
100
AcDbEntity
8
0
100
AcDbSpline
70
1064
71
2
72
12
73
9
74
0
42
0.000000001
43
0.0000000001
44
0.0000000001
40
-25.132741228718338
40
-25.132741228718338
40
-25.132741228718338
40
-18.849555921538762
40
-18.849555921538762
40
-12.566370614359169
40
-12.566370614359169
40
-6.2831853071795853
40
-6.2831853071795853
40
0
40
0
40
0
10
695.17128736344057
20
193.78160961340552
30
4.5
10
695.17128736344057
20
189.78160961340561
30
4.5
10
691.17128736344057
20
189.78160961340549
30
4.5
10
687.17128736344068
20
189.78160961340561
30
4.5
10
687.17128736344068
20
193.78160961340552
30
4.5
10
687.17128736344068
20
197.78160961340561
30
4.5
10
691.17128736344057
20
197.78160961340549
30
4.5
10
695.17128736344057
20
197.78160961340561
30
4.5
10
695.17128736344057
20
193.78160961340552
30
4.5
0
SPLINE
5
161
100
AcDbEntity
8
0
100
AcDbSpline
70
1064
71
2
72
12
73
9
74
0
42
0.000000001
43
0.0000000001
44
0.0000000001
40
-25.132741228718338
40
-25.132741228718338
40
-25.132741228718338
40
-18.849555921538762
40
-18.849555921538762
40
-12.566370614359169
40
-12.566370614359169
40
-6.2831853071795853
40
-6.2831853071795853
40
0
40
0
40
0
10
326.22067836228717
20
51.7054674295645
30
4.5
10
326.60028842972616
20
47.723521147066577
30
4.5
10
322.61834214722819
20
47.34391107962761
30
4.5
10
318.63639586473033
20
46.964301012188692
30
4.5
10
318.25678579729129
20
50.946247294686593
30
4.5
10
317.87717572985235
20
54.928193577184587
30
4.5
10
321.85912201235033
20
55.307803644623448
30
4.5
10
325.84106829484836
20
55.687413712062472
30
4.5
10
326.22067836228717
20
51.7054674295645
30
4.5
0
SPLINE
5
162
100
AcDbEntity
8
0
100
AcDbSpline
70
1064
71
2
72
12
73
9
74
0
42
0.000000001
43
0.0000000001
44
0.0000000001
40
0
40
0
40
0
40
6.2831853071795853
40
6.2831853071795853
40
12.566370614359169
40
12.566370614359169
40
18.849555921538762
40
18.849555921538762
40
25.132741228718338
40
25.132741228718338
40
25.132741228718338
10
650.53019598115202
20
107.34319999732911
30
9
10
650.15058591371303
20
111.32514627982721
30
9
10
646.168639631215
20
110.94553621238809
30
9
10
642.18669334871731
20
110.56592614494932
30
9
10
642.56630341615619
20
106.58397986245122
30
9
10
642.94591348359529
20
102.6020335799534
30
9
10
646.92785976609298
20
102.9816436473922
30
9
10
650.90980604859101
20
103.36125371483121
30
9
10
650.53019598115202
20
107.34319999732911
30
9
0
SPLINE
5
163
100
AcDbEntity
8
0
100
AcDbSpline
70
1064
71
2
72
12
73
9
74
0
42
0.000000001
43
0.0000000001
44
0.0000000001
40
-25.132741228718338
40
-25.132741228718338
40
-25.132741228718338
40
-18.849555921538762
40
-18.849555921538762
40
-12.566370614359169
40
-12.566370614359169
40
-6.2831853071795853
40
-6.2831853071795853
40
0
40
0
40
0
10
695.1712873634408
20
393.78160961340552
30
4.5
10
695.1712873634408
20
389.78160961340558
30
4.5
10
691.17128736344068
20
389.78160961340558
30
4.5
10
687.17128736344068
20
389.78160961340558
30
4.5
10
687.1712873634408
20
393.78160961340552
30
4.5
10
687.17128736344068
20
397.78160961340575
30
4.5
10
691.17128736344068
20
397.78160961340552
30
4.5
10
695.1712873634408
20
397.78160961340575
30
4.5
10
695.1712873634408
20
393.78160961340552
30
4.5
0
SPLINE
5
164
100
AcDbEntity
8
0
100
AcDbSpline
70
1064
71
2
72
12
73
9
74
0
42
0.000000001
43
0.0000000001
44
0.0000000001
40
-25.132741228718338
40
-25.132741228718338
40
-25.132741228718338
40
-18.849555921538762
40
-18.849555921538762
40
-12.566370614359169
40
-12.566370614359169
40
-6.2831853071795853
40
-6.2831853071795853
40
0
40
0
40
0
10
650.89128736344048
20
470.25465064756958
30
4.5
10
650.89128736344048
20
466.25465064756952
30
4.5
10
646.89128736344048
20
466.25465064756952
30
4.5
10
642.89128736344037
20
466.25465064756952
30
4.5
10
642.8912873634406
20
470.25465064756958
30
4.5
10
642.89128736344037
20
474.25465064756952
30
4.5
10
646.89128736344048
20
474.25465064756958
30
4.5
10
650.89128736344048
20
474.25465064756952
30
4.5
10
650.89128736344048
20
470.25465064756958
30
4.5
0
SPLINE
5
165
100
AcDbEntity
8
0
100
AcDbSpline
70
1064
71
2
72
12
73
9
74
0
42
0.000000001
43
0.0000000001
44
0.0000000001
40
0
40
0
40
0
40
6.2831853071795853
40
6.2831853071795853
40
12.566370614359169
40
12.566370614359169
40
18.849555921538762
40
18.849555921538762
40
25.132741228718338
40
25.132741228718338
40
25.132741228718338
10
695.17128736344057
20
193.78160961340552
30
0
10
695.17128736344057
20
197.78160961340561
30
0
10
691.17128736344057
20
197.78160961340549
30
0
10
687.17128736344068
20
197.78160961340561
30
0
10
687.17128736344068
20
193.78160961340552
30
0
10
687.17128736344068
20
189.78160961340561
30
0
10
691.17128736344057
20
189.78160961340549
30
0
10
695.17128736344057
20
189.78160961340561
30
0
10
695.17128736344057
20
193.78160961340552
30
0
0
SPLINE
5
166
100
AcDbEntity
8
0
100
AcDbSpline
70
1064
71
2
72
12
73
9
74
0
42
0.000000001
43
0.0000000001
44
0.0000000001
40
0
40
0
40
0
40
6.2831853071795853
40
6.2831853071795853
40
12.566370614359169
40
12.566370614359169
40
18.849555921538762
40
18.849555921538762
40
25.132741228718338
40
25.132741228718338
40
25.132741228718338
10
695.17128736344057
20
193.78160961340552
30
9
10
695.17128736344057
20
197.78160961340561
30
9
10
691.17128736344057
20
197.78160961340549
30
9
10
687.17128736344068
20
197.78160961340561
30
9
10
687.17128736344068
20
193.78160961340552
30
9
10
687.17128736344068
20
189.78160961340561
30
9
10
691.17128736344057
20
189.78160961340549
30
9
10
695.17128736344057
20
189.78160961340561
30
9
10
695.17128736344057
20
193.78160961340552
30
9
0
SPLINE
5
167
100
AcDbEntity
8
0
100
AcDbSpline
70
1064
71
2
72
12
73
9
74
0
42
0.000000001
43
0.0000000001
44
0.0000000001
40
-25.132741228718338
40
-25.132741228718338
40
-25.132741228718338
40
-18.849555921538762
40
-18.849555921538762
40
-12.566370614359169
40
-12.566370614359169
40
-6.2831853071795853
40
-6.2831853071795853
40
0
40
0
40
0
10
560.60303497747509
20
51.705467429564543
30
-4.25
10
560.98264504491419
20
47.723521147066641
30
-4.2499999999999991
10
557.00069876241616
20
47.343911079627674
30
-4.25
10
553.01875247991825
20
46.964301012188741
30
-4.2499999999999991
10
552.63914241247937
20
50.946247294686657
30
-4.25
10
552.25953234504038
20
54.928193577184636
30
-4.2499999999999991
10
556.2414786275383
20
55.307803644623519
30
-4.25
10
560.22342491003621
20
55.687413712062536
30
-4.2499999999999991
10
560.60303497747509
20
51.705467429564543
30
-4.25
0
SPLINE
5
168
100
AcDbEntity
8
0
100
AcDbSpline
70
1064
71
2
72
12
73
9
74
0
42
0.000000001
43
0.0000000001
44
0.0000000001
40
0
40
0
40
0
40
6.2831853071795853
40
6.2831853071795853
40
12.566370614359169
40
12.566370614359169
40
18.849555921538762
40
18.849555921538762
40
25.132741228718338
40
25.132741228718338
40
25.132741228718338
10
650.53019598115202
20
107.34319999732911
30
0
10
650.15058591371303
20
111.32514627982721
30
0
10
646.168639631215
20
110.94553621238809
30
0
10
642.18669334871731
20
110.56592614494932
30
0
10
642.56630341615619
20
106.58397986245122
30
0
10
642.94591348359529
20
102.6020335799534
30
0
10
646.92785976609298
20
102.9816436473922
30
0
10
650.90980604859101
20
103.36125371483121
30
0
10
650.53019598115202
20
107.34319999732911
30
0
0
SPLINE
5
169
100
AcDbEntity
8
0
100
AcDbSpline
70
1064
71
2
72
12
73
9
74
0
42
0.000000001
43
0.0000000001
44
0.0000000001
40
0
40
0
40
0
40
6.2831853071795853
40
6.2831853071795853
40
12.566370614359169
40
12.566370614359169
40
18.849555921538762
40
18.849555921538762
40
25.132741228718338
40
25.132741228718338
40
25.132741228718338
10
560.60303497747509
20
51.705467429564543
30
-8.75
10
560.22342491003621
20
55.687413712062536
30
-8.7499999999999982
10
556.2414786275383
20
55.307803644623519
30
-8.75
10
552.25953234504038
20
54.928193577184636
30
-8.7499999999999982
10
552.63914241247937
20
50.946247294686657
30
-8.75
10
553.01875247991825
20
46.964301012188741
30
-8.7499999999999982
10
557.00069876241616
20
47.343911079627674
30
-8.75
10
560.98264504491419
20
47.723521147066641
30
-8.7499999999999982
10
560.60303497747509
20
51.705467429564543
30
-8.75
0
SPLINE
5
170
100
AcDbEntity
8
0
100
AcDbSpline
70
1064
71
2
72
12
73
9
74
0
42
0.000000001
43
0.0000000001
44
0.0000000001
40
-25.132741228718338
40
-25.132741228718338
40
-25.132741228718338
40
-18.849555921538762
40
-18.849555921538762
40
-12.566370614359169
40
-12.566370614359169
40
-6.2831853071795853
40
-6.2831853071795853
40
0
40
0
40
0
10
650.53019598115202
20
107.34319999732911
30
4.5
10
650.90980604859101
20
103.36125371483121
30
4.5
10
646.92785976609321
20
102.9816436473922
30
4.5
10
642.94591348359529
20
102.6020335799534
30
4.5
10
642.56630341615619
20
106.58397986245122
30
4.5
10
642.18669334871731
20
110.56592614494932
30
4.5
10
646.16863963121523
20
110.94553621238809
30
4.5
10
650.15058591371314
20
111.32514627982721
30
4.5
10
650.53019598115202
20
107.34319999732911
30
4.5
0
SPLINE
5
171
100
AcDbEntity
8
0
100
AcDbSpline
70
1064
71
2
72
12
73
9
74
0
42
0.000000001
43
0.0000000001
44
0.0000000001
40
0
40
0
40
0
40
6.2831853071795853
40
6.2831853071795853
40
12.566370614359169
40
12.566370614359169
40
18.849555921538762
40
18.849555921538762
40
25.132741228718338
40
25.132741228718338
40
25.132741228718338
10
560.60303497747509
20
51.705467429564543
30
0.25
10
560.22342491003621
20
55.687413712062536
30
0.25000000000000078
10
556.2414786275383
20
55.307803644623519
30
0.25
10
552.25953234504038
20
54.928193577184636
30
0.25000000000000078
10
552.63914241247937
20
50.946247294686657
30
0.25
10
553.01875247991825
20
46.964301012188741
30
0.25000000000000078
10
557.00069876241616
20
47.343911079627674
30
0.25
10
560.98264504491419
20
47.723521147066641
30
0.25000000000000078
10
560.60303497747509
20
51.705467429564543
30
0.25
0
SPLINE
5
172
100
AcDbEntity
8
0
100
AcDbSpline
70
1064
71
2
72
12
73
9
74
0
42
0.000000001
43
0.0000000001
44
0.0000000001
40
0
40
0
40
0
40
6.2831853071795853
40
6.2831853071795853
40
12.566370614359169
40
12.566370614359169
40
18.849555921538762
40
18.849555921538762
40
25.132741228718338
40
25.132741228718338
40
25.132741228718338
10
326.22067836228717
20
51.7054674295645
30
0
10
325.84106829484836
20
55.687413712062472
30
0
10
321.85912201235033
20
55.307803644623448
30
0
10
317.87717572985235
20
54.928193577184587
30
0
10
318.25678579729129
20
50.946247294686593
30
0
10
318.63639586473033
20
46.964301012188692
30
0
10
322.61834214722819
20
47.34391107962761
30
0
10
326.60028842972616
20
47.723521147066577
30
0
10
326.22067836228717
20
51.7054674295645
30
0
0
SPLINE
5
173
100
AcDbEntity
8
0
100
AcDbSpline
70
1064
71
2
72
12
73
9
74
0
42
0.000000001
43
0.0000000001
44
0.0000000001
40
0
40
0
40
0
40
6.2831853071795853
40
6.2831853071795853
40
12.566370614359169
40
12.566370614359169
40
18.849555921538762
40
18.849555921538762
40
25.132741228718338
40
25.132741228718338
40
25.132741228718338
10
650.89128736344037
20
470.25465064756958
30
0
10
650.89128736344037
20
474.25465064756952
30
0
10
646.89128736344048
20
474.25465064756958
30
0
10
642.89128736344037
20
474.25465064756952
30
0
10
642.89128736344037
20
470.25465064756958
30
0
10
642.89128736344037
20
466.25465064756952
30
0
10
646.89128736344048
20
466.25465064756952
30
0
10
650.89128736344037
20
466.25465064756952
30
0
10
650.89128736344037
20
470.25465064756958
30
0
0
LINE
5
174
100
AcDbEntity
8
0
100
AcDbLine
10
561.15361246567591
20
266.26764293333309
30
0
11
561.15361246567591
21
266.26764293333309
31
17.5
0
SPLINE
5
175
100
AcDbEntity
8
0
100
AcDbSpline
70
1064
71
2
72
14
73
11
74
0
42
0.000000001
43
0.0000000001
44
0.0000000001
40
1312.0401927254541
40
1312.0401927254541
40
1312.0401927254541
40
1618.4605050966338
40
1618.4605050966338
40
1760.5303062089718
40
1760.5303062089718
40
1947.694497254686
40
1947.694497254686
40
2105.1231957845739
40
2105.1231957845739
40
2387.409427088432
40
2387.409427088432
40
2387.409427088432
10
507.04364397862832
20
577.56337636008811
30
-8.75
10
654.31869854856348
20
535.33293402478262
30
-8.75
10
801.5937531184984
20
493.10249168947723
30
-8.75
10
881.27364397862596
20
470.2546506475677
30
-8.7500000000000018
10
881.27364397862834
20
387.36370513626218
30
-8.75
10
881.27364397862834
20
293.78160961340564
30
-8.75
10
881.27364397862834
20
200.199514090549
30
-8.75
10
881.27364397862721
20
104.5779729307653
30
-8.75
10
786.58268508423589
20
91.270026528976231
30
-8.75
10
646.81316453143222
20
71.626701444532031
30
-8.75
10
507.04364397862889
20
51.983376360087938
30
-8.75
0
SPLINE
5
176
100
AcDbEntity
8
0
100
AcDbSpline
70
1064
71
2
72
10
73
7
74
0
42
0.000000001
43
0.0000000001
44
0.0000000001
40
-179.1951287316877
40
-179.1951287316877
40
-179.1951287316877
40
-161.29512873168801
40
-161.29512873168801
40
-156.50419993496348
40
-156.50419993496348
40
-151.71327113823909
40
-151.71327113823909
40
-151.71327113823909
10
905.70360923483099
20
166.4226986174593
30
-8.75
10
911.8074945573901
20
172.96831424695068
30
-8.75
10
917.91137987994887
20
179.51392987644212
30
-8.75
10
919.99147487813912
20
181.74455866638095
30
-8.75
10
922.22210366807769
20
179.66446366819065
30
-8.75
10
924.4527324580165
20
177.58436867000032
30
-8.75
10
922.37263745982602
20
175.35373988006148
30
-8.75
0
SPLINE
5
177
100
AcDbEntity
8
0
100
AcDbSpline
70
1064
71
2
72
6
73
3
74
0
42
0.000000001
43
0.0000000001
44
0.0000000001
40
2387.409427088432
40
2387.409427088432
40
2387.409427088432
40
2402.409427088432
40
2402.409427088432
40
2402.409427088432
10
507.04364397862889
20
51.983376360087938
30
-8.75
10
507.04364397862889
20
44.483376360088002
30
-8.75
10
507.04364397862889
20
36.983376360088037
30
-8.75
0
SPLINE
5
178
100
AcDbEntity
8
0
100
AcDbSpline
70
1064
71
2
72
14
73
11
74
0
42
0.000000001
43
0.0000000001
44
0.0000000001
40
15
40
15
40
15
40
401.6401983140654
40
401.6401983140654
40
532.01629343804188
40
532.01629343804188
40
772.71483001664797
40
772.71483001664797
40
893.66614717985499
40
893.66614717985499
40
1297.0401927254541
40
1297.0401927254541
40
1297.0401927254541
10
507.04364397862889
20
36.983376360088037
30
8.75
10
698.92276443186017
20
60.543169911373688
30
8.75
10
890.80188488509179
20
84.102963462659318
30
8.75
10
969.83364397863056
20
93.806843300342294
30
8.7500000000000018
10
969.83364397862886
20
173.43211711037841
30
8.75
10
969.83364397862886
20
293.78138539968137
30
8.75
10
969.8336439786284
20
414.13065368898458
30
8.75
10
969.83364397863284
20
485.71988618909216
30
8.75
10
900.0792388695761
20
501.8239595196556
30
8.75
10
703.56144142410233
20
547.19366793987183
30
8.75
10
507.04364397862832
20
592.56337636008811
30
8.75
0
SPLINE
5
179
100
AcDbEntity
8
0
100
AcDbSpline
70
1064
71
2
72
10
73
7
74
0
42
0.000000001
43
0.0000000001
44
0.0000000001
40
-124.2314135447903
40
-124.2314135447903
40
-124.2314135447903
40
-106.33141354479041
40
-106.33141354479041
40
-101.54048474806601
40
-101.54048474806601
40
-96.74955595134152
40
-96.74955595134152
40
-96.74955595134152
10
916.27367872242735
20
418.68471165506492
30
-8.75
10
910.16979339986801
20
412.13909602557374
30
-8.75
10
904.06590807730834
20
405.59348039608238
30
-8.75
10
901.98581307911832
20
403.36285160614352
30
-8.75
10
899.75518428917951
20
405.44294660433388
30
-8.75
10
897.52455549924071
20
407.52304160252424
30
-8.75
10
899.60465049743118
20
409.75367039246288
30
-8.75
0
LINE
5
180
100
AcDbEntity
8
0
100
AcDbLine
10
507.04364397862889
20
36.983376360088037
30
-8.75
11
507.04364397862889
21
36.983376360088037
31
8.75
0
SPLINE
5
181
100
AcDbEntity
8
0
100
AcDbSpline
70
1064
71
2
72
10
73
7
74
0
42
0.000000001
43
0.0000000001
44
0.0000000001
40
-151.71327113823909
40
-151.71327113823909
40
-151.71327113823909
40
-133.81327113823909
40
-133.81327113823909
40
-129.0223423415147
40
-129.0223423415147
40
-124.2314135447903
40
-124.2314135447903
40
-124.2314135447903
10
907.34263745982526
20
435.35373988006143
30
-8.75
10
913.88825308931678
20
429.24985455750198
30
-8.75
10
920.43386871880796
20
423.14596923494236
30
-8.75
10
922.66449750874688
20
421.06587423675199
30
-8.7499999999999982
10
920.58440251055629
20
418.83524544681325
30
-8.75
10
918.50430751236604
20
416.60461665687467
30
-8.7499999999999982
10
916.27367872242735
20
418.68471165506492
30
-8.75
0
SPLINE
5
182
100
AcDbEntity
8
0
100
AcDbSpline
70
1064
71
2
72
14
73
11
74
0
42
0.000000001
43
0.0000000001
44
0.0000000001
40
15
40
15
40
15
40
401.6401983140654
40
401.6401983140654
40
532.01629343804188
40
532.01629343804188
40
772.71483001664797
40
772.71483001664797
40
893.66614717985499
40
893.66614717985499
40
1297.0401927254541
40
1297.0401927254541
40
1297.0401927254541
10
507.04364397862889
20
36.983376360088037
30
-8.75
10
698.92276443186017
20
60.543169911373688
30
-8.75
10
890.80188488509179
20
84.102963462659318
30
-8.75
10
969.83364397863056
20
93.806843300342294
30
-8.7500000000000018
10
969.83364397862886
20
173.43211711037841
30
-8.75
10
969.83364397862886
20
293.78138539968137
30
-8.75
10
969.8336439786284
20
414.13065368898458
30
-8.75
10
969.83364397863284
20
485.71988618909216
30
-8.75
10
900.0792388695761
20
501.8239595196556
30
-8.75
10
703.56144142410233
20
547.19366793987183
30
-8.75
10
507.04364397862832
20
592.56337636008811
30
-8.75
0
SPLINE
5
183
100
AcDbEntity
8
0
100
AcDbSpline
70
1064
71
2
72
10
73
7
74
0
42
0.000000001
43
0.0000000001
44
0.0000000001
40
-124.2314135447903
40
-124.2314135447903
40
-124.2314135447903
40
-106.33141354479041
40
-106.33141354479041
40
-101.54048474806601
40
-101.54048474806601
40
-96.74955595134152
40
-96.74955595134152
40
-96.74955595134152
10
931.30367872242857
20
158.68471165506492
30
-8.75
10
925.19979339986889
20
152.13909602557368
30
-8.75
10
919.09590807730922
20
145.59348039608241
30
-8.75
10
917.0158130791192
20
143.36285160614358
30
-8.75
10
914.78518428918051
20
145.44294660433391
30
-8.75
10
912.55455549924147
20
147.52304160252433
30
-8.75
10
914.63465049743206
20
149.75367039246311
30
-8.75
0
SPLINE
5
184
100
AcDbEntity
8
0
100
AcDbSpline
70
1064
71
2
72
6
73
3
74
0
42
0.000000001
43
0.0000000001
44
0.0000000001
40
1297.0401927254541
40
1297.0401927254541
40
1297.0401927254541
40
1312.0401927254541
40
1312.0401927254541
40
1312.0401927254541
10
507.04364397862832
20
592.56337636008811
30
8.75
10
507.04364397862832
20
585.06337636008811
30
8.75
10
507.04364397862832
20
577.56337636008811
30
8.75
0
LINE
5
185
100
AcDbEntity
8
0
100
AcDbLine
10
579.77739841195478
20
248.08881021650302
30
17.5
11
612.79513199376572
21
252.35679828574573
31
17.5
0
SPLINE
5
186
100
AcDbEntity
8
0
100
AcDbSpline
70
1064
71
2
72
10
73
7
74
0
42
0.000000001
43
0.0000000001
44
0.0000000001
40
-179.1951287316877
40
-179.1951287316877
40
-179.1951287316877
40
-161.29512873168801
40
-161.29512873168801
40
-156.50419993496348
40
-156.50419993496348
40
-151.71327113823909
40
-151.71327113823909
40
-151.71327113823909
10
890.67360923482988
20
426.42269861745916
30
-8.75
10
896.77749455738888
20
432.96831424695063
30
-8.75
10
902.88137987994799
20
439.51392987644203
30
-8.75
10
904.96147487813823
20
441.7445586663809
30
-8.75
10
907.19210366807692
20
439.66446366819059
30
-8.75
10
909.42273245801573
20
437.58436867000012
30
-8.75
10
907.34263745982526
20
435.35373988006143
30
-8.75
0
LINE
5
187
100
AcDbEntity
8
0
100
AcDbLine
10
507.04364397862832
20
592.56337636008811
30
8.75
11
507.04364397862832
21
592.56337636008811
31
-8.75
0
SPLINE
5
188
100
AcDbEntity
8
0
100
AcDbSpline
70
1064
71
2
72
6
73
3
74
0
42
0.000000001
43
0.0000000001
44
0.0000000001
40
2387.409427088432
40
2387.409427088432
40
2387.409427088432
40
2402.409427088432
40
2402.409427088432
40
2402.409427088432
10
507.04364397862889
20
51.983376360087938
30
8.75
10
507.04364397862889
20
44.483376360088002
30
8.75
10
507.04364397862889
20
36.983376360088037
30
8.75
0
SPLINE
5
189
100
AcDbEntity
8
0
100
AcDbSpline
70
1064
71
2
72
10
73
7
74
0
42
0.000000001
43
0.0000000001
44
0.0000000001
40
96.74955595134152
40
96.74955595134152
40
96.74955595134152
40
101.54048474806601
40
101.54048474806601
40
106.33141354479041
40
106.33141354479041
40
124.2314135447903
40
124.2314135447903
40
124.2314135447903
10
565.64131131520844
20
262.13598962794771
30
8.75
10
567.70713796790119
20
264.37983905271386
30
8.75
10
565.46328854313504
20
266.44566570540667
30
8.75
10
563.21943911836888
20
268.51149235809953
30
8.75
10
561.15361246567591
20
266.26764293333309
30
8.75
10
555.09159655039593
20
259.68323232623334
30
8.75
10
549.02958063511608
20
253.09882171913344
30
8.75
0
SPLINE
5
190
100
AcDbEntity
8
0
100
AcDbSpline
70
1064
71
2
72
10
73
7
74
0
42
0.000000001
43
0.0000000001
44
0.0000000001
40
124.2314135447903
40
124.2314135447903
40
124.2314135447903
40
129.0223423415147
40
129.0223423415147
40
133.81327113823909
40
133.81327113823909
40
151.71327113823909
40
151.71327113823909
40
151.71327113823909
10
549.02958063511562
20
253.09882171913344
30
8.75
10
546.78573121034913
20
255.1646483718261
30
8.7499999999999982
10
544.71990455765649
20
252.92079894705992
30
8.75
10
542.65407790496363
20
250.6769495222936
30
8.7499999999999982
10
544.8979273297299
20
248.61112286960068
30
8.75
10
551.48233793682994
20
242.54910695432085
30
8.75
10
558.06674854392998
20
236.48709103904059
30
8.75
0
LINE
5
191
100
AcDbEntity
8
0
100
AcDbLine
10
901.5434192384497
20
161.9614410375824
30
-8.75
11
901.5434192384497
21
161.9614410375824
31
8.75
0
LINE
5
192
100
AcDbEntity
8
0
100
AcDbLine
10
905.70360923483099
20
166.4226986174593
30
8.75
11
905.70360923483099
21
166.4226986174593
31
-8.75
0
SPLINE
5
193
100
AcDbEntity
8
0
100
AcDbSpline
70
1064
71
2
72
8
73
5
74
0
42
0.000000001
43
0.0000000001
44
0.0000000001
40
-188.77698632513659
40
-188.77698632513659
40
-188.77698632513659
40
-183.98605752841209
40
-183.98605752841209
40
-179.1951287316877
40
-179.1951287316877
40
-179.1951287316877
10
901.5434192384497
20
161.9614410375824
30
-8.75
10
899.31279044851181
20
164.04153603577311
30
-8.75
10
901.39288544670239
20
166.27216482571123
30
-8.75
10
903.47298044489276
20
168.50279361564932
30
-8.75
10
905.70360923483099
20
166.4226986174593
30
-8.75
0
SPLINE
5
194
100
AcDbEntity
8
0
100
AcDbSpline
70
1064
71
2
72
8
73
5
74
0
42
0.000000001
43
0.0000000001
44
0.0000000001
40
-188.77698632513659
40
-188.77698632513659
40
-188.77698632513659
40
-183.98605752841209
40
-183.98605752841209
40
-179.1951287316877
40
-179.1951287316877
40
-179.1951287316877
10
886.51341923844848
20
421.96144103758235
30
-8.75
10
884.2827904485107
20
424.04153603577294
30
-8.75
10
886.36288544670106
20
426.27216482571112
30
-8.75
10
888.44298044489165
20
428.50279361564913
30
-8.75
10
890.67360923482988
20
426.42269861745916
30
-8.75
0
LINE
5
195
100
AcDbEntity
8
0
100
AcDbLine
10
389.04946489569602
20
151.8644790215094
30
17.5
11
386.60828193034939
21
170.74980097335191
31
17.5
0
SPLINE
5
196
100
AcDbEntity
8
0
100
AcDbSpline
70
1064
71
2
72
14
73
11
74
0
42
0.000000001
43
0.0000000001
44
0.0000000001
40
1312.0401927254541
40
1312.0401927254541
40
1312.0401927254541
40
1618.4605050966338
40
1618.4605050966338
40
1760.5303062089718
40
1760.5303062089718
40
1947.694497254686
40
1947.694497254686
40
2105.1231957845739
40
2105.1231957845739
40
2387.409427088432
40
2387.409427088432
40
2387.409427088432
10
507.04364397862832
20
577.56337636008811
30
8.75
10
654.31869854856348
20
535.33293402478262
30
8.75
10
801.5937531184984
20
493.10249168947723
30
8.75
10
881.27364397862596
20
470.2546506475677
30
8.7500000000000018
10
881.27364397862834
20
387.36370513626218
30
8.75
10
881.27364397862834
20
293.78160961340564
30
8.75
10
881.27364397862834
20
200.199514090549
30
8.75
10
881.27364397862721
20
104.5779729307653
30
8.75
10
786.58268508423589
20
91.270026528976231
30
8.75
10
646.81316453143222
20
71.626701444532031
30
8.75
10
507.04364397862889
20
51.983376360087938
30
8.75
0
LINE
5
197
100
AcDbEntity
8
0
100
AcDbLine
10
544.8979273297299
20
248.61112286960068
30
0
11
544.8979273297299
21
248.61112286960068
31
17.5
0
LINE
5
198
100
AcDbEntity
8
0
100
AcDbLine
10
931.30367872242857
20
158.68471165506492
30
8.75
11
931.30367872242857
21
158.68471165506492
31
-8.75
0
LINE
5
199
100
AcDbEntity
8
0
100
AcDbLine
10
572.22572192230825
20
256.07397371266751
30
0
11
572.22572192230825
21
256.07397371266751
31
17.5
0
SPLINE
5
200
100
AcDbEntity
8
0
100
AcDbSpline
70
1064
71
2
72
10
73
7
74
0
42
0.000000001
43
0.0000000001
44
0.0000000001
40
-124.2314135447903
40
-124.2314135447903
40
-124.2314135447903
40
-106.33141354479041
40
-106.33141354479041
40
-101.54048474806601
40
-101.54048474806601
40
-96.74955595134152
40
-96.74955595134152
40
-96.74955595134152
10
931.30367872242857
20
158.68471165506492
30
8.75
10
925.19979339986889
20
152.13909602557368
30
8.75
10
919.09590807730922
20
145.59348039608241
30
8.75
10
917.0158130791192
20
143.36285160614358
30
8.75
10
914.78518428918051
20
145.44294660433391
30
8.75
10
912.55455549924147
20
147.52304160252433
30
8.75
10
914.63465049743206
20
149.75367039246311
30
8.75
0
SPLINE
5
201
100
AcDbEntity
8
0
100
AcDbSpline
70
1064
71
2
72
6
73
3
74
0
42
0.000000001
43
0.0000000001
44
0.0000000001
40
-96.74955595134152
40
-96.74955595134152
40
-96.74955595134152
40
-78.849555951341117
40
-78.849555951341117
40
-78.849555951341117
10
914.63465049743206
20
149.75367039246311
30
8.75
10
908.08903486794065
20
155.85755571502267
30
8.75
10
901.5434192384497
20
161.9614410375824
30
8.75
0
LINE
5
202
100
AcDbEntity
8
0
100
AcDbLine
10
886.51341923844848
20
421.96144103758235
30
-8.75
11
886.51341923844848
21
421.96144103758235
31
8.75
0
LINE
5
203
100
AcDbEntity
8
0
100
AcDbLine
10
914.63465049743206
20
149.75367039246311
30
8.75
11
914.63465049743206
21
149.75367039246311
31
-8.75
0
SPLINE
5
204
100
AcDbEntity
8
0
100
AcDbSpline
70
1064
71
2
72
6
73
3
74
0
42
0.000000001
43
0.0000000001
44
0.0000000001
40
-96.74955595134152
40
-96.74955595134152
40
-96.74955595134152
40
-78.849555951341117
40
-78.849555951341117
40
-78.849555951341117
10
914.63465049743206
20
149.75367039246311
30
-8.75
10
908.08903486794065
20
155.85755571502267
30
-8.75
10
901.5434192384497
20
161.9614410375824
30
-8.75
0
LINE
5
205
100
AcDbEntity
8
0
100
AcDbLine
10
514.11402171230156
20
239.60093179668644
30
17.5
11
549.68965391458926
21
244.19956281473952
31
17.5
0
LINE
5
206
100
AcDbEntity
8
0
100
AcDbLine
10
507.04364397862889
20
51.983376360087938
30
8.75
11
507.04364397862889
21
51.983376360087938
31
-8.75
0
SPLINE
5
207
100
AcDbEntity
8
0
100
AcDbSpline
70
1064
71
2
72
6
73
3
74
0
42
0.000000001
43
0.0000000001
44
0.0000000001
40
1297.0401927254541
40
1297.0401927254541
40
1297.0401927254541
40
1312.0401927254541
40
1312.0401927254541
40
1312.0401927254541
10
507.04364397862832
20
592.56337636008811
30
-8.75
10
507.04364397862832
20
585.06337636008811
30
-8.75
10
507.04364397862832
20
577.56337636008811
30
-8.75
0
LINE
5
208
100
AcDbEntity
8
0
100
AcDbLine
10
890.67360923482988
20
426.42269861745916
30
8.75
11
890.67360923482988
21
426.42269861745916
31
-8.75
0
LINE
5
209
100
AcDbEntity
8
0
100
AcDbLine
10
907.34263745982526
20
435.35373988006143
30
8.75
11
907.34263745982526
21
435.35373988006143
31
-8.75
0
SPLINE
5
210
100
AcDbEntity
8
0
100
AcDbSpline
70
1064
71
2
72
10
73
7
74
0
42
0.000000001
43
0.0000000001
44
0.0000000001
40
-151.71327113823909
40
-151.71327113823909
40
-151.71327113823909
40
-133.81327113823909
40
-133.81327113823909
40
-129.0223423415147
40
-129.0223423415147
40
-124.2314135447903
40
-124.2314135447903
40
-124.2314135447903
10
922.37263745982602
20
175.35373988006148
30
-8.75
10
928.91825308931766
20
169.249854557502
30
-8.75
10
935.46386871880929
20
163.14596923494238
30
-8.75
10
937.69449750874799
20
161.06587423675208
30
-8.7499999999999982
10
935.61440251055751
20
158.8352454468133
30
-8.75
10
933.53430751236715
20
156.60461665687461
30
-8.7499999999999982
10
931.30367872242857
20
158.68471165506492
30
-8.75
0
SPLINE
5
211
100
AcDbEntity
8
0
100
AcDbSpline
70
1064
71
2
72
10
73
7
74
0
42
0.000000001
43
0.0000000001
44
0.0000000001
40
-151.71327113823909
40
-151.71327113823909
40
-151.71327113823909
40
-133.81327113823909
40
-133.81327113823909
40
-129.0223423415147
40
-129.0223423415147
40
-124.2314135447903
40
-124.2314135447903
40
-124.2314135447903
10
907.34263745982526
20
435.35373988006143
30
8.75
10
913.88825308931678
20
429.24985455750198
30
8.75
10
920.43386871880796
20
423.14596923494236
30
8.75
10
922.66449750874688
20
421.06587423675199
30
8.7499999999999982
10
920.58440251055629
20
418.83524544681325
30
8.75
10
918.50430751236604
20
416.60461665687467
30
8.7499999999999982
10
916.27367872242735
20
418.68471165506492
30
8.75
0
SPLINE
5
212
100
AcDbEntity
8
0
100
AcDbSpline
70
1064
71
2
72
6
73
3
74
0
42
0.000000001
43
0.0000000001
44
0.0000000001
40
-96.74955595134152
40
-96.74955595134152
40
-96.74955595134152
40
-78.849555951341117
40
-78.849555951341117
40
-78.849555951341117
10
899.60465049743118
20
409.75367039246288
30
-8.75
10
893.05903486793977
20
415.85755571502267
30
-8.75
10
886.51341923844848
20
421.96144103758235
30
-8.75
0
SPLINE
5
213
100
AcDbEntity
8
0
100
AcDbSpline
70
1064
71
2
72
8
73
5
74
0
42
0.000000001
43
0.0000000001
44
0.0000000001
40
-188.77698632513659
40
-188.77698632513659
40
-188.77698632513659
40
-183.98605752841209
40
-183.98605752841209
40
-179.1951287316877
40
-179.1951287316877
40
-179.1951287316877
10
901.5434192384497
20
161.9614410375824
30
8.75
10
899.31279044851181
20
164.04153603577311
30
8.75
10
901.39288544670239
20
166.27216482571123
30
8.75
10
903.47298044489276
20
168.50279361564932
30
8.75
10
905.70360923483099
20
166.4226986174593
30
8.75
0
LINE
5
214
100
AcDbEntity
8
0
100
AcDbLine
10
916.27367872242735
20
418.68471165506492
30
8.75
11
916.27367872242735
21
418.68471165506492
31
-8.75
0
SPLINE
5
215
100
AcDbEntity
8
0
100
AcDbSpline
70
1064
71
2
72
10
73
7
74
0
42
0.000000001
43
0.0000000001
44
0.0000000001
40
-179.1951287316877
40
-179.1951287316877
40
-179.1951287316877
40
-161.29512873168801
40
-161.29512873168801
40
-156.50419993496348
40
-156.50419993496348
40
-151.71327113823909
40
-151.71327113823909
40
-151.71327113823909
10
890.67360923482988
20
426.42269861745916
30
8.75
10
896.77749455738888
20
432.96831424695063
30
8.75
10
902.88137987994799
20
439.51392987644203
30
8.75
10
904.96147487813823
20
441.7445586663809
30
8.75
10
907.19210366807692
20
439.66446366819059
30
8.75
10
909.42273245801573
20
437.58436867000012
30
8.75
10
907.34263745982526
20
435.35373988006143
30
8.75
0
LINE
5
216
100
AcDbEntity
8
0
100
AcDbLine
10
544.71990455765649
20
252.92079894705992
30
0
11
544.71990455765649
21
252.92079894705992
31
17.5
0
LINE
5
217
100
AcDbEntity
8
0
100
AcDbLine
10
922.37263745982602
20
175.35373988006148
30
8.75
11
922.37263745982602
21
175.35373988006148
31
-8.75
0
LINE
5
218
100
AcDbEntity
8
0
100
AcDbLine
10
565.46328854313504
20
266.44566570540667
30
0
11
565.46328854313504
21
266.44566570540667
31
17.5
0
SPLINE
5
219
100
AcDbEntity
8
0
100
AcDbSpline
70
1064
71
2
72
10
73
7
74
0
42
0.000000001
43
0.0000000001
44
0.0000000001
40
-151.71327113823909
40
-151.71327113823909
40
-151.71327113823909
40
-133.81327113823909
40
-133.81327113823909
40
-129.0223423415147
40
-129.0223423415147
40
-124.2314135447903
40
-124.2314135447903
40
-124.2314135447903
10
922.37263745982602
20
175.35373988006148
30
8.75
10
928.91825308931766
20
169.249854557502
30
8.75
10
935.46386871880929
20
163.14596923494238
30
8.75
10
937.69449750874799
20
161.06587423675208
30
8.7499999999999982
10
935.61440251055751
20
158.8352454468133
30
8.75
10
933.53430751236715
20
156.60461665687461
30
8.7499999999999982
10
931.30367872242857
20
158.68471165506492
30
8.75
0
LINE
5
220
100
AcDbEntity
8
0
100
AcDbLine
10
507.04364397862832
20
577.56337636008811
30
8.75
11
507.04364397862832
21
577.56337636008811
31
-8.75
0
SPLINE
5
221
100
AcDbEntity
8
0
100
AcDbSpline
70
1064
71
2
72
10
73
7
74
0
42
0.000000001
43
0.0000000001
44
0.0000000001
40
-179.1951287316877
40
-179.1951287316877
40
-179.1951287316877
40
-161.29512873168801
40
-161.29512873168801
40
-156.50419993496348
40
-156.50419993496348
40
-151.71327113823909
40
-151.71327113823909
40
-151.71327113823909
10
905.70360923483099
20
166.4226986174593
30
8.75
10
911.8074945573901
20
172.96831424695068
30
8.75
10
917.91137987994887
20
179.51392987644212
30
8.75
10
919.99147487813912
20
181.74455866638095
30
8.75
10
922.22210366807769
20
179.66446366819065
30
8.75
10
924.4527324580165
20
177.58436867000032
30
8.75
10
922.37263745982602
20
175.35373988006148
30
8.75
0
SPLINE
5
222
100
AcDbEntity
8
0
100
AcDbSpline
70
1064
71
2
72
6
73
3
74
0
42
0.000000001
43
0.0000000001
44
0.0000000001
40
-96.74955595134152
40
-96.74955595134152
40
-96.74955595134152
40
-78.849555951341117
40
-78.849555951341117
40
-78.849555951341117
10
899.60465049743118
20
409.75367039246288
30
8.75
10
893.05903486793977
20
415.85755571502267
30
8.75
10
886.51341923844848
20
421.96144103758235
30
8.75
0
SPLINE
5
223
100
AcDbEntity
8
0
100
AcDbSpline
70
1064
71
2
72
8
73
5
74
0
42
0.000000001
43
0.0000000001
44
0.0000000001
40
-188.77698632513659
40
-188.77698632513659
40
-188.77698632513659
40
-183.98605752841209
40
-183.98605752841209
40
-179.1951287316877
40
-179.1951287316877
40
-179.1951287316877
10
886.51341923844848
20
421.96144103758235
30
8.75
10
884.2827904485107
20
424.04153603577294
30
8.75
10
886.36288544670106
20
426.27216482571112
30
8.75
10
888.44298044489165
20
428.50279361564913
30
8.75
10
890.67360923482988
20
426.42269861745916
30
8.75
0
SPLINE
5
224
100
AcDbEntity
8
0
100
AcDbSpline
70
1064
71
2
72
6
73
3
74
0
42
0.000000001
43
0.0000000001
44
0.0000000001
40
78.849555951341117
40
78.849555951341117
40
78.849555951341117
40
96.74955595134152
40
96.74955595134152
40
96.74955595134152
10
578.81013252940829
20
250.01195779738723
30
8.75
10
572.22572192230825
20
256.07397371266751
30
8.75
10
565.64131131520844
20
262.13598962794771
30
8.75
0
SPLINE
5
225
100
AcDbEntity
8
0
100
AcDbSpline
70
1064
71
2
72
10
73
7
74
0
42
0.000000001
43
0.0000000001
44
0.0000000001
40
151.71327113823909
40
151.71327113823909
40
151.71327113823909
40
156.50419993496348
40
156.50419993496348
40
161.29512873168801
40
161.29512873168801
40
179.1951287316877
40
179.1951287316877
40
179.1951287316877
10
922.37263745982602
20
175.35373988006148
30
0
10
924.4527324580165
20
177.58436867000023
30
0
10
922.22210366807769
20
179.66446366819054
30
0
10
919.99147487813912
20
181.74455866638081
30
0
10
917.91137987994853
20
179.51392987644212
30
0
10
911.80749455738976
20
172.96831424695068
30
0
10
905.70360923483076
20
166.42269861745919
30
0
0
LINE
5
226
100
AcDbEntity
8
0
100
AcDbLine
10
886.36288544670106
20
426.27216482571112
30
-8.75
11
886.36288544670106
21
426.27216482571112
31
8.75
0
LINE
5
227
100
AcDbEntity
8
0
100
AcDbLine
10
908.08903486794065
20
155.85755571502267
30
-8.75
11
908.08903486794065
21
155.85755571502267
31
8.75
0
LWPOLYLINE
5
228
100
AcDbEntity
8
0
100
AcDbPolyline
90
4
70
1
43
0.0
10
559.45102599753386
20
572.54437615736606
10
559.45102599753386
20
572.54437615736606
10
551.45102599753386
20
572.54437615736606
10
551.45102599753386
20
572.54437615736606
0
LINE
5
229
100
AcDbEntity
8
0
100
AcDbLine
10
893.05903486794
20
415.85755571502256
30
-8.75
11
893.05903486794
21
415.85755571502256
31
8.75
0
LINE
5
230
100
AcDbEntity
8
0
100
AcDbLine
10
881.27364397862834
20
314.77337636008821
30
-8.75
11
969.83364397862886
21
314.77337636008821
31
-8.75
0
LINE
5
231
100
AcDbEntity
8
0
100
AcDbLine
10
935.6144025105574
20
158.83524544681342
30
-8.75
11
935.6144025105574
21
158.83524544681342
31
8.75
0
LINE
5
232
100
AcDbEntity
8
0
100
AcDbLine
10
919.09590807730922
20
145.59348039608241
30
-8.75
11
919.09590807730922
21
145.59348039608241
31
8.75
0
SPLINE
5
233
100
AcDbEntity
8
0
100
AcDbSpline
70
1064
71
2
72
10
73
7
74
0
42
0.000000001
43
0.0000000001
44
0.0000000001
40
124.2314135447903
40
124.2314135447903
40
124.2314135447903
40
129.0223423415147
40
129.0223423415147
40
133.81327113823909
40
133.81327113823909
40
151.71327113823909
40
151.71327113823909
40
151.71327113823909
10
931.30367872242857
20
158.684711655065
30
0
10
933.53430751236692
20
156.60461665687461
30
0
10
935.6144025105574
20
158.83524544681342
30
0
10
937.69449750874787
20
161.06587423675208
30
0
10
935.46386871880929
20
163.1459692349425
30
0
10
928.91825308931766
20
169.249854557502
30
0
10
922.37263745982602
20
175.3537398800616
30
0
0
SPLINE
5
234
100
AcDbEntity
8
0
100
AcDbSpline
70
1064
71
2
72
10
73
7
74
0
42
0.000000001
43
0.0000000001
44
0.0000000001
40
151.71327113823909
40
151.71327113823909
40
151.71327113823909
40
156.50419993496348
40
156.50419993496348
40
161.29512873168801
40
161.29512873168801
40
179.1951287316877
40
179.1951287316877
40
179.1951287316877
10
907.3426374598256
20
435.35373988006148
30
0
10
909.42273245801573
20
437.58436867000029
30
0
10
907.19210366807704
20
439.66446366819059
30
0
10
904.96147487813857
20
441.74455866638107
30
0
10
902.88137987994799
20
439.51392987644215
30
0
10
896.77749455738922
20
432.96831424695063
30
0
10
890.67360923483011
20
426.42269861745916
30
0
0
LINE
5
235
100
AcDbEntity
8
0
100
AcDbLine
10
738.43864397863069
20
65.395109830215972
30
8.75
11
738.43864397863069
21
84.50382280604822
31
8.75
0
LINE
5
236
100
AcDbEntity
8
0
100
AcDbLine
10
738.43864397863069
20
511.21192782242821
30
8.75
11
738.43864397863069
21
539.14163127458812
31
8.75
0
LWPOLYLINE
5
237
100
AcDbEntity
8
0
100
AcDbPolyline
90
4
70
1
43
0.0
10
555.45102599753397
20
568.54437615736606
10
555.45102599753397
20
568.54437615736606
10
555.45102599753386
20
576.54437615736606
10
555.45102599753397
20
576.54437615736606
0
SPLINE
5
238
100
AcDbEntity
8
0
100
AcDbSpline
70
1064
71
2
72
10
73
7
74
0
42
0.000000001
43
0.0000000001
44
0.0000000001
40
-124.2314135447903
40
-124.2314135447903
40
-124.2314135447903
40
-106.33141354479041
40
-106.33141354479041
40
-101.54048474806601
40
-101.54048474806601
40
-96.74955595134152
40
-96.74955595134152
40
-96.74955595134152
10
916.27367872242735
20
418.68471165506492
30
8.75
10
910.16979339986801
20
412.13909602557374
30
8.75
10
904.06590807730834
20
405.59348039608238
30
8.75
10
901.98581307911832
20
403.36285160614352
30
8.75
10
899.75518428917951
20
405.44294660433388
30
8.75
10
897.52455549924071
20
407.52304160252424
30
8.75
10
899.60465049743118
20
409.75367039246288
30
8.75
0
SPLINE
5
239
100
AcDbEntity
8
0
100
AcDbSpline
70
1064
71
2
72
10
73
7
74
0
42
0.000000001
43
0.0000000001
44
0.0000000001
40
96.74955595134152
40
96.74955595134152
40
96.74955595134152
40
101.54048474806601
40
101.54048474806601
40
106.33141354479041
40
106.33141354479041
40
124.2314135447903
40
124.2314135447903
40
124.2314135447903
10
899.60465049743118
20
409.75367039246288
30
0
10
897.52455549924071
20
407.52304160252424
30
0
10
899.75518428917951
20
405.44294660433388
30
0
10
901.98581307911832
20
403.36285160614352
30
0
10
904.06590807730879
20
405.59348039608238
30
0
10
910.16979339986801
20
412.13909602557374
30
0
10
916.27367872242769
20
418.68471165506492
30
0
0
LINE
5
240
100
AcDbEntity
8
0
100
AcDbLine
10
738.43864397863069
20
65.395109830215972
30
-8.75
11
738.43864397863069
21
84.50382280604822
31
-8.75
0
LINE
5
241
100
AcDbEntity
8
0
100
AcDbLine
10
786.58268508423589
20
91.270026528976217
30
-8.75
11
786.58268508423589
21
91.270026528976217
31
8.75
0
SPLINE
5
242
100
AcDbEntity
8
0
100
AcDbSpline
70
1064
71
2
72
12
73
9
74
0
42
0.000000001
43
0.0000000001
44
0.0000000001
40
0
40
0
40
0
40
6.2831853071795853
40
6.2831853071795853
40
12.566370614359169
40
12.566370614359169
40
18.849555921538762
40
18.849555921538762
40
25.132741228718338
40
25.132741228718338
40
25.132741228718338
10
559.45102599753386
20
572.54437615736606
30
0.25
10
559.45102599753386
20
576.54437615736629
30
0.25000000000000078
10
555.45102599753386
20
576.54437615736606
30
0.25
10
551.45102599753386
20
576.54437615736629
30
0.25000000000000078
10
551.45102599753386
20
572.54437615736606
30
0.25
10
551.45102599753386
20
568.54437615736629
30
0.25000000000000078
10
555.45102599753386
20
568.54437615736606
30
0.25
10
559.45102599753386
20
568.54437615736629
30
0.25000000000000078
10
559.45102599753386
20
572.54437615736606
30
0.25
0
LINE
5
243
100
AcDbEntity
8
0
100
AcDbLine
10
969.8336439786284
20
414.13065368898458
30
-8.75
11
969.8336439786284
21
414.13065368898458
31
8.75
0
SPLINE
5
244
100
AcDbEntity
8
0
100
AcDbSpline
70
1064
71
2
72
6
73
3
74
0
42
0.000000001
43
0.0000000001
44
0.0000000001
40
-2402.409427088432
40
-2402.409427088432
40
-2402.409427088432
40
-2387.409427088432
40
-2387.409427088432
40
-2387.409427088432
10
507.04364397862889
20
36.983376360087988
30
0
10
507.04364397862889
20
44.483376360087938
30
0
10
507.04364397862889
20
51.983376360087874
30
0
0
LINE
5
245
100
AcDbEntity
8
0
100
AcDbLine
10
904.06590807730879
20
405.59348039608238
30
-8.75
11
904.06590807730879
21
405.59348039608238
31
8.75
0
LINE
5
246
100
AcDbEntity
8
0
100
AcDbLine
10
914.78518428918039
20
145.44294660433391
30
-8.75
11
914.78518428918039
21
145.44294660433391
31
8.75
0
LINE
5
247
100
AcDbEntity
8
0
100
AcDbLine
10
917.91137987994853
20
179.51392987644212
30
-8.75
11
917.91137987994853
21
179.51392987644212
31
8.75
0
SPLINE
5
248
100
AcDbEntity
8
0
100
AcDbSpline
70
1064
71
2
72
6
73
3
74
0
42
0.000000001
43
0.0000000001
44
0.0000000001
40
78.849555951341117
40
78.849555951341117
40
78.849555951341117
40
96.74955595134152
40
96.74955595134152
40
96.74955595134152
10
901.5434192384497
20
161.9614410375824
30
0
10
908.08903486794065
20
155.85755571502267
30
0
10
914.63465049743206
20
149.75367039246311
30
0
0
SPLINE
5
249
100
AcDbEntity
8
0
100
AcDbSpline
70
1064
71
2
72
12
73
9
74
0
42
0.000000001
43
0.0000000001
44
0.0000000001
40
0
40
0
40
0
40
6.2831853071795853
40
6.2831853071795853
40
12.566370614359169
40
12.566370614359169
40
18.849555921538762
40
18.849555921538762
40
25.132741228718338
40
25.132741228718338
40
25.132741228718338
10
559.45102599753386
20
572.54437615736606
30
-8.75
10
559.45102599753386
20
576.54437615736629
30
-8.7499999999999982
10
555.45102599753386
20
576.54437615736606
30
-8.75
10
551.45102599753386
20
576.54437615736629
30
-8.7499999999999982
10
551.45102599753386
20
572.54437615736606
30
-8.75
10
551.45102599753386
20
568.54437615736629
30
-8.7499999999999982
10
555.45102599753386
20
568.54437615736606
30
-8.75
10
559.45102599753386
20
568.54437615736629
30
-8.7499999999999982
10
559.45102599753386
20
572.54437615736606
30
-8.75
0
LINE
5
250
100
AcDbEntity
8
0
100
AcDbLine
10
900.0792388695761
20
501.8239595196556
30
-8.75
11
900.0792388695761
21
501.8239595196556
31
8.75
0
LINE
5
251
100
AcDbEntity
8
0
100
AcDbLine
10
935.46386871880929
20
163.1459692349425
30
-8.75
11
935.46386871880929
21
163.1459692349425
31
8.75
0
LINE
5
252
100
AcDbEntity
8
0
100
AcDbLine
10
899.60465049743118
20
409.75367039246288
30
8.75
11
899.60465049743118
21
409.75367039246288
31
-8.75
0
SPLINE
5
253
100
AcDbEntity
8
0
100
AcDbSpline
70
1064
71
2
72
14
73
11
74
0
42
0.000000001
43
0.0000000001
44
0.0000000001
40
-1297.0401927254541
40
-1297.0401927254541
40
-1297.0401927254541
40
-893.66614717985499
40
-893.66614717985499
40
-772.71483001664797
40
-772.71483001664797
40
-532.01629343804188
40
-532.01629343804188
40
-401.6401983140654
40
-401.6401983140654
40
-15
40
-15
40
-15
10
507.04364397862832
20
592.56337636008811
30
0
10
703.56144142410233
20
547.19366793987183
30
0
10
900.0792388695761
20
501.8239595196556
30
0
10
969.83364397863284
20
485.71988618909216
30
0
10
969.8336439786284
20
414.13065368898458
30
0
10
969.83364397862886
20
293.78138539968137
30
0
10
969.83364397862886
20
173.43211711037841
30
0
10
969.83364397863056
20
93.806843300342294
30
0
10
890.80188488509179
20
84.102963462659318
30
0
10
698.92276443186017
20
60.543169911373688
30
0
10
507.04364397862889
20
36.983376360088037
30
0
0
LINE
5
254
100
AcDbEntity
8
0
100
AcDbLine
10
969.83364397862886
20
173.43211711037841
30
-8.75
11
969.83364397862886
21
173.43211711037841
31
8.75
0
LINE
5
255
100
AcDbEntity
8
0
100
AcDbLine
10
738.43864397863069
20
511.21192782242821
30
-8.75
11
738.43864397863069
21
539.14163127458812
31
-8.75
0
LINE
5
256
100
AcDbEntity
8
0
100
AcDbLine
10
901.39288544670194
20
166.27216482571123
30
-8.75
11
901.39288544670194
21
166.27216482571123
31
8.75
0
LINE
5
257
100
AcDbEntity
8
0
100
AcDbLine
10
507.04364397862889
20
44.483376360087902
30
-8.75
11
507.04364397862889
21
44.483376360087902
31
8.75
0
LINE
5
258
100
AcDbEntity
8
0
100
AcDbLine
10
907.19210366807704
20
439.66446366819059
30
-8.75
11
907.19210366807704
21
439.66446366819059
31
8.75
0
SPLINE
5
259
100
AcDbEntity
8
0
100
AcDbSpline
70
1064
71
2
72
8
73
5
74
0
42
0.000000001
43
0.0000000001
44
0.0000000001
40
179.1951287316877
40
179.1951287316877
40
179.1951287316877
40
183.98605752841209
40
183.98605752841209
40
188.77698632513659
40
188.77698632513659
40
188.77698632513659
10
905.70360923483076
20
166.4226986174593
30
0
10
903.47298044489253
20
168.50279361564932
30
0
10
901.39288544670194
20
166.27216482571123
30
0
10
899.31279044851181
20
164.04153603577311
30
0
10
901.5434192384497
20
161.9614410375824
30
0
0
LINE
5
260
100
AcDbEntity
8
0
100
AcDbLine
10
507.04364397862832
20
585.063376360088
30
-8.7499999999999982
11
507.04364397862832
21
585.063376360088
31
8.7500000000000018
0
LINE
5
261
100
AcDbEntity
8
0
100
AcDbLine
10
890.80188488509179
20
84.102963462659318
30
-8.75
11
890.80188488509179
21
84.102963462659318
31
8.75
0
LINE
5
262
100
AcDbEntity
8
0
100
AcDbLine
10
902.88137987994799
20
439.51392987644215
30
-8.75
11
902.88137987994799
21
439.51392987644215
31
8.75
0
SPLINE
5
263
100
AcDbEntity
8
0
100
AcDbSpline
70
1064
71
2
72
14
73
11
74
0
42
0.000000001
43
0.0000000001
44
0.0000000001
40
-2387.409427088432
40
-2387.409427088432
40
-2387.409427088432
40
-2105.1231957845739
40
-2105.1231957845739
40
-1947.694497254686
40
-1947.694497254686
40
-1760.5303062089718
40
-1760.5303062089718
40
-1618.4605050966338
40
-1618.4605050966338
40
-1312.0401927254541
40
-1312.0401927254541
40
-1312.0401927254541
10
507.04364397862889
20
51.983376360087874
30
0
10
646.81316453143222
20
71.62670144453196
30
0
10
786.58268508423589
20
91.270026528976217
30
0
10
881.27364397862721
20
104.5779729307653
30
0
10
881.27364397862834
20
200.19951409054892
30
0
10
881.27364397862834
20
293.78160961340564
30
0
10
881.27364397862834
20
387.36370513626213
30
0
10
881.27364397862596
20
470.25465064756759
30
0
10
801.5937531184984
20
493.10249168947723
30
0
10
654.31869854856348
20
535.33293402478262
30
0
10
507.04364397862832
20
577.56337636008811
30
0
0
SPLINE
5
264
100
AcDbEntity
8
0
100
AcDbSpline
70
1064
71
2
72
8
73
5
74
0
42
0.000000001
43
0.0000000001
44
0.0000000001
40
179.1951287316877
40
179.1951287316877
40
179.1951287316877
40
183.98605752841209
40
183.98605752841209
40
188.77698632513659
40
188.77698632513659
40
188.77698632513659
10
890.67360923482966
20
426.42269861745916
30
0
10
888.44298044489142
20
428.50279361564913
30
0
10
886.36288544670106
20
426.27216482571112
30
0
10
884.28279044851047
20
424.04153603577294
30
0
10
886.51341923844836
20
421.96144103758235
30
0
0
LINE
5
265
100
AcDbEntity
8
0
100
AcDbLine
10
881.27364397862834
20
387.36370513626213
30
-8.75
11
881.27364397862834
21
387.36370513626213
31
8.75
0
LINE
5
266
100
AcDbEntity
8
0
100
AcDbLine
10
801.5937531184984
20
493.10249168947723
30
-8.75
11
801.5937531184984
21
493.10249168947723
31
8.75
0
SPLINE
5
267
100
AcDbEntity
8
0
100
AcDbSpline
70
1064
71
2
72
6
73
3
74
0
42
0.000000001
43
0.0000000001
44
0.0000000001
40
78.849555951341117
40
78.849555951341117
40
78.849555951341117
40
96.74955595134152
40
96.74955595134152
40
96.74955595134152
10
886.51341923844871
20
421.96144103758223
30
0
10
893.05903486794
20
415.85755571502256
30
0
10
899.60465049743118
20
409.75367039246288
30
0
0
LINE
5
268
100
AcDbEntity
8
0
100
AcDbLine
10
920.43386871880796
20
423.14596923494219
30
-8.75
11
920.43386871880796
21
423.14596923494219
31
8.75
0
LINE
5
269
100
AcDbEntity
8
0
100
AcDbLine
10
920.58440251055629
20
418.83524544681313
30
-8.75
11
920.58440251055629
21
418.83524544681313
31
8.75
0
SPLINE
5
270
100
AcDbEntity
8
0
100
AcDbSpline
70
1064
71
2
72
10
73
7
74
0
42
0.000000001
43
0.0000000001
44
0.0000000001
40
96.74955595134152
40
96.74955595134152
40
96.74955595134152
40
101.54048474806601
40
101.54048474806601
40
106.33141354479041
40
106.33141354479041
40
124.2314135447903
40
124.2314135447903
40
124.2314135447903
10
914.63465049743195
20
149.75367039246311
30
0
10
912.55455549924147
20
147.52304160252433
30
0
10
914.78518428918039
20
145.44294660433391
30
0
10
917.01581307911908
20
143.36285160614358
30
0
10
919.09590807730922
20
145.59348039608241
30
0
10
925.19979339986889
20
152.13909602557368
30
0
10
931.30367872242857
20
158.68471165506492
30
0
0
SPLINE
5
271
100
AcDbEntity
8
0
100
AcDbSpline
70
1064
71
2
72
10
73
7
74
0
42
0.000000001
43
0.0000000001
44
0.0000000001
40
124.2314135447903
40
124.2314135447903
40
124.2314135447903
40
129.0223423415147
40
129.0223423415147
40
133.81327113823909
40
133.81327113823909
40
151.71327113823909
40
151.71327113823909
40
151.71327113823909
10
916.27367872242735
20
418.68471165506469
30
0
10
918.50430751236559
20
416.60461665687444
30
0
10
920.58440251055629
20
418.83524544681313
30
0
10
922.66449750874676
20
421.06587423675188
30
0
10
920.43386871880796
20
423.14596923494219
30
0
10
913.88825308931644
20
429.24985455750181
30
0
10
907.34263745982526
20
435.35373988006143
30
0
0
LINE
5
272
100
AcDbEntity
8
0
100
AcDbLine
10
881.27364397862834
20
314.77337636008821
30
8.75
11
969.83364397862886
21
314.77337636008821
31
8.75
0
SPLINE
5
273
100
AcDbEntity
8
0
100
AcDbSpline
70
1064
71
2
72
12
73
9
74
0
42
0.000000001
43
0.0000000001
44
0.0000000001
40
-25.132741228718338
40
-25.132741228718338
40
-25.132741228718338
40
-18.849555921538762
40
-18.849555921538762
40
-12.566370614359169
40
-12.566370614359169
40
-6.2831853071795853
40
-6.2831853071795853
40
0
40
0
40
0
10
559.45102599753397
20
572.54437615736606
30
-4.25
10
559.45102599753397
20
568.54437615736629
30
-4.2499999999999991
10
555.45102599753397
20
568.54437615736606
30
-4.25
10
551.45102599753386
20
568.54437615736629
30
-4.2499999999999991
10
551.45102599753397
20
572.54437615736606
30
-4.25
10
551.45102599753386
20
576.54437615736629
30
-4.2499999999999991
10
555.45102599753397
20
576.54437615736606
30
-4.25
10
559.45102599753397
20
576.54437615736629
30
-4.2499999999999991
10
559.45102599753397
20
572.54437615736606
30
-4.25
0
LINE
5
274
100
AcDbEntity
8
0
100
AcDbLine
10
881.27364397862834
20
200.19951409054892
30
-8.75
11
881.27364397862834
21
200.19951409054892
31
8.75
0
LINE
5
275
100
AcDbEntity
8
0
100
AcDbLine
10
922.22210366807769
20
179.66446366819054
30
-8.75
11
922.22210366807769
21
179.66446366819054
31
8.75
0
SPLINE
5
276
100
AcDbEntity
8
0
100
AcDbSpline
70
1064
71
2
72
6
73
3
74
0
42
0.000000001
43
0.0000000001
44
0.0000000001
40
-1312.0401927254541
40
-1312.0401927254541
40
-1312.0401927254541
40
-1297.0401927254541
40
-1297.0401927254541
40
-1297.0401927254541
10
507.04364397862832
20
577.56337636008811
30
0
10
507.04364397862832
20
585.06337636008811
30
0
10
507.04364397862832
20
592.56337636008811
30
0
0
LINE
5
277
100
AcDbEntity
8
0
100
AcDbLine
10
899.75518428917951
20
405.44294660433388
30
-8.75
11
899.75518428917951
21
405.44294660433388
31
8.75
0
SPLINE
5
278
100
AcDbEntity
8
0
100
AcDbSpline
70
1064
71
2
72
12
73
9
74
0
42
0.000000001
43
0.0000000001
44
0.0000000001
40
0
40
0
40
0
40
6.2831853071795853
40
6.2831853071795853
40
12.566370614359169
40
12.566370614359169
40
18.849555921538762
40
18.849555921538762
40
25.132741228718338
40
25.132741228718338
40
25.132741228718338
10
929.55364397862854
20
193.78160961340564
30
0.25
10
929.55364397862866
20
197.78160961340569
30
0.25000000000000078
10
925.55364397862843
20
197.78160961340561
30
0.25
10
921.55364397862854
20
197.78160961340569
30
0.25000000000000078
10
921.55364397862854
20
193.78160961340564
30
0.25
10
921.55364397862854
20
189.78160961340561
30
0.25000000000000078
10
925.55364397862843
20
189.78160961340561
30
0.25
10
929.55364397862866
20
189.78160961340561
30
0.25000000000000078
10
929.55364397862854
20
193.78160961340564
30
0.25
0
SPLINE
5
279
100
AcDbEntity
8
0
100
AcDbSpline
70
1064
71
2
72
8
73
5
74
0
42
0.000000001
43
0.0000000001
44
0.0000000001
40
279.01983277665249
40
279.01983277665249
40
279.01983277665249
40
409.3959279006308
40
409.3959279006308
40
796.0361262146962
40
796.0361262146962
40
796.0361262146962
10
137.06012879692958
20
327.29547626346863
30
0
10
144.11108841948459
20
406.60794815613201
30
0
10
223.69167299328521
20
409.27530419077902
30
0
10
416.9032723340265
20
415.7513074549679
30
0
10
610.11487167476776
20
422.22731071915678
30
0
0
LWPOLYLINE
5
280
100
AcDbEntity
8
0
100
AcDbPolyline
90
4
70
1
43
0.0
10
100.55673177212661
20
297.48170924211087
10
76.556731772126625
20
297.48170924211087
10
76.556731772126625
20
297.48170924211087
10
100.55673177212661
20
297.48170924211087
0
SPLINE
5
281
100
AcDbEntity
8
0
100
AcDbSpline
70
1064
71
2
72
6
73
3
74
0
42
0.000000001
43
0.0000000001
44
0.0000000001
40
-1470
40
-1470
40
-1470
40
-996
40
-996
40
-996
10
100.55673177212651
20
534.48170924211104
30
8.75
10
100.55673177212661
20
297.48170924211087
30
8.75
10
100.55673177212661
20
60.481709242110924
30
8.75
0
SPLINE
5
282
100
AcDbEntity
8
0
100
AcDbSpline
70
1064
71
2
72
6
73
3
74
0
42
0.000000001
43
0.0000000001
44
0.0000000001
40
-96.74955595134152
40
-96.74955595134152
40
-96.74955595134152
40
-78.849555951341117
40
-78.849555951341117
40
-78.849555951341117
10
184.16452519635794
20
321.17864590027489
30
0
10
178.18513342911655
20
327.83817847349974
30
0
10
172.20574166187501
20
334.49771104672465
30
0
0
LWPOLYLINE
5
283
100
AcDbEntity
8
0
100
AcDbPolyline
90
4
70
1
43
0.0
10
88.556731772126568
20
60.481709242110988
10
88.556731772126568
20
60.481709242110995
10
88.556731772126625
20
534.48170924211104
10
88.556731772126568
20
534.48170924211104
0
SPLINE
5
284
100
AcDbEntity
8
0
100
AcDbSpline
70
1064
71
2
72
12
73
9
74
0
42
0.000000001
43
0.0000000001
44
0.0000000001
40
0
40
0
40
0
40
6.2831853071795853
40
6.2831853071795853
40
12.566370614359169
40
12.566370614359169
40
18.849555921538762
40
18.849555921538762
40
25.132741228718338
40
25.132741228718338
40
25.132741228718338
10
884.91255259633988
20
107.34319999732919
30
-8.75
10
884.532942528901
20
111.32514627982721
30
-8.7499999999999982
10
880.5509962464032
20
110.94553621238809
30
-8.75
10
876.56904996390517
20
110.56592614494932
30
-8.7499999999999982
10
876.94866003134405
20
106.58397986245132
30
-8.75
10
877.32827009878349
20
102.6020335799534
30
-8.7499999999999982
10
881.31021638128107
20
102.98164364739229
30
-8.75
10
885.29216266377898
20
103.36125371483129
30
-8.7499999999999982
10
884.91255259633988
20
107.34319999732919
30
-8.75
0
SPLINE
5
285
100
AcDbEntity
8
0
100
AcDbSpline
70
1064
71
2
72
10
73
7
74
0
42
0.000000001
43
0.0000000001
44
0.0000000001
40
1250.751056048445
40
1250.751056048445
40
1250.751056048445
40
1327.1790120584401
40
1327.1790120584401
40
1361.3421902952059
40
1361.3421902952059
40
1372.3421902952059
40
1372.3421902952059
40
1372.3421902952059
10
222.90192686487512
20
292.79108747658984
30
0
10
188.69881470470619
20
266.06345669976491
30
0
10
151.0437994519682
20
287.65787622656512
30
0
10
134.38559128440158
20
297.21103490465231
30
0
10
136.08605923161622
20
316.33868893862086
30
0
10
136.57309401427298
20
321.81708260104472
30
0
10
137.06012879692958
20
327.29547626346863
30
0
0
LWPOLYLINE
5
286
100
AcDbEntity
8
0
100
AcDbPolyline
90
4
70
1
43
0.0
10
921.55364397862854
20
193.78160961340564
10
921.55364397862854
20
193.78160961340564
10
929.55364397862854
20
193.78160961340569
10
929.55364397862854
20
193.78160961340564
0
LINE
5
287
100
AcDbEntity
8
0
100
AcDbLine
10
76.556731772126625
20
60.481709242111037
30
17.5
11
76.556731772126625
21
60.481709242111037
31
0
0
LINE
5
288
100
AcDbEntity
8
0
100
AcDbLine
10
608.78659499479443
20
407.28623709436533
30
17.5
11
608.78659499479443
21
407.28623709436533
31
0
0
SPLINE
5
289
100
AcDbEntity
8
0
100
AcDbSpline
70
1064
71
2
72
8
73
5
74
0
42
0.000000001
43
0.0000000001
44
0.0000000001
40
279.01983277665249
40
279.01983277665249
40
279.01983277665249
40
409.3959279006308
40
409.3959279006308
40
796.0361262146962
40
796.0361262146962
40
796.0361262146962
10
137.06012879692958
20
327.29547626346863
30
17.5
10
144.11108841948459
20
406.60794815613201
30
17.5
10
223.69167299328521
20
409.27530419077902
30
17.5
10
416.9032723340265
20
415.7513074549679
30
17.5
10
610.11487167476776
20
422.22731071915678
30
17.5
0
SPLINE
5
290
100
AcDbEntity
8
0
100
AcDbSpline
70
1064
71
2
72
6
73
3
74
0
42
0.000000001
43
0.0000000001
44
0.0000000001
40
498.00000000000017
40
498.00000000000017
40
498.00000000000017
40
972
40
972
40
972
10
76.556731772126625
20
534.48170924211104
30
0
10
76.556731772126625
20
297.48170924211104
30
0
10
76.556731772126625
20
60.481709242111037
30
0
0
SPLINE
5
291
100
AcDbEntity
8
0
100
AcDbSpline
70
1064
71
2
72
6
73
3
74
0
42
0.000000001
43
0.0000000001
44
0.0000000001
40
972
40
972
40
972
40
996
40
996
40
996
10
76.556731772126625
20
60.481709242111037
30
17.5
10
88.556731772126625
20
60.481709242110988
30
17.5
10
100.55673177212661
20
60.481709242110924
30
17.5
0
SPLINE
5
292
100
AcDbEntity
8
0
100
AcDbSpline
70
1064
71
2
72
8
73
5
74
0
42
0.000000001
43
0.0000000001
44
0.0000000001
40
811.0361262146962
40
811.0361262146962
40
811.0361262146962
40
1093.3223575185539
40
1093.3223575185539
40
1250.751056048445
40
1250.751056048445
40
1250.751056048445
10
608.78659499479443
20
407.28623709436533
30
17.5
10
467.82669714759174
20
400.0969189876281
30
17.5
10
326.86679930038895
20
392.90760088089064
30
17.5
10
231.36938441324801
20
388.03698658221901
30
17.500000000000004
10
222.90192686487512
20
292.79108747658984
30
17.5
0
SPLINE
5
293
100
AcDbEntity
8
0
100
AcDbSpline
70
1064
71
2
72
8
73
5
74
0
42
0.000000001
43
0.0000000001
44
0.0000000001
40
811.0361262146962
40
811.0361262146962
40
811.0361262146962
40
1093.3223575185539
40
1093.3223575185539
40
1250.751056048445
40
1250.751056048445
40
1250.751056048445
10
608.78659499479443
20
407.28623709436533
30
0
10
467.82669714759174
20
400.0969189876281
30
0
10
326.86679930038895
20
392.90760088089064
30
0
10
231.36938441324801
20
388.03698658221901
30
0
10
222.90192686487512
20
292.79108747658984
30
0
0
SPLINE
5
294
100
AcDbEntity
8
0
100
AcDbSpline
70
1064
71
2
72
10
73
7
74
0
42
0.000000001
43
0.0000000001
44
0.0000000001
40
-179.1951287316877
40
-179.1951287316877
40
-179.1951287316877
40
-161.29512873168801
40
-161.29512873168801
40
-156.50419993496348
40
-156.50419993496348
40
-151.71327113823909
40
-151.71327113823909
40
-151.71327113823909
10
176.74464095759259
20
338.57305068696769
30
0
10
183.40417353081671
20
344.55244245420937
30
0
10
190.0637061040409
20
350.53183422145116
30
0
10
192.33315575189943
20
352.56950404157305
30
0
10
194.37082557202118
20
350.30005439371462
30
0
10
196.40849539214301
20
348.03060474585618
30
0
10
194.1390457442846
20
345.9929349257344
30
0
0
LINE
5
295
100
AcDbEntity
8
0
100
AcDbLine
10
100.55673177212661
20
60.481709242110924
30
17.5
11
100.55673177212661
21
60.481709242110924
31
0
0
SPLINE
5
296
100
AcDbEntity
8
0
100
AcDbSpline
70
1064
71
2
72
10
73
7
74
0
42
0.000000001
43
0.0000000001
44
0.0000000001
40
-124.2314135447903
40
-124.2314135447903
40
-124.2314135447903
40
-106.33141354479041
40
-106.33141354479041
40
-101.54048474806601
40
-101.54048474806601
40
-96.74955595134152
40
-96.74955595134152
40
-96.74955595134152
10
201.55892998305103
20
328.59853013904115
30
0
10
194.89939740982621
20
322.61913837179952
30
0
10
188.23986483660133
20
316.63974660455801
30
0
10
185.97041518874309
20
314.60207678443618
30
0
10
183.93274536862134
20
316.87152643229462
30
0
10
181.89507554849942
20
319.14097608015317
30
0
10
184.16452519635794
20
321.17864590027489
30
0
0
SPLINE
5
297
100
AcDbEntity
8
0
100
AcDbSpline
70
1064
71
2
72
6
73
3
74
0
42
0.000000001
43
0.0000000001
44
0.0000000001
40
1470
40
1470
40
1470
40
1494
40
1494
40
1494
10
100.55673177212651
20
534.48170924211104
30
0
10
88.556731772126568
20
534.48170924211104
30
0
10
76.556731772126625
20
534.48170924211104
30
0
0
LWPOLYLINE
5
298
100
AcDbEntity
8
0
100
AcDbPolyline
90
4
70
1
43
0.0
10
925.55364397862843
20
197.78160961340561
10
925.55364397862843
20
189.78160961340561
10
925.55364397862843
20
189.78160961340561
10
925.55364397862843
20
197.78160961340561
0
SPLINE
5
299
100
AcDbEntity
8
0
100
AcDbSpline
70
1064
71
2
72
6
73
3
74
0
42
0.000000001
43
0.0000000001
44
0.0000000001
40
996
40
996
40
996
40
1470
40
1470
40
1470
10
100.55673177212661
20
60.481709242110924
30
17.5
10
100.55673177212661
20
297.48170924211087
30
17.5
10
100.55673177212651
20
534.48170924211104
30
17.5
0
LINE
5
300
100
AcDbEntity
8
0
100
AcDbLine
10
76.556731772126625
20
534.48170924211104
30
0
11
76.556731772126625
21
534.48170924211104
31
17.5
0
SPLINE
5
301
100
AcDbEntity
8
0
100
AcDbSpline
70
1064
71
2
72
6
73
3
74
0
42
0.000000001
43
0.0000000001
44
0.0000000001
40
-972
40
-972
40
-972
40
-498.00000000000017
40
-498.00000000000017
40
-498.00000000000017
10
76.556731772126625
20
60.481709242111037
30
8.75
10
76.556731772126625
20
297.48170924211104
30
8.75
10
76.556731772126625
20
534.48170924211104
30
8.75
0
SPLINE
5
302
100
AcDbEntity
8
0
100
AcDbSpline
70
1064
71
2
72
10
73
7
74
0
42
0.000000001
43
0.0000000001
44
0.0000000001
40
-151.71327113823909
40
-151.71327113823909
40
-151.71327113823909
40
-133.81327113823909
40
-133.81327113823909
40
-129.0223423415147
40
-129.0223423415147
40
-124.2314135447903
40
-124.2314135447903
40
-124.2314135447903
10
194.1390457442846
20
345.9929349257344
30
0
10
200.11843751152634
20
339.33340235250961
30
0
10
206.09782927876793
20
332.6738697792847
30
0
10
208.13549909888968
20
330.40442013142632
30
0
10
205.86604945103133
20
328.36675031130449
30
0
10
203.59659980317281
20
326.32908049118265
30
0
10
201.55892998305103
20
328.59853013904115
30
0
0
SPLINE
5
303
100
AcDbEntity
8
0
100
AcDbSpline
70
1064
71
2
72
8
73
5
74
0
42
0.000000001
43
0.0000000001
44
0.0000000001
40
-188.77698632513659
40
-188.77698632513659
40
-188.77698632513659
40
-183.98605752841209
40
-183.98605752841209
40
-179.1951287316877
40
-179.1951287316877
40
-179.1951287316877
10
172.20574166187501
20
334.49771104672465
30
0
10
170.1680718417542
20
336.76716069458337
30
0
10
172.43752148961261
20
338.80483051470458
30
0
10
174.70697113747107
20
340.84250033482579
30
0
10
176.74464095759259
20
338.57305068696769
30
0
0
LINE
5
304
100
AcDbEntity
8
0
100
AcDbLine
10
610.11487167476776
20
422.22731071915678
30
17.5
11
610.11487167476776
21
422.22731071915678
31
0
0
SPLINE
5
305
100
AcDbEntity
8
0
100
AcDbSpline
70
1064
71
2
72
12
73
9
74
0
42
0.000000001
43
0.0000000001
44
0.0000000001
40
0
40
0
40
0
40
6.2831853071795853
40
6.2831853071795853
40
12.566370614359169
40
12.566370614359169
40
18.849555921538762
40
18.849555921538762
40
25.132741228718338
40
25.132741228718338
40
25.132741228718338
10
929.55364397862854
20
193.78160961340564
30
-8.75
10
929.55364397862866
20
197.78160961340569
30
-8.7499999999999982
10
925.55364397862843
20
197.78160961340561
30
-8.75
10
921.55364397862854
20
197.78160961340569
30
-8.7499999999999982
10
921.55364397862854
20
193.78160961340564
30
-8.75
10
921.55364397862854
20
189.78160961340561
30
-8.7499999999999982
10
925.55364397862843
20
189.78160961340561
30
-8.75
10
929.55364397862866
20
189.78160961340561
30
-8.7499999999999982
10
929.55364397862854
20
193.78160961340564
30
-8.75
0
SPLINE
5
306
100
AcDbEntity
8
0
100
AcDbSpline
70
1064
71
2
72
6
73
3
74
0
42
0.000000001
43
0.0000000001
44
0.0000000001
40
796.0361262146962
40
796.0361262146962
40
796.0361262146962
40
811.0361262146962
40
811.0361262146962
40
811.0361262146962
10
610.11487167476776
20
422.22731071915678
30
0
10
609.45073333478126
20
414.75677390676105
30
0
10
608.78659499479443
20
407.28623709436533
30
0
0
SPLINE
5
307
100
AcDbEntity
8
0
100
AcDbSpline
70
1064
71
2
72
6
73
3
74
0
42
0.000000001
43
0.0000000001
44
0.0000000001
40
1470
40
1470
40
1470
40
1494
40
1494
40
1494
10
100.55673177212651
20
534.48170924211104
30
17.5
10
88.556731772126568
20
534.48170924211104
30
17.5
10
76.556731772126625
20
534.48170924211104
30
17.5
0
SPLINE
5
308
100
AcDbEntity
8
0
100
AcDbSpline
70
1064
71
2
72
6
73
3
74
0
42
0.000000001
43
0.0000000001
44
0.0000000001
40
996
40
996
40
996
40
1470
40
1470
40
1470
10
100.55673177212661
20
60.481709242110924
30
0
10
100.55673177212661
20
297.48170924211087
30
0
10
100.55673177212651
20
534.48170924211104
30
0
0
SPLINE
5
309
100
AcDbEntity
8
0
100
AcDbSpline
70
1064
71
2
72
6
73
3
74
0
42
0.000000001
43
0.0000000001
44
0.0000000001
40
-996
40
-996
40
-996
40
-972
40
-972
40
-972
10
100.55673177212661
20
60.481709242110924
30
8.75
10
88.556731772126625
20
60.481709242110988
30
8.75
10
76.556731772126625
20
60.481709242111037
30
8.75
0
SPLINE
5
310
100
AcDbEntity
8
0
100
AcDbSpline
70
1064
71
2
72
12
73
9
74
0
42
0.000000001
43
0.0000000001
44
0.0000000001
40
-25.132741228718338
40
-25.132741228718338
40
-25.132741228718338
40
-18.849555921538762
40
-18.849555921538762
40
-12.566370614359169
40
-12.566370614359169
40
-6.2831853071795853
40
-6.2831853071795853
40
0
40
0
40
0
10
929.55364397862854
20
193.78160961340564
30
-4.25
10
929.55364397862866
20
189.78160961340561
30
-4.2499999999999991
10
925.55364397862843
20
189.78160961340561
30
-4.25
10
921.55364397862854
20
189.78160961340561
30
-4.2499999999999991
10
921.55364397862854
20
193.78160961340564
30
-4.25
10
921.55364397862854
20
197.78160961340569
30
-4.2499999999999991
10
925.55364397862843
20
197.78160961340561
30
-4.25
10
929.55364397862866
20
197.78160961340569
30
-4.2499999999999991
10
929.55364397862854
20
193.78160961340564
30
-4.25
0
SPLINE
5
311
100
AcDbEntity
8
0
100
AcDbSpline
70
1064
71
2
72
12
73
9
74
0
42
0.000000001
43
0.0000000001
44
0.0000000001
40
0
40
0
40
0
40
6.2831853071795853
40
6.2831853071795853
40
12.566370614359169
40
12.566370614359169
40
18.849555921538762
40
18.849555921538762
40
25.132741228718338
40
25.132741228718338
40
25.132741228718338
10
884.91255259633988
20
107.34319999732919
30
0.25
10
884.532942528901
20
111.32514627982721
30
0.25000000000000078
10
880.5509962464032
20
110.94553621238809
30
0.25
10
876.56904996390517
20
110.56592614494932
30
0.25000000000000078
10
876.94866003134405
20
106.58397986245132
30
0.25
10
877.32827009878349
20
102.6020335799534
30
0.25000000000000078
10
881.31021638128107
20
102.98164364739229
30
0.25
10
885.29216266377898
20
103.36125371483129
30
0.25000000000000078
10
884.91255259633988
20
107.34319999732919
30
0.25
0
LINE
5
312
100
AcDbEntity
8
0
100
AcDbLine
10
100.55673177212651
20
534.48170924211104
30
17.5
11
100.55673177212651
21
534.48170924211104
31
0
0
SPLINE
5
313
100
AcDbEntity
8
0
100
AcDbSpline
70
1064
71
2
72
6
73
3
74
0
42
0.000000001
43
0.0000000001
44
0.0000000001
40
-1494
40
-1494
40
-1494
40
-1470
40
-1470
40
-1470
10
76.556731772126625
20
534.48170924211104
30
8.75
10
88.556731772126568
20
534.48170924211104
30
8.75
10
100.55673177212651
20
534.48170924211104
30
8.75
0
SPLINE
5
314
100
AcDbEntity
8
0
100
AcDbSpline
70
1064
71
2
72
6
73
3
74
0
42
0.000000001
43
0.0000000001
44
0.0000000001
40
498.00000000000017
40
498.00000000000017
40
498.00000000000017
40
972
40
972
40
972
10
76.556731772126625
20
534.48170924211104
30
17.5
10
76.556731772126625
20
297.48170924211104
30
17.5
10
76.556731772126625
20
60.481709242111037
30
17.5
0
SPLINE
5
315
100
AcDbEntity
8
0
100
AcDbSpline
70
1064
71
2
72
6
73
3
74
0
42
0.000000001
43
0.0000000001
44
0.0000000001
40
796.0361262146962
40
796.0361262146962
40
796.0361262146962
40
811.0361262146962
40
811.0361262146962
40
811.0361262146962
10
610.11487167476776
20
422.22731071915678
30
17.5
10
609.45073333478126
20
414.75677390676105
30
17.5
10
608.78659499479443
20
407.28623709436533
30
17.5
0
LINE
5
316
100
AcDbEntity
8
0
100
AcDbLine
10
222.90192686487512
20
292.79108747658984
30
17.5
11
222.90192686487512
21
292.79108747658984
31
0
0
SPLINE
5
317
100
AcDbEntity
8
0
100
AcDbSpline
70
1064
71
2
72
10
73
7
74
0
42
0.000000001
43
0.0000000001
44
0.0000000001
40
1250.751056048445
40
1250.751056048445
40
1250.751056048445
40
1327.1790120584401
40
1327.1790120584401
40
1361.3421902952059
40
1361.3421902952059
40
1372.3421902952059
40
1372.3421902952059
40
1372.3421902952059
10
222.90192686487512
20
292.79108747658984
30
17.5
10
188.69881470470619
20
266.06345669976491
30
17.5
10
151.0437994519682
20
287.65787622656512
30
17.5
10
134.38559128440158
20
297.21103490465231
30
17.5
10
136.08605923161622
20
316.33868893862086
30
17.5
10
136.57309401427298
20
321.81708260104472
30
17.5
10
137.06012879692958
20
327.29547626346863
30
17.5
0
LINE
5
318
100
AcDbEntity
8
0
100
AcDbLine
10
172.20574166187501
20
334.49771104672465
30
0
11
172.20574166187501
21
334.49771104672465
31
17.5
0
SPLINE
5
319
100
AcDbEntity
8
0
100
AcDbSpline
70
1064
71
2
72
6
73
3
74
0
42
0.000000001
43
0.0000000001
44
0.0000000001
40
-811.0361262146962
40
-811.0361262146962
40
-811.0361262146962
40
-796.0361262146962
40
-796.0361262146962
40
-796.0361262146962
10
608.78659499479443
20
407.28623709436533
30
8.75
10
609.45073333478126
20
414.75677390676105
30
8.75
10
610.11487167476776
20
422.22731071915678
30
8.75
0
SPLINE
5
320
100
AcDbEntity
8
0
100
AcDbSpline
70
1064
71
2
72
6
73
3
74
0
42
0.000000001
43
0.0000000001
44
0.0000000001
40
972
40
972
40
972
40
996
40
996
40
996
10
76.556731772126625
20
60.481709242111037
30
0
10
88.556731772126625
20
60.481709242110988
30
0
10
100.55673177212661
20
60.481709242110924
30
0
0
LINE
5
321
100
AcDbEntity
8
0
100
AcDbLine
10
201.55892998305103
20
328.59853013904115
30
17.5
11
201.55892998305103
21
328.59853013904115
31
0
0
LINE
5
322
100
AcDbEntity
8
0
100
AcDbLine
10
137.06012879692958
20
327.29547626346863
30
0
11
137.06012879692958
21
327.29547626346863
31
17.5
0
SPLINE
5
323
100
AcDbEntity
8
0
100
AcDbSpline
70
1064
71
2
72
12
73
9
74
0
42
0.000000001
43
0.0000000001
44
0.0000000001
40
0
40
0
40
0
40
6.2831853071795853
40
6.2831853071795853
40
12.566370614359169
40
12.566370614359169
40
18.849555921538762
40
18.849555921538762
40
25.132741228718338
40
25.132741228718338
40
25.132741228718338
10
528.97647898285345
20
191.47915946458698
30
9
10
528.59686891541469
20
195.46110574708507
30
9
10
524.61492263291643
20
195.08149567964603
30
9
10
520.63297635041874
20
194.70188561220721
30
9
10
521.01258641785762
20
190.71993932970909
30
9
10
521.39219648529672
20
186.73799304721129
30
9
10
525.37414276779464
20
187.11760311465019
30
9
10
529.35608905029233
20
187.49721318208918
30
9
10
528.97647898285345
20
191.47915946458698
30
9
0
LINE
5
324
100
AcDbEntity
8
0
100
AcDbLine
10
223.69167299328521
20
409.27530419077902
30
0
11
223.69167299328521
21
409.27530419077902
31
17.5
0
SPLINE
5
325
100
AcDbEntity
8
0
100
AcDbSpline
70
1064
71
2
72
10
73
7
74
0
42
0.000000001
43
0.0000000001
44
0.0000000001
40
151.71327113823909
40
151.71327113823909
40
151.71327113823909
40
156.50419993496348
40
156.50419993496348
40
161.29512873168801
40
161.29512873168801
40
179.1951287316877
40
179.1951287316877
40
179.1951287316877
10
194.1390457442846
20
345.9929349257344
30
17.5
10
196.40849539214301
20
348.03060474585618
30
17.5
10
194.37082557202118
20
350.30005439371462
30
17.5
10
192.33315575189943
20
352.56950404157305
30
17.5
10
190.0637061040409
20
350.53183422145116
30
17.5
10
183.40417353081671
20
344.55244245420937
30
17.5
10
176.74464095759259
20
338.57305068696769
30
17.5
0
LINE
5
326
100
AcDbEntity
8
0
100
AcDbLine
10
194.1390457442846
20
345.9929349257344
30
17.5
11
194.1390457442846
21
345.9929349257344
31
0
0
LWPOLYLINE
5
327
100
AcDbEntity
8
0
100
AcDbPolyline
90
4
70
1
43
0.0
10
204.66696136398869
20
135.84142689682241
10
204.66696136398869
20
135.84142689682241
10
196.70306879899294
20
135.08220676194463
10
196.70306879899294
20
135.08220676194463
0
SPLINE
5
328
100
AcDbEntity
8
0
100
AcDbSpline
70
1064
71
2
72
8
73
5
74
0
42
0.000000001
43
0.0000000001
44
0.0000000001
40
-1250.751056048445
40
-1250.751056048445
40
-1250.751056048445
40
-1093.3223575185539
40
-1093.3223575185539
40
-811.0361262146962
40
-811.0361262146962
40
-811.0361262146962
10
222.90192686487512
20
292.79108747658984
30
8.75
10
231.36938441324801
20
388.03698658221901
30
8.7500000000000018
10
326.86679930038895
20
392.90760088089064
30
8.75
10
467.82669714759174
20
400.0969189876281
30
8.75
10
608.78659499479443
20
407.28623709436533
30
8.75
0
SPLINE
5
329
100
AcDbEntity
8
0
100
AcDbSpline
70
1064
71
2
72
10
73
7
74
0
42
0.000000001
43
0.0000000001
44
0.0000000001
40
96.74955595134152
40
96.74955595134152
40
96.74955595134152
40
101.54048474806601
40
101.54048474806601
40
106.33141354479041
40
106.33141354479041
40
124.2314135447903
40
124.2314135447903
40
124.2314135447903
10
184.16452519635794
20
321.17864590027489
30
17.5
10
181.89507554849942
20
319.14097608015317
30
17.5
10
183.93274536862134
20
316.87152643229462
30
17.5
10
185.97041518874309
20
314.60207678443618
30
17.5
10
188.23986483660133
20
316.63974660455801
30
17.5
10
194.89939740982621
20
322.61913837179952
30
17.5
10
201.55892998305103
20
328.59853013904115
30
17.5
0
LINE
5
330
100
AcDbEntity
8
0
100
AcDbLine
10
184.16452519635794
20
321.17864590027489
30
17.5
11
184.16452519635794
21
321.17864590027489
31
0
0
LWPOLYLINE
5
331
100
AcDbEntity
8
0
100
AcDbPolyline
90
4
70
1
43
0.0
10
524.61492263291677
20
195.08149567964603
10
525.37414276779464
20
187.11760311465019
10
525.37414276779464
20
187.11760311465019
10
524.61492263291677
20
195.08149567964603
0
LWPOLYLINE
5
332
100
AcDbEntity
8
0
100
AcDbPolyline
90
4
70
1
43
0.0
10
528.97647898285345
20
191.47915946458698
10
521.01258641785762
20
190.71993932970923
10
521.01258641785762
20
190.71993932970923
10
528.97647898285345
20
191.4791594645871
0
LINE
5
333
100
AcDbEntity
8
0
100
AcDbLine
10
201.74639796592044
20
337.52026548240934
30
17.5
11
237.59788372249645
21
338.72192386926497
31
17.5
0
LINE
5
334
100
AcDbEntity
8
0
100
AcDbLine
10
609.45073333478126
20
414.75677390676105
30
0
11
609.45073333478126
21
414.75677390676105
31
17.5
0
LINE
5
335
100
AcDbEntity
8
0
100
AcDbLine
10
190.0637061040409
20
350.53183422145116
30
0
11
190.0637061040409
21
350.53183422145116
31
17.5
0
SPLINE
5
336
100
AcDbEntity
8
0
100
AcDbSpline
70
1064
71
2
72
8
73
5
74
0
42
0.000000001
43
0.0000000001
44
0.0000000001
40
-188.77698632513659
40
-188.77698632513659
40
-188.77698632513659
40
-183.98605752841209
40
-183.98605752841209
40
-179.1951287316877
40
-179.1951287316877
40
-179.1951287316877
10
172.20574166187501
20
334.49771104672465
30
8.75
10
170.1680718417542
20
336.76716069458337
30
8.75
10
172.43752148961261
20
338.80483051470458
30
8.75
10
174.70697113747107
20
340.84250033482579
30
8.75
10
176.74464095759259
20
338.57305068696769
30
8.75
0
SPLINE
5
337
100
AcDbEntity
8
0
100
AcDbSpline
70
1064
71
2
72
10
73
7
74
0
42
0.000000001
43
0.0000000001
44
0.0000000001
40
-1372.3421902952059
40
-1372.3421902952059
40
-1372.3421902952059
40
-1361.3421902952059
40
-1361.3421902952059
40
-1327.1790120584401
40
-1327.1790120584401
40
-1250.751056048445
40
-1250.751056048445
40
-1250.751056048445
10
137.06012879692958
20
327.29547626346863
30
8.75
10
136.57309401427298
20
321.81708260104472
30
8.75
10
136.08605923161622
20
316.33868893862086
30
8.75
10
134.38559128440158
20
297.21103490465231
30
8.75
10
151.0437994519682
20
287.65787622656512
30
8.75
10
188.69881470470619
20
266.06345669976491
30
8.75
10
222.90192686487512
20
292.79108747658984
30
8.75
0
LINE
5
338
100
AcDbEntity
8
0
100
AcDbLine
10
176.74464095759259
20
338.57305068696769
30
17.5
11
176.74464095759259
21
338.57305068696769
31
0
0
SPLINE
5
339
100
AcDbEntity
8
0
100
AcDbSpline
70
1064
71
2
72
10
73
7
74
0
42
0.000000001
43
0.0000000001
44
0.0000000001
40
-151.71327113823909
40
-151.71327113823909
40
-151.71327113823909
40
-133.81327113823909
40
-133.81327113823909
40
-129.0223423415147
40
-129.0223423415147
40
-124.2314135447903
40
-124.2314135447903
40
-124.2314135447903
10
194.1390457442846
20
345.9929349257344
30
8.75
10
200.11843751152634
20
339.33340235250961
30
8.75
10
206.09782927876793
20
332.6738697792847
30
8.75
10
208.13549909888968
20
330.40442013142632
30
8.7499999999999982
10
205.86604945103133
20
328.36675031130449
30
8.75
10
203.59659980317281
20
326.32908049118265
30
8.7499999999999982
10
201.55892998305103
20
328.59853013904115
30
8.75
0
SPLINE
5
340
100
AcDbEntity
8
0
100
AcDbSpline
70
1064
71
2
72
12
73
9
74
0
42
0.000000001
43
0.0000000001
44
0.0000000001
40
0
40
0
40
0
40
6.2831853071795853
40
6.2831853071795853
40
12.566370614359169
40
12.566370614359169
40
18.849555921538762
40
18.849555921538762
40
25.132741228718338
40
25.132741228718338
40
25.132741228718338
10
204.66696136398869
20
135.84142689682241
30
0
10
204.28735129654982
20
139.82337317932041
30
0
10
200.30540501405193
20
139.4437631118814
30
0
10
196.32345873155396
20
139.06415304444249
30
0
10
196.70306879899294
20
135.08220676194449
30
0
10
197.08267886643185
20
131.10026047944663
30
0
10
201.06462514892968
20
131.47987054688551
30
0
10
205.04657143142768
20
131.8594806143245
30
0
10
204.66696136398869
20
135.84142689682241
30
0
0
LINE
5
341
100
AcDbEntity
8
0
100
AcDbLine
10
205.86604945103119
20
328.36675031130449
30
0
11
205.86604945103119
21
328.36675031130449
31
17.5
0
LWPOLYLINE
5
342
100
AcDbEntity
8
0
100
AcDbPolyline
90
4
70
1
43
0.0
10
572.68667397169691
20
280.96338182498818
10
564.72278140670119
20
280.20416169011031
10
564.72278140670119
20
280.20416169011042
10
572.68667397169679
20
280.96338182498818
0
SPLINE
5
343
100
AcDbEntity
8
0
100
AcDbSpline
70
1064
71
2
72
8
73
5
74
0
42
0.000000001
43
0.0000000001
44
0.0000000001
40
-796.0361262146962
40
-796.0361262146962
40
-796.0361262146962
40
-409.3959279006308
40
-409.3959279006308
40
-279.01983277665249
40
-279.01983277665249
40
-279.01983277665249
10
610.11487167476776
20
422.22731071915678
30
8.75
10
416.9032723340265
20
415.7513074549679
30
8.75
10
223.69167299328521
20
409.27530419077902
30
8.75
10
144.11108841948459
20
406.60794815613201
30
8.75
10
137.06012879692958
20
327.29547626346863
30
8.75
0
LINE
5
344
100
AcDbEntity
8
0
100
AcDbLine
10
201.74639796592044
20
337.52026548240934
30
0
11
237.59788372249645
21
338.72192386926497
31
0
0
SPLINE
5
345
100
AcDbEntity
8
0
100
AcDbSpline
70
1064
71
2
72
8
73
5
74
0
42
0.000000001
43
0.0000000001
44
0.0000000001
40
179.1951287316877
40
179.1951287316877
40
179.1951287316877
40
183.98605752841209
40
183.98605752841209
40
188.77698632513659
40
188.77698632513659
40
188.77698632513659
10
176.74464095759259
20
338.57305068696769
30
17.5
10
174.70697113747107
20
340.84250033482579
30
17.5
10
172.43752148961261
20
338.80483051470458
30
17.5
10
170.1680718417542
20
336.76716069458337
30
17.5
10
172.20574166187501
20
334.49771104672465
30
17.5
0
LINE
5
346
100
AcDbEntity
8
0
100
AcDbLine
10
370.42438068323906
20
414.19344314933915
30
17.5
11
371.06228095674271
21
395.16168435683375
31
17.5
0
SPLINE
5
347
100
AcDbEntity
8
0
100
AcDbSpline
70
1064
71
2
72
10
73
7
74
0
42
0.000000001
43
0.0000000001
44
0.0000000001
40
-179.1951287316877
40
-179.1951287316877
40
-179.1951287316877
40
-161.29512873168801
40
-161.29512873168801
40
-156.50419993496348
40
-156.50419993496348
40
-151.71327113823909
40
-151.71327113823909
40
-151.71327113823909
10
176.74464095759259
20
338.57305068696769
30
8.75
10
183.40417353081671
20
344.55244245420937
30
8.75
10
190.0637061040409
20
350.53183422145116
30
8.75
10
192.33315575189943
20
352.56950404157305
30
8.75
10
194.37082557202118
20
350.30005439371462
30
8.75
10
196.40849539214301
20
348.03060474585618
30
8.75
10
194.1390457442846
20
345.9929349257344
30
8.75
0
LINE
5
348
100
AcDbEntity
8
0
100
AcDbLine
10
151.0437994519682
20
287.65787622656512
30
0
11
151.0437994519682
21
287.65787622656512
31
17.5
0
SPLINE
5
349
100
AcDbEntity
8
0
100
AcDbSpline
70
1064
71
2
72
12
73
9
74
0
42
0.000000001
43
0.0000000001
44
0.0000000001
40
-25.132741228718338
40
-25.132741228718338
40
-25.132741228718338
40
-18.849555921538762
40
-18.849555921538762
40
-12.566370614359169
40
-12.566370614359169
40
-6.2831853071795853
40
-6.2831853071795853
40
0
40
0
40
0
10
204.66696136398869
20
135.84142689682241
30
4.5
10
205.04657143142768
20
131.8594806143245
30
4.5
10
201.06462514892968
20
131.47987054688551
30
4.5
10
197.08267886643185
20
131.10026047944663
30
4.5
10
196.70306879899294
20
135.08220676194449
30
4.5
10
196.32345873155396
20
139.06415304444249
30
4.5
10
200.30540501405193
20
139.4437631118814
30
4.5
10
204.28735129654982
20
139.82337317932041
30
4.5
10
204.66696136398869
20
135.84142689682241
30
4.5
0
SPLINE
5
350
100
AcDbEntity
8
0
100
AcDbSpline
70
1064
71
2
72
10
73
7
74
0
42
0.000000001
43
0.0000000001
44
0.0000000001
40
-124.2314135447903
40
-124.2314135447903
40
-124.2314135447903
40
-106.33141354479041
40
-106.33141354479041
40
-101.54048474806601
40
-101.54048474806601
40
-96.74955595134152
40
-96.74955595134152
40
-96.74955595134152
10
201.55892998305103
20
328.59853013904115
30
8.75
10
194.89939740982621
20
322.61913837179952
30
8.75
10
188.23986483660133
20
316.63974660455801
30
8.75
10
185.97041518874309
20
314.60207678443618
30
8.75
10
183.93274536862134
20
316.87152643229462
30
8.75
10
181.89507554849942
20
319.14097608015317
30
8.75
10
184.16452519635794
20
321.17864590027489
30
8.75
0
LINE
5
351
100
AcDbEntity
8
0
100
AcDbLine
10
178.18513342911655
20
327.83817847349974
30
0
11
178.18513342911655
21
327.83817847349974
31
17.5
0
LINE
5
352
100
AcDbEntity
8
0
100
AcDbLine
10
138.15159746125454
20
335.38871573560891
30
17.5
11
171.42535301129499
21
336.50397460355009
31
17.5
0
LINE
5
353
100
AcDbEntity
8
0
100
AcDbLine
10
206.09782927876793
20
332.6738697792847
30
0
11
206.09782927876793
21
332.6738697792847
31
17.5
0
SPLINE
5
354
100
AcDbEntity
8
0
100
AcDbSpline
70
1064
71
2
72
12
73
9
74
0
42
0.000000001
43
0.0000000001
44
0.0000000001
40
-25.132741228718338
40
-25.132741228718338
40
-25.132741228718338
40
-18.849555921538762
40
-18.849555921538762
40
-12.566370614359169
40
-12.566370614359169
40
-6.2831853071795853
40
-6.2831853071795853
40
0
40
0
40
0
10
528.97647898285368
20
191.47915946458698
30
4.5
10
529.35608905029244
20
187.49721318208918
30
4.5
10
525.37414276779464
20
187.11760311465019
30
4.5
10
521.39219648529672
20
186.73799304721129
30
4.5
10
521.01258641785762
20
190.71993932970909
30
4.5
10
520.63297635041886
20
194.70188561220721
30
4.5
10
524.61492263291677
20
195.08149567964603
30
4.5
10
528.59686891541469
20
195.46110574708507
30
4.5
10
528.97647898285368
20
191.47915946458698
30
4.5
0
LINE
5
355
100
AcDbEntity
8
0
100
AcDbLine
10
194.37082557202118
20
350.30005439371462
30
0
11
194.37082557202118
21
350.30005439371462
31
17.5
0
LWPOLYLINE
5
356
100
AcDbEntity
8
0
100
AcDbPolyline
90
4
70
1
43
0.0
10
200.30540501405184
20
139.4437631118814
10
201.06462514892968
20
131.47987054688559
10
201.06462514892968
20
131.47987054688551
10
200.30540501405184
20
139.4437631118814
0
LINE
5
357
100
AcDbEntity
8
0
100
AcDbLine
10
370.42438068323906
20
414.19344314933915
30
0
11
371.06228095674271
21
395.16168435683375
31
0
0
SPLINE
5
358
100
AcDbEntity
8
0
100
AcDbSpline
70
1064
71
2
72
6
73
3
74
0
42
0.000000001
43
0.0000000001
44
0.0000000001
40
78.849555951341117
40
78.849555951341117
40
78.849555951341117
40
96.74955595134152
40
96.74955595134152
40
96.74955595134152
10
578.81013252940807
20
250.01195779738723
30
0
10
572.22572192230791
20
256.07397371266751
30
0
10
565.6413113152081
20
262.13598962794771
30
0
0
SPLINE
5
359
100
AcDbEntity
8
0
100
AcDbSpline
70
1064
71
2
72
12
73
9
74
0
42
0.000000001
43
0.0000000001
44
0.0000000001
40
-25.132741228718338
40
-25.132741228718338
40
-25.132741228718338
40
-18.849555921538762
40
-18.849555921538762
40
-12.566370614359169
40
-12.566370614359169
40
-6.2831853071795853
40
-6.2831853071795853
40
0
40
0
40
0
10
572.68667397169691
20
280.96338182498835
30
4.5
10
573.06628403913589
20
276.98143554249043
30
4.5
10
569.08433775663786
20
276.6018254750515
30
4.5
10
565.10239147414018
20
276.22221540761257
30
4.5
10
564.72278140670119
20
280.20416169011042
30
4.5
10
564.3431713392622
20
284.18610797260857
30
4.5
10
568.32511762176
20
284.56571804004733
30
4.5
10
572.30706390425792
20
284.94532810748638
30
4.5
10
572.68667397169691
20
280.96338182498835
30
4.5
0
SPLINE
5
360
100
AcDbEntity
8
0
100
AcDbSpline
70
1064
71
2
72
12
73
9
74
0
42
0.000000001
43
0.0000000001
44
0.0000000001
40
0
40
0
40
0
40
6.2831853071795853
40
6.2831853071795853
40
12.566370614359169
40
12.566370614359169
40
18.849555921538762
40
18.849555921538762
40
25.132741228718338
40
25.132741228718338
40
25.132741228718338
10
528.97647898285345
20
191.47915946458698
30
0
10
528.59686891541469
20
195.46110574708507
30
0
10
524.61492263291643
20
195.08149567964603
30
0
10
520.63297635041874
20
194.70188561220721
30
0
10
521.01258641785762
20
190.71993932970909
30
0
10
521.39219648529672
20
186.73799304721129
30
0
10
525.37414276779464
20
187.11760311465019
30
0
10
529.35608905029233
20
187.49721318208918
30
0
10
528.97647898285345
20
191.47915946458698
30
0
0
SPLINE
5
361
100
AcDbEntity
8
0
100
AcDbSpline
70
1064
71
2
72
6
73
3
74
0
42
0.000000001
43
0.0000000001
44
0.0000000001
40
78.849555951341117
40
78.849555951341117
40
78.849555951341117
40
96.74955595134152
40
96.74955595134152
40
96.74955595134152
10
172.20574166187501
20
334.49771104672465
30
17.5
10
178.18513342911655
20
327.83817847349974
30
17.5
10
184.16452519635794
20
321.17864590027489
30
17.5
0
SPLINE
5
362
100
AcDbEntity
8
0
100
AcDbSpline
70
1064
71
2
72
10
73
7
74
0
42
0.000000001
43
0.0000000001
44
0.0000000001
40
124.2314135447903
40
124.2314135447903
40
124.2314135447903
40
129.0223423415147
40
129.0223423415147
40
133.81327113823909
40
133.81327113823909
40
151.71327113823909
40
151.71327113823909
40
151.71327113823909
10
201.55892998305103
20
328.59853013904115
30
17.5
10
203.59659980317281
20
326.32908049118265
30
17.499999999999996
10
205.86604945103133
20
328.36675031130449
30
17.5
10
208.13549909888968
20
330.40442013142632
30
17.499999999999996
10
206.09782927876793
20
332.6738697792847
30
17.5
10
200.11843751152634
20
339.33340235250961
30
17.5
10
194.1390457442846
20
345.9929349257344
30
17.5
0
LINE
5
363
100
AcDbEntity
8
0
100
AcDbLine
10
188.23986483660133
20
316.63974660455801
30
0
11
188.23986483660133
21
316.63974660455801
31
17.5
0
SPLINE
5
364
100
AcDbEntity
8
0
100
AcDbSpline
70
1064
71
2
72
12
73
9
74
0
42
0.000000001
43
0.0000000001
44
0.0000000001
40
0
40
0
40
0
40
6.2831853071795853
40
6.2831853071795853
40
12.566370614359169
40
12.566370614359169
40
18.849555921538762
40
18.849555921538762
40
25.132741228718338
40
25.132741228718338
40
25.132741228718338
10
204.66696136398869
20
135.84142689682241
30
9
10
204.28735129654982
20
139.82337317932041
30
9
10
200.30540501405193
20
139.4437631118814
30
9
10
196.32345873155396
20
139.06415304444249
30
9
10
196.70306879899294
20
135.08220676194449
30
9
10
197.08267886643185
20
131.10026047944663
30
9
10
201.06462514892968
20
131.47987054688551
30
9
10
205.04657143142768
20
131.8594806143245
30
9
10
204.66696136398869
20
135.84142689682241
30
9
0
SPLINE
5
365
100
AcDbEntity
8
0
100
AcDbSpline
70
1064
71
2
72
12
73
9
74
0
42
0.000000001
43
0.0000000001
44
0.0000000001
40
0
40
0
40
0
40
6.2831853071795853
40
6.2831853071795853
40
12.566370614359169
40
12.566370614359169
40
18.849555921538762
40
18.849555921538762
40
25.132741228718338
40
25.132741228718338
40
25.132741228718338
10
572.68667397169679
20
280.96338182498818
30
9
10
572.30706390425792
20
284.94532810748626
30
9
10
568.32511762175989
20
284.56571804004727
30
9
10
564.34317133926197
20
284.18610797260834
30
9
10
564.72278140670096
20
280.20416169011031
30
9
10
565.10239147413972
20
276.2222154076124
30
9
10
569.08433775663775
20
276.60182547505133
30
9
10
573.06628403913567
20
276.98143554249032
30
9
10
572.68667397169679
20
280.96338182498818
30
9
0
LINE
5
366
100
AcDbEntity
8
0
100
AcDbLine
10
172.43752148961261
20
338.80483051470458
30
0
11
172.43752148961261
21
338.80483051470458
31
17.5
0
LWPOLYLINE
5
367
100
AcDbEntity
8
0
100
AcDbPolyline
90
4
70
1
43
0.0
10
568.32511762176
20
284.56571804004733
10
568.32511762176
20
284.56571804004733
10
569.08433775663786
20
276.60182547505133
10
569.08433775663786
20
276.60182547505133
0
LINE
5
368
100
AcDbEntity
8
0
100
AcDbLine
10
326.86679930038895
20
392.90760088089064
30
0
11
326.86679930038895
21
392.90760088089064
31
17.5
0
LINE
5
369
100
AcDbEntity
8
0
100
AcDbLine
10
138.15159746125454
20
335.38871573560891
30
0
11
171.42535301129499
21
336.50397460355009
31
0
0
LINE
5
370
100
AcDbEntity
8
0
100
AcDbLine
10
136.08605923161622
20
316.33868893862086
30
0
11
136.08605923161622
21
316.33868893862086
31
17.5
0
LINE
5
371
100
AcDbEntity
8
0
100
AcDbLine
10
183.9327453686212
20
316.87152643229462
30
0
11
183.9327453686212
21
316.87152643229462
31
17.5
0
SPLINE
5
372
100
AcDbEntity
8
0
100
AcDbSpline
70
1064
71
2
72
6
73
3
74
0
42
0.000000001
43
0.0000000001
44
0.0000000001
40
-96.74955595134152
40
-96.74955595134152
40
-96.74955595134152
40
-78.849555951341117
40
-78.849555951341117
40
-78.849555951341117
10
184.16452519635794
20
321.17864590027489
30
8.75
10
178.18513342911655
20
327.83817847349974
30
8.75
10
172.20574166187501
20
334.49771104672465
30
8.75
0
SPLINE
5
373
100
AcDbEntity
8
0
100
AcDbSpline
70
1064
71
2
72
8
73
5
74
0
42
0.000000001
43
0.0000000001
44
0.0000000001
40
-796.0361262146962
40
-796.0361262146962
40
-796.0361262146962
40
-409.3959279006308
40
-409.3959279006308
40
-279.01983277665249
40
-279.01983277665249
40
-279.01983277665249
10
151.2032342597347
20
121.1196408831387
30
0
10
342.92819768335687
20
145.90268222789018
30
0
10
534.65316110697927
20
170.68572357264171
30
0
10
613.62140039325936
20
180.89343520396031
30
0
10
613.11360794488223
20
260.51709292006439
30
0
0
LINE
5
374
100
AcDbEntity
8
0
100
AcDbLine
10
524.38469743140251
20
286.71914589659514
30
17.5
11
524.38469743140251
21
286.71914589659514
31
0
0
SPLINE
5
375
100
AcDbEntity
8
0
100
AcDbSpline
70
1064
71
2
72
12
73
9
74
0
42
0.000000001
43
0.0000000001
44
0.0000000001
40
0
40
0
40
0
40
6.2831853071795853
40
6.2831853071795853
40
12.566370614359169
40
12.566370614359169
40
18.849555921538762
40
18.849555921538762
40
25.132741228718338
40
25.132741228718338
40
25.132741228718338
10
572.68667397169679
20
280.96338182498818
30
0
10
572.30706390425792
20
284.94532810748626
30
0
10
568.32511762175989
20
284.56571804004727
30
0
10
564.34317133926197
20
284.18610797260834
30
0
10
564.72278140670096
20
280.20416169011031
30
0
10
565.10239147413972
20
276.2222154076124
30
0
10
569.08433775663775
20
276.60182547505133
30
0
10
573.06628403913567
20
276.98143554249032
30
0
10
572.68667397169679
20
280.96338182498818
30
0
0
SPLINE
5
376
100
AcDbEntity
8
0
100
AcDbSpline
70
1064
71
2
72
10
73
7
74
0
42
0.000000001
43
0.0000000001
44
0.0000000001
40
-1372.3421902952059
40
-1372.3421902952059
40
-1372.3421902952059
40
-1361.3421902952059
40
-1361.3421902952059
40
-1327.1790120584401
40
-1327.1790120584401
40
-1250.751056048445
40
-1250.751056048445
40
-1250.751056048445
10
613.11360794488223
20
260.51709292006439
30
17.5
10
613.07853118353148
20
266.01698106627413
30
17.5
10
613.04345442218073
20
271.51686921248381
30
17.5
10
612.92098491796446
20
290.71957061888048
30
17.5
10
595.43134359397402
20
298.64870590848585
30
17.5
10
555.89691682999535
20
316.57210482796972
30
17.5
10
524.38469743140251
20
286.71914589659514
30
17.5
0
SPLINE
5
377
100
AcDbEntity
8
0
100
AcDbSpline
70
1064
71
2
72
10
73
7
74
0
42
0.000000001
43
0.0000000001
44
0.0000000001
40
-1372.3421902952059
40
-1372.3421902952059
40
-1372.3421902952059
40
-1361.3421902952059
40
-1361.3421902952059
40
-1327.1790120584401
40
-1327.1790120584401
40
-1250.751056048445
40
-1250.751056048445
40
-1250.751056048445
10
613.11360794488223
20
260.51709292006439
30
0
10
613.07853118353148
20
266.01698106627413
30
0
10
613.04345442218073
20
271.51686921248381
30
0
10
612.92098491796446
20
290.71957061888048
30
0
10
595.43134359397402
20
298.64870590848585
30
0
10
555.89691682999535
20
316.57210482796972
30
0
10
524.38469743140251
20
286.71914589659514
30
0
0
SPLINE
5
378
100
AcDbEntity
8
0
100
AcDbSpline
70
1064
71
2
72
10
73
7
74
0
42
0.000000001
43
0.0000000001
44
0.0000000001
40
-179.1951287316877
40
-179.1951287316877
40
-179.1951287316877
40
-161.29512873168801
40
-161.29512873168801
40
-156.50419993496348
40
-156.50419993496348
40
-151.71327113823909
40
-151.71327113823909
40
-151.71327113823909
10
574.67847922402154
20
245.52425894785543
30
17.5
10
568.61646330874225
20
238.9398483407553
30
17.5
10
562.55444739346262
20
232.35543773365521
30
17.5
10
560.48862074076999
20
230.111588308889
30
17.5
10
558.24477131600372
20
232.17741496158169
30
17.5
10
556.00092189123745
20
234.24324161427467
30
17.5
10
558.0667485439302
20
236.48709103904059
30
17.5
0
LINE
5
379
100
AcDbEntity
8
0
100
AcDbLine
10
534.65316110697927
20
170.68572357264171
30
0
11
534.65316110697927
21
170.68572357264171
31
17.5
0
LINE
5
380
100
AcDbEntity
8
0
100
AcDbLine
10
151.2032342597347
20
121.1196408831387
30
17.5
11
151.2032342597347
21
121.1196408831387
31
0
0
LINE
5
381
100
AcDbEntity
8
0
100
AcDbLine
10
430.39037220645071
20
177.18797324573612
30
0
11
430.39037220645071
21
177.18797324573612
31
17.5
0
LINE
5
382
100
AcDbEntity
8
0
100
AcDbLine
10
579.77739841195478
20
248.08881021650302
30
0
11
612.79513199376572
21
252.35679828574573
31
0
0
LINE
5
383
100
AcDbEntity
8
0
100
AcDbLine
10
565.6413113152081
20
262.13598962794771
30
17.5
11
565.6413113152081
21
262.13598962794771
31
0
0
LWPOLYLINE
5
384
100
AcDbEntity
8
0
100
AcDbPolyline
90
4
70
1
43
0.0
10
885.27364397862868
20
470.25465064756963
10
877.27364397862834
20
470.25465064756963
10
877.27364397862834
20
470.25465064756958
10
885.27364397862823
20
470.25465064756958
0
LINE
5
385
100
AcDbEntity
8
0
100
AcDbLine
10
558.0667485439302
20
236.48709103904059
30
17.5
11
558.0667485439302
21
236.48709103904059
31
0
0
LWPOLYLINE
5
386
100
AcDbEntity
8
0
100
AcDbPolyline
90
4
70
1
43
0.0
10
921.55364397862854
20
393.78160961340569
10
921.55364397862854
20
393.78160961340569
10
929.55364397862854
20
393.78160961340569
10
929.55364397862854
20
393.78160961340569
0
SPLINE
5
387
100
AcDbEntity
8
0
100
AcDbSpline
70
1064
71
2
72
6
73
3
74
0
42
0.000000001
43
0.0000000001
44
0.0000000001
40
-811.0361262146962
40
-811.0361262146962
40
-811.0361262146962
40
-796.0361262146962
40
-796.0361262146962
40
-796.0361262146962
10
151.10757036514229
20
136.11933582734579
30
0
10
151.1554023124385
20
128.61948835524228
30
0
10
151.2032342597347
20
121.1196408831387
30
0
0
SPLINE
5
388
100
AcDbEntity
8
0
100
AcDbSpline
70
1064
71
2
72
8
73
5
74
0
42
0.000000001
43
0.0000000001
44
0.0000000001
40
-796.0361262146962
40
-796.0361262146962
40
-796.0361262146962
40
-409.3959279006308
40
-409.3959279006308
40
-279.01983277665249
40
-279.01983277665249
40
-279.01983277665249
10
151.2032342597347
20
121.1196408831387
30
17.5
10
342.92819768335687
20
145.90268222789018
30
17.5
10
534.65316110697927
20
170.68572357264171
30
17.5
10
613.62140039325936
20
180.89343520396031
30
17.499999999999996
10
613.11360794488223
20
260.51709292006439
30
17.5
0
SPLINE
5
389
100
AcDbEntity
8
0
100
AcDbSpline
70
1064
71
2
72
10
73
7
74
0
42
0.000000001
43
0.0000000001
44
0.0000000001
40
151.71327113823909
40
151.71327113823909
40
151.71327113823909
40
156.50419993496348
40
156.50419993496348
40
161.29512873168801
40
161.29512873168801
40
179.1951287316877
40
179.1951287316877
40
179.1951287316877
10
558.0667485439302
20
236.48709103904059
30
0
10
556.00092189123745
20
234.24324161427467
30
0
10
558.24477131600372
20
232.17741496158169
30
0
10
560.48862074076999
20
230.111588308889
30
0
10
562.55444739346262
20
232.35543773365521
30
0
10
568.61646330874225
20
238.9398483407553
30
0
10
574.67847922402154
20
245.52425894785543
30
0
0
SPLINE
5
390
100
AcDbEntity
8
0
100
AcDbSpline
70
1064
71
2
72
8
73
5
74
0
42
0.000000001
43
0.0000000001
44
0.0000000001
40
-188.77698632513659
40
-188.77698632513659
40
-188.77698632513659
40
-183.98605752841209
40
-183.98605752841209
40
-179.1951287316877
40
-179.1951287316877
40
-179.1951287316877
10
578.81013252940807
20
250.01195779738734
30
17.5
10
581.05398195417342
20
247.94613114469402
30
17.5
10
578.98815530148045
20
245.70228171992841
30
17.5
10
576.9223286487877
20
243.45843229516271
30
17.5
10
574.67847922402154
20
245.52425894785543
30
17.5
0
SPLINE
5
391
100
AcDbEntity
8
0
100
AcDbSpline
70
1064
71
2
72
12
73
9
74
0
42
0.000000001
43
0.0000000001
44
0.0000000001
40
0
40
0
40
0
40
6.2831853071795853
40
6.2831853071795853
40
12.566370614359169
40
12.566370614359169
40
18.849555921538762
40
18.849555921538762
40
25.132741228718338
40
25.132741228718338
40
25.132741228718338
10
929.55364397862854
20
393.78160961340569
30
-8.75
10
929.55364397862866
20
397.78160961340575
30
-8.7499999999999982
10
925.55364397862843
20
397.78160961340569
30
-8.75
10
921.55364397862854
20
397.78160961340575
30
-8.7499999999999982
10
921.55364397862854
20
393.78160961340569
30
-8.75
10
921.55364397862854
20
389.78160961340564
30
-8.7499999999999982
10
925.55364397862843
20
389.78160961340564
30
-8.75
10
929.55364397862866
20
389.78160961340564
30
-8.7499999999999982
10
929.55364397862854
20
393.78160961340569
30
-8.75
0
SPLINE
5
392
100
AcDbEntity
8
0
100
AcDbSpline
70
1064
71
2
72
6
73
3
74
0
42
0.000000001
43
0.0000000001
44
0.0000000001
40
-96.74955595134152
40
-96.74955595134152
40
-96.74955595134152
40
-78.849555951341117
40
-78.849555951341117
40
-78.849555951341117
10
565.6413113152081
20
262.13598962794771
30
17.5
10
572.22572192230791
20
256.07397371266751
30
17.5
10
578.81013252940807
20
250.01195779738723
30
17.5
0
SPLINE
5
393
100
AcDbEntity
8
0
100
AcDbSpline
70
1064
71
2
72
10
73
7
74
0
42
0.000000001
43
0.0000000001
44
0.0000000001
40
96.74955595134152
40
96.74955595134152
40
96.74955595134152
40
101.54048474806601
40
101.54048474806601
40
106.33141354479041
40
106.33141354479041
40
124.2314135447903
40
124.2314135447903
40
124.2314135447903
10
565.6413113152081
20
262.13598962794771
30
0
10
567.70713796790119
20
264.37983905271386
30
0
10
565.46328854313492
20
266.44566570540667
30
0
10
563.21943911836843
20
268.51149235809953
30
0
10
561.15361246567568
20
266.26764293333309
30
0
10
555.09159655039582
20
259.68323232623334
30
0
10
549.02958063511596
20
253.09882171913344
30
0
0
LINE
5
394
100
AcDbEntity
8
0
100
AcDbLine
10
574.67847922402154
20
245.52425894785543
30
17.5
11
574.67847922402154
21
245.52425894785543
31
0
0
SPLINE
5
395
100
AcDbEntity
8
0
100
AcDbSpline
70
1064
71
2
72
10
73
7
74
0
42
0.000000001
43
0.0000000001
44
0.0000000001
40
124.2314135447903
40
124.2314135447903
40
124.2314135447903
40
129.0223423415147
40
129.0223423415147
40
133.81327113823909
40
133.81327113823909
40
151.71327113823909
40
151.71327113823909
40
151.71327113823909
10
549.02958063511596
20
253.09882171913344
30
0
10
546.78573121034947
20
255.1646483718261
30
0
10
544.71990455765672
20
252.92079894705992
30
0
10
542.65407790496397
20
250.6769495222936
30
0
10
544.89792732973012
20
248.61112286960068
30
0
10
551.48233793683016
20
242.54910695432085
30
0
10
558.0667485439302
20
236.48709103904059
30
0
0
SPLINE
5
396
100
AcDbEntity
8
0
100
AcDbSpline
70
1064
71
2
72
6
73
3
74
0
42
0.000000001
43
0.0000000001
44
0.0000000001
40
-811.0361262146962
40
-811.0361262146962
40
-811.0361262146962
40
-796.0361262146962
40
-796.0361262146962
40
-796.0361262146962
10
151.10757036514229
20
136.11933582734579
30
17.5
10
151.1554023124385
20
128.61948835524228
30
17.5
10
151.2032342597347
20
121.1196408831387
30
17.5
0
LINE
5
397
100
AcDbEntity
8
0
100
AcDbLine
10
613.11360794488223
20
260.51709292006439
30
0
11
613.11360794488223
21
260.51709292006439
31
17.5
0
SPLINE
5
398
100
AcDbEntity
8
0
100
AcDbSpline
70
1064
71
2
72
8
73
5
74
0
42
0.000000001
43
0.0000000001
44
0.0000000001
40
-1250.751056048445
40
-1250.751056048445
40
-1250.751056048445
40
-1093.3223575185539
40
-1093.3223575185539
40
-811.0361262146962
40
-811.0361262146962
40
-811.0361262146962
10
524.38469743140251
20
286.71914589659514
30
17.5
10
524.99453270035724
20
191.09954939714359
30
17.500000000000004
10
430.39037220645093
20
177.18797324573612
30
17.5
10
290.74897128579664
20
156.65365453654101
30
17.5
10
151.10757036514229
20
136.11933582734579
30
17.5
0
SPLINE
5
399
100
AcDbEntity
8
0
100
AcDbSpline
70
1064
71
2
72
10
73
7
74
0
42
0.000000001
43
0.0000000001
44
0.0000000001
40
1250.751056048445
40
1250.751056048445
40
1250.751056048445
40
1327.1790120584401
40
1327.1790120584401
40
1361.3421902952059
40
1361.3421902952059
40
1372.3421902952059
40
1372.3421902952059
40
1372.3421902952059
10
524.38469743140263
20
286.71914589659514
30
8.75
10
555.89691682999569
20
316.57210482796972
30
8.75
10
595.43134359397425
20
298.64870590848585
30
8.75
10
612.9209849179648
20
290.71957061888048
30
8.75
10
613.04345442218107
20
271.51686921248381
30
8.75
10
613.07853118353171
20
266.01698106627413
30
8.75
10
613.11360794488269
20
260.51709292006439
30
8.75
0
LINE
5
400
100
AcDbEntity
8
0
100
AcDbLine
10
151.1554023124385
20
128.6194883552422
30
0
11
151.1554023124385
21
128.6194883552422
31
17.5
0
LINE
5
401
100
AcDbEntity
8
0
100
AcDbLine
10
389.04946489569602
20
151.8644790215094
30
0
11
386.60828193034939
21
170.74980097335191
31
0
0
LINE
5
402
100
AcDbEntity
8
0
100
AcDbLine
10
578.98815530148067
20
245.70228171992841
30
0
11
578.98815530148067
21
245.70228171992841
31
17.5
0
SPLINE
5
403
100
AcDbEntity
8
0
100
AcDbSpline
70
1064
71
2
72
8
73
5
74
0
42
0.000000001
43
0.0000000001
44
0.0000000001
40
179.1951287316877
40
179.1951287316877
40
179.1951287316877
40
183.98605752841209
40
183.98605752841209
40
188.77698632513659
40
188.77698632513659
40
188.77698632513659
10
574.67847922402154
20
245.52425894785543
30
0
10
576.9223286487877
20
243.45843229516271
30
0
10
578.98815530148045
20
245.70228171992841
30
0
10
581.05398195417342
20
247.94613114469402
30
0
10
578.81013252940807
20
250.01195779738734
30
0
0
LINE
5
404
100
AcDbEntity
8
0
100
AcDbLine
10
151.10757036514229
20
136.11933582734579
30
17.5
11
151.10757036514229
21
136.11933582734579
31
0
0
LINE
5
405
100
AcDbEntity
8
0
100
AcDbLine
10
578.81013252940807
20
250.01195779738723
30
0
11
578.81013252940807
21
250.01195779738734
31
17.5
0
LINE
5
406
100
AcDbEntity
8
0
100
AcDbLine
10
558.24477131600349
20
232.17741496158163
30
0
11
558.24477131600349
21
232.17741496158163
31
17.5
0
LINE
5
407
100
AcDbEntity
8
0
100
AcDbLine
10
514.11402171230156
20
239.60093179668644
30
0
11
549.68965391458926
21
244.19956281473952
31
0
0
SPLINE
5
408
100
AcDbEntity
8
0
100
AcDbSpline
70
1064
71
2
72
8
73
5
74
0
42
0.000000001
43
0.0000000001
44
0.0000000001
40
-1250.751056048445
40
-1250.751056048445
40
-1250.751056048445
40
-1093.3223575185539
40
-1093.3223575185539
40
-811.0361262146962
40
-811.0361262146962
40
-811.0361262146962
10
524.38469743140251
20
286.71914589659514
30
0
10
524.99453270035724
20
191.09954939714359
30
0
10
430.39037220645093
20
177.18797324573612
30
0
10
290.74897128579664
20
156.65365453654101
30
0
10
151.10757036514229
20
136.11933582734579
30
0
0
SPLINE
5
409
100
AcDbEntity
8
0
100
AcDbSpline
70
1064
71
2
72
8
73
5
74
0
42
0.000000001
43
0.0000000001
44
0.0000000001
40
179.1951287316877
40
179.1951287316877
40
179.1951287316877
40
183.98605752841209
40
183.98605752841209
40
188.77698632513659
40
188.77698632513659
40
188.77698632513659
10
574.67847922402177
20
245.52425894785543
30
8.75
10
576.92232864878781
20
243.45843229516271
30
8.75
10
578.98815530148067
20
245.70228171992841
30
8.75
10
581.05398195417376
20
247.94613114469402
30
8.75
10
578.81013252940829
20
250.01195779738734
30
8.75
0
LINE
5
410
100
AcDbEntity
8
0
100
AcDbLine
10
562.55444739346251
20
232.35543773365509
30
0
11
562.55444739346251
21
232.35543773365509
31
17.5
0
LINE
5
411
100
AcDbEntity
8
0
100
AcDbLine
10
595.43134359397425
20
298.64870590848585
30
0
11
595.43134359397425
21
298.64870590848585
31
17.5
0
SPLINE
5
412
100
AcDbEntity
8
0
100
AcDbSpline
70
1064
71
2
72
10
73
7
74
0
42
0.000000001
43
0.0000000001
44
0.0000000001
40
151.71327113823909
40
151.71327113823909
40
151.71327113823909
40
156.50419993496348
40
156.50419993496348
40
161.29512873168801
40
161.29512873168801
40
179.1951287316877
40
179.1951287316877
40
179.1951287316877
10
558.06674854392998
20
236.48709103904051
30
8.75
10
556.00092189123734
20
234.2432416142745
30
8.75
10
558.24477131600349
20
232.17741496158163
30
8.75
10
560.48862074076976
20
230.11158830888891
30
8.75
10
562.55444739346251
20
232.35543773365509
30
8.75
10
568.61646330874214
20
238.93984834075522
30
8.75
10
574.6784792240212
20
245.52425894785529
30
8.75
0
SPLINE
5
413
100
AcDbEntity
8
0
100
AcDbSpline
70
1064
71
2
72
8
73
5
74
0
42
0.000000001
43
0.0000000001
44
0.0000000001
40
279.01983277665249
40
279.01983277665249
40
279.01983277665249
40
409.3959279006308
40
409.3959279006308
40
796.0361262146962
40
796.0361262146962
40
796.0361262146962
10
613.11360794488223
20
260.51709292006439
30
8.75
10
613.62140039325936
20
180.89343520396031
30
8.7499999999999982
10
534.65316110697927
20
170.68572357264171
30
8.75
10
342.92819768335687
20
145.90268222789018
30
8.75
10
151.2032342597347
20
121.1196408831387
30
8.75
0
LINE
5
414
100
AcDbEntity
8
0
100
AcDbLine
10
549.02958063511596
20
253.09882171913344
30
17.5
11
549.02958063511596
21
253.09882171913344
31
0
0
SPLINE
5
415
100
AcDbEntity
8
0
100
AcDbSpline
70
1064
71
2
72
10
73
7
74
0
42
0.000000001
43
0.0000000001
44
0.0000000001
40
-151.71327113823909
40
-151.71327113823909
40
-151.71327113823909
40
-133.81327113823909
40
-133.81327113823909
40
-129.0223423415147
40
-129.0223423415147
40
-124.2314135447903
40
-124.2314135447903
40
-124.2314135447903
10
558.0667485439302
20
236.48709103904059
30
17.5
10
551.48233793683016
20
242.54910695432085
30
17.5
10
544.89792732973012
20
248.61112286960068
30
17.5
10
542.65407790496397
20
250.6769495222936
30
17.499999999999996
10
544.71990455765672
20
252.92079894705992
30
17.5
10
546.78573121034947
20
255.1646483718261
30
17.499999999999996
10
549.02958063511596
20
253.09882171913344
30
17.5
0
SPLINE
5
416
100
AcDbEntity
8
0
100
AcDbSpline
70
1064
71
2
72
10
73
7
74
0
42
0.000000001
43
0.0000000001
44
0.0000000001
40
-124.2314135447903
40
-124.2314135447903
40
-124.2314135447903
40
-106.33141354479041
40
-106.33141354479041
40
-101.54048474806601
40
-101.54048474806601
40
-96.74955595134152
40
-96.74955595134152
40
-96.74955595134152
10
549.02958063511596
20
253.09882171913344
30
17.5
10
555.09159655039582
20
259.68323232623334
30
17.5
10
561.15361246567568
20
266.26764293333309
30
17.5
10
563.21943911836843
20
268.51149235809953
30
17.5
10
565.46328854313492
20
266.44566570540667
30
17.5
10
567.70713796790119
20
264.37983905271386
30
17.5
10
565.6413113152081
20
262.13598962794771
30
17.5
0
LINE
5
417
100
AcDbEntity
8
0
100
AcDbLine
10
613.04345442218107
20
271.51686921248381
30
0
11
613.04345442218107
21
271.51686921248381
31
17.5
0
SPLINE
5
418
100
AcDbEntity
8
0
100
AcDbSpline
70
1064
71
2
72
12
73
9
74
0
42
0.000000001
43
0.0000000001
44
0.0000000001
40
0
40
0
40
0
40
6.2831853071795853
40
6.2831853071795853
40
12.566370614359169
40
12.566370614359169
40
18.849555921538762
40
18.849555921538762
40
25.132741228718338
40
25.132741228718338
40
25.132741228718338
10
929.55364397862854
20
393.78160961340569
30
0.25
10
929.55364397862866
20
397.78160961340575
30
0.25000000000000078
10
925.55364397862843
20
397.78160961340569
30
0.25
10
921.55364397862854
20
397.78160961340575
30
0.25000000000000078
10
921.55364397862854
20
393.78160961340569
30
0.25
10
921.55364397862854
20
389.78160961340564
30
0.25000000000000078
10
925.55364397862843
20
389.78160961340564
30
0.25
10
929.55364397862866
20
389.78160961340564
30
0.25000000000000078
10
929.55364397862854
20
393.78160961340569
30
0.25
0
SPLINE
5
419
100
AcDbEntity
8
0
100
AcDbSpline
70
1064
71
2
72
12
73
9
74
0
42
0.000000001
43
0.0000000001
44
0.0000000001
40
0
40
0
40
0
40
6.2831853071795853
40
6.2831853071795853
40
12.566370614359169
40
12.566370614359169
40
18.849555921538762
40
18.849555921538762
40
25.132741228718338
40
25.132741228718338
40
25.132741228718338
10
885.27364397862823
20
470.25465064756958
30
0.25
10
885.27364397862823
20
474.25465064756963
30
0.25000000000000078
10
881.27364397862834
20
474.25465064756958
30
0.25
10
877.27364397862834
20
474.25465064756963
30
0.25000000000000078
10
877.27364397862834
20
470.25465064756958
30
0.25
10
877.27364397862834
20
466.25465064756952
30
0.25000000000000078
10
881.27364397862834
20
466.25465064756952
30
0.25
10
885.27364397862823
20
466.25465064756952
30
0.25000000000000078
10
885.27364397862823
20
470.25465064756958
30
0.25
0
SPLINE
5
420
100
AcDbEntity
8
0
100
AcDbSpline
70
1064
71
2
72
6
73
3
74
0
42
0.000000001
43
0.0000000001
44
0.0000000001
40
796.0361262146962
40
796.0361262146962
40
796.0361262146962
40
811.0361262146962
40
811.0361262146962
40
811.0361262146962
10
151.2032342597347
20
121.1196408831387
30
8.75
10
151.1554023124385
20
128.61948835524228
30
8.75
10
151.10757036514229
20
136.11933582734579
30
8.75
0
SPLINE
5
421
100
AcDbEntity
8
0
100
AcDbSpline
70
1064
71
2
72
8
73
5
74
0
42
0.000000001
43
0.0000000001
44
0.0000000001
40
811.0361262146962
40
811.0361262146962
40
811.0361262146962
40
1093.3223575185539
40
1093.3223575185539
40
1250.751056048445
40
1250.751056048445
40
1250.751056048445
10
151.1075703651421
20
136.11933582734579
30
8.75
10
290.74897128579636
20
156.65365453654101
30
8.75
10
430.39037220645071
20
177.18797324573612
30
8.75
10
524.99453270035701
20
191.09954939714359
30
8.7500000000000018
10
524.38469743140229
20
286.71914589659514
30
8.75
0
LWPOLYLINE
5
422
100
AcDbEntity
8
0
100
AcDbPolyline
90
4
70
1
43
0.0
10
925.55364397862843
20
397.78160961340552
10
925.55364397862843
20
389.78160961340564
10
925.55364397862843
20
389.78160961340564
10
925.55364397862843
20
397.78160961340569
0
SPLINE
5
423
100
AcDbEntity
8
0
100
AcDbSpline
70
1064
71
2
72
8
73
5
74
0
42
0.000000001
43
0.0000000001
44
0.0000000001
40
-188.77698632513659
40
-188.77698632513659
40
-188.77698632513659
40
-183.98605752841209
40
-183.98605752841209
40
-179.1951287316877
40
-179.1951287316877
40
-179.1951287316877
10
667.16106262326161
20
161.96144103758232
30
0
10
664.93043383332383
20
164.04153603577299
30
0
10
667.01052883151431
20
166.27216482571123
30
0
10
669.09062382970478
20
168.50279361564918
30
0
10
671.32125261964302
20
166.42269861745919
30
0
0
SPLINE
5
424
100
AcDbEntity
8
0
100
AcDbSpline
70
1064
71
2
72
14
73
11
74
0
42
0.000000001
43
0.0000000001
44
0.0000000001
40
1312.0401927254541
40
1312.0401927254541
40
1312.0401927254541
40
1618.4605050966338
40
1618.4605050966338
40
1760.5303062089718
40
1760.5303062089718
40
1947.694497254686
40
1947.694497254686
40
2105.1231957845739
40
2105.1231957845739
40
2387.409427088432
40
2387.409427088432
40
2387.409427088432
10
272.66128736344047
20
577.56337636008811
30
0
10
419.93634193337539
20
535.33293402478262
30
0
10
567.21139650331043
20
493.10249168947723
30
0
10
646.89128736343787
20
470.25465064756759
30
0
10
646.89128736344048
20
387.36370513626213
30
0
10
646.89128736344048
20
293.78160961340564
30
0
10
646.89128736344048
20
200.19951409054892
30
0
10
646.89128736343901
20
104.5779729307653
30
0
10
552.20032846904792
20
91.270026528976217
30
0
10
412.43080791624436
20
71.62670144453196
30
0
10
272.66128736344081
20
51.983376360087874
30
0
0
LINE
5
425
100
AcDbEntity
8
0
100
AcDbLine
10
671.32125261964302
20
166.42269861745919
30
17.5
11
671.32125261964302
21
166.42269861745919
31
0
0
LINE
5
426
100
AcDbEntity
8
0
100
AcDbLine
10
696.92132210724048
20
158.68471165506492
30
17.5
11
696.92132210724048
21
158.68471165506492
31
0
0
LINE
5
427
100
AcDbEntity
8
0
100
AcDbLine
10
272.66128736344081
20
36.983376360087959
30
0
11
272.66128736344081
21
36.983376360087959
31
17.5
0
SPLINE
5
428
100
AcDbEntity
8
0
100
AcDbSpline
70
1064
71
2
72
10
73
7
74
0
42
0.000000001
43
0.0000000001
44
0.0000000001
40
-179.1951287316877
40
-179.1951287316877
40
-179.1951287316877
40
-161.29512873168801
40
-161.29512873168801
40
-156.50419993496348
40
-156.50419993496348
40
-151.71327113823909
40
-151.71327113823909
40
-151.71327113823909
10
671.32125261964302
20
166.42269861745919
30
0
10
677.4251379422019
20
172.96831424695068
30
0
10
683.52902326476078
20
179.51392987644212
30
0
10
685.60911826295126
20
181.74455866638081
30
0
10
687.83974705288972
20
179.66446366819054
30
0
10
690.07037584282853
20
177.58436867000023
30
0
10
687.99028084463816
20
175.35373988006148
30
0
0
SPLINE
5
429
100
AcDbEntity
8
0
100
AcDbSpline
70
1064
71
2
72
10
73
7
74
0
42
0.000000001
43
0.0000000001
44
0.0000000001
40
-179.1951287316877
40
-179.1951287316877
40
-179.1951287316877
40
-161.29512873168801
40
-161.29512873168801
40
-156.50419993496348
40
-156.50419993496348
40
-151.71327113823909
40
-151.71327113823909
40
-151.71327113823909
10
656.29125261964191
20
426.42269861745916
30
17.5
10
662.3951379422009
20
432.96831424695057
30
17.5
10
668.49902326476001
20
439.51392987644203
30
17.5
10
670.57911826295037
20
441.7445586663809
30
17.5
10
672.80974705288918
20
439.66446366819042
30
17.5
10
675.04037584282764
20
437.58436867000012
30
17.5
10
672.96028084463717
20
435.35373988006143
30
17.5
0
SPLINE
5
430
100
AcDbEntity
8
0
100
AcDbSpline
70
1064
71
2
72
10
73
7
74
0
42
0.000000001
43
0.0000000001
44
0.0000000001
40
-151.71327113823909
40
-151.71327113823909
40
-151.71327113823909
40
-133.81327113823909
40
-133.81327113823909
40
-129.0223423415147
40
-129.0223423415147
40
-124.2314135447903
40
-124.2314135447903
40
-124.2314135447903
10
672.96028084463717
20
435.35373988006143
30
0
10
679.50589647412869
20
429.24985455750181
30
0
10
686.0515121036201
20
423.14596923494219
30
0
10
688.28214089355879
20
421.06587423675188
30
0
10
686.20204589536843
20
418.83524544681313
30
0
10
684.12195089717795
20
416.60461665687444
30
0
10
681.89132210723938
20
418.68471165506469
30
0
0
SPLINE
5
431
100
AcDbEntity
8
0
100
AcDbSpline
70
1064
71
2
72
6
73
3
74
0
42
0.000000001
43
0.0000000001
44
0.0000000001
40
2387.409427088432
40
2387.409427088432
40
2387.409427088432
40
2402.409427088432
40
2402.409427088432
40
2402.409427088432
10
272.66128736344081
20
51.983376360087874
30
17.5
10
272.66128736344081
20
44.483376360087938
30
17.5
10
272.66128736344081
20
36.983376360087988
30
17.5
0
SPLINE
5
432
100
AcDbEntity
8
0
100
AcDbSpline
70
1064
71
2
72
10
73
7
74
0
42
0.000000001
43
0.0000000001
44
0.0000000001
40
-151.71327113823909
40
-151.71327113823909
40
-151.71327113823909
40
-133.81327113823909
40
-133.81327113823909
40
-129.0223423415147
40
-129.0223423415147
40
-124.2314135447903
40
-124.2314135447903
40
-124.2314135447903
10
672.96028084463717
20
435.35373988006143
30
17.5
10
679.50589647412869
20
429.24985455750181
30
17.5
10
686.0515121036201
20
423.14596923494219
30
17.5
10
688.28214089355879
20
421.06587423675188
30
17.499999999999996
10
686.20204589536843
20
418.83524544681313
30
17.5
10
684.12195089717795
20
416.60461665687444
30
17.499999999999996
10
681.89132210723938
20
418.68471165506469
30
17.5
0
SPLINE
5
433
100
AcDbEntity
8
0
100
AcDbSpline
70
1064
71
2
72
10
73
7
74
0
42
0.000000001
43
0.0000000001
44
0.0000000001
40
-151.71327113823909
40
-151.71327113823909
40
-151.71327113823909
40
-133.81327113823909
40
-133.81327113823909
40
-129.0223423415147
40
-129.0223423415147
40
-124.2314135447903
40
-124.2314135447903
40
-124.2314135447903
10
687.99028084463816
20
175.35373988006148
30
0
10
694.5358964741298
20
169.24985455750192
30
0
10
701.08151210362121
20
163.14596923494238
30
0
10
703.3121408935599
20
161.06587423675199
30
0
10
701.23204589536954
20
158.8352454468133
30
0
10
699.15195089717918
20
156.6046166568745
30
0
10
696.92132210724048
20
158.68471165506492
30
0
0
LINE
5
434
100
AcDbEntity
8
0
100
AcDbLine
10
687.99028084463816
20
175.35373988006148
30
17.5
11
687.99028084463816
21
175.35373988006148
31
0
0
LINE
5
435
100
AcDbEntity
8
0
100
AcDbLine
10
681.89132210723938
20
418.68471165506469
30
17.5
11
681.89132210723938
21
418.68471165506469
31
0
0
SPLINE
5
436
100
AcDbEntity
8
0
100
AcDbSpline
70
1064
71
2
72
10
73
7
74
0
42
0.000000001
43
0.0000000001
44
0.0000000001
40
-179.1951287316877
40
-179.1951287316877
40
-179.1951287316877
40
-161.29512873168801
40
-161.29512873168801
40
-156.50419993496348
40
-156.50419993496348
40
-151.71327113823909
40
-151.71327113823909
40
-151.71327113823909
10
671.32125261964302
20
166.42269861745919
30
17.5
10
677.4251379422019
20
172.96831424695068
30
17.5
10
683.52902326476078
20
179.51392987644212
30
17.5
10
685.60911826295126
20
181.74455866638081
30
17.5
10
687.83974705288972
20
179.66446366819054
30
17.5
10
690.07037584282853
20
177.58436867000023
30
17.5
10
687.99028084463816
20
175.35373988006148
30
17.5
0
SPLINE
5
437
100
AcDbEntity
8
0
100
AcDbSpline
70
1064
71
2
72
6
73
3
74
0
42
0.000000001
43
0.0000000001
44
0.0000000001
40
2387.409427088432
40
2387.409427088432
40
2387.409427088432
40
2402.409427088432
40
2402.409427088432
40
2402.409427088432
10
272.66128736344081
20
51.983376360087874
30
0
10
272.66128736344081
20
44.483376360087938
30
0
10
272.66128736344081
20
36.983376360087988
30
0
0
SPLINE
5
438
100
AcDbEntity
8
0
100
AcDbSpline
70
1064
71
2
72
6
73
3
74
0
42
0.000000001
43
0.0000000001
44
0.0000000001
40
-96.74955595134152
40
-96.74955595134152
40
-96.74955595134152
40
-78.849555951341117
40
-78.849555951341117
40
-78.849555951341117
10
680.2522938822442
20
149.75367039246299
30
17.5
10
673.70667825275279
20
155.85755571502261
30
17.5
10
667.16106262326161
20
161.96144103758232
30
17.5
0
SPLINE
5
439
100
AcDbEntity
8
0
100
AcDbSpline
70
1064
71
2
72
10
73
7
74
0
42
0.000000001
43
0.0000000001
44
0.0000000001
40
-151.71327113823909
40
-151.71327113823909
40
-151.71327113823909
40
-133.81327113823909
40
-133.81327113823909
40
-129.0223423415147
40
-129.0223423415147
40
-124.2314135447903
40
-124.2314135447903
40
-124.2314135447903
10
687.99028084463816
20
175.35373988006148
30
17.5
10
694.5358964741298
20
169.24985455750192
30
17.5
10
701.08151210362121
20
163.14596923494238
30
17.5
10
703.3121408935599
20
161.06587423675199
30
17.499999999999996
10
701.23204589536954
20
158.8352454468133
30
17.5
10
699.15195089717918
20
156.6046166568745
30
17.499999999999996
10
696.92132210724048
20
158.68471165506492
30
17.5
0
SPLINE
5
440
100
AcDbEntity
8
0
100
AcDbSpline
70
1064
71
2
72
8
73
5
74
0
42
0.000000001
43
0.0000000001
44
0.0000000001
40
-188.77698632513659
40
-188.77698632513659
40
-188.77698632513659
40
-183.98605752841209
40
-183.98605752841209
40
-179.1951287316877
40
-179.1951287316877
40
-179.1951287316877
10
652.1310626232605
20
421.96144103758223
30
17.5
10
649.90043383332261
20
424.04153603577294
30
17.5
10
651.98052883151308
20
426.27216482571112
30
17.5
10
654.06062382970379
20
428.50279361564913
30
17.5
10
656.29125261964191
20
426.42269861745916
30
17.5
0
SPLINE
5
441
100
AcDbEntity
8
0
100
AcDbSpline
70
1064
71
2
72
12
73
9
74
0
42
0.000000001
43
0.0000000001
44
0.0000000001
40
-25.132741228718338
40
-25.132741228718338
40
-25.132741228718338
40
-18.849555921538762
40
-18.849555921538762
40
-12.566370614359169
40
-12.566370614359169
40
-6.2831853071795853
40
-6.2831853071795853
40
0
40
0
40
0
10
929.55364397862854
20
393.78160961340569
30
-4.25
10
929.55364397862866
20
389.78160961340564
30
-4.2499999999999991
10
925.55364397862843
20
389.78160961340564
30
-4.25
10
921.55364397862854
20
389.78160961340564
30
-4.2499999999999991
10
921.55364397862854
20
393.78160961340569
30
-4.25
10
921.55364397862854
20
397.78160961340575
30
-4.2499999999999991
10
925.55364397862843
20
397.78160961340569
30
-4.25
10
929.55364397862866
20
397.78160961340575
30
-4.2499999999999991
10
929.55364397862854
20
393.78160961340569
30
-4.25
0
SPLINE
5
442
100
AcDbEntity
8
0
100
AcDbSpline
70
1064
71
2
72
12
73
9
74
0
42
0.000000001
43
0.0000000001
44
0.0000000001
40
0
40
0
40
0
40
6.2831853071795853
40
6.2831853071795853
40
12.566370614359169
40
12.566370614359169
40
18.849555921538762
40
18.849555921538762
40
25.132741228718338
40
25.132741228718338
40
25.132741228718338
10
885.27364397862823
20
470.25465064756958
30
-8.75
10
885.27364397862823
20
474.25465064756963
30
-8.7499999999999982
10
881.27364397862834
20
474.25465064756958
30
-8.75
10
877.27364397862834
20
474.25465064756963
30
-8.7499999999999982
10
877.27364397862834
20
470.25465064756958
30
-8.75
10
877.27364397862834
20
466.25465064756952
30
-8.7499999999999982
10
881.27364397862834
20
466.25465064756952
30
-8.75
10
885.27364397862823
20
466.25465064756952
30
-8.7499999999999982
10
885.27364397862823
20
470.25465064756958
30
-8.75
0
LWPOLYLINE
5
443
100
AcDbEntity
8
0
100
AcDbPolyline
90
4
70
1
43
0.0
10
881.27364397862834
20
474.25465064756958
10
881.27364397862834
20
474.25465064756958
10
881.27364397862834
20
466.25465064756952
10
881.27364397862834
20
466.25465064756952
0
SPLINE
5
444
100
AcDbEntity
8
0
100
AcDbSpline
70
1064
71
2
72
14
73
11
74
0
42
0.000000001
43
0.0000000001
44
0.0000000001
40
15
40
15
40
15
40
401.6401983140654
40
401.6401983140654
40
532.01629343804188
40
532.01629343804188
40
772.71483001664797
40
772.71483001664797
40
893.66614717985499
40
893.66614717985499
40
1297.0401927254541
40
1297.0401927254541
40
1297.0401927254541
10
272.66128736344081
20
36.983376360087988
30
17.5
10
464.54040781667231
20
60.543169911373624
30
17.5
10
656.41952826990382
20
84.102963462659261
30
17.5
10
735.45128736344259
20
93.806843300342251
30
17.500000000000004
10
735.45128736344066
20
173.43211711037833
30
17.5
10
735.45128736344066
20
293.78138539968137
30
17.5
10
735.45128736344054
20
414.13065368898435
30
17.5
10
735.45128736344498
20
485.71988618909216
30
17.5
10
665.69688225438813
20
501.8239595196556
30
17.5
10
469.17908480891441
20
547.19366793987183
30
17.5
10
272.66128736344047
20
592.56337636008811
30
17.5
0
LINE
5
445
100
AcDbEntity
8
0
100
AcDbLine
10
272.66128736344047
20
577.56337636008811
30
17.5
11
272.66128736344047
21
577.56337636008811
31
0
0
SPLINE
5
446
100
AcDbEntity
8
0
100
AcDbSpline
70
1064
71
2
72
6
73
3
74
0
42
0.000000001
43
0.0000000001
44
0.0000000001
40
1297.0401927254541
40
1297.0401927254541
40
1297.0401927254541
40
1312.0401927254541
40
1312.0401927254541
40
1312.0401927254541
10
272.66128736344047
20
592.56337636008811
30
17.5
10
272.66128736344047
20
585.06337636008811
30
17.5
10
272.66128736344047
20
577.56337636008811
30
17.5
0
SPLINE
5
447
100
AcDbEntity
8
0
100
AcDbSpline
70
1064
71
2
72
6
73
3
74
0
42
0.000000001
43
0.0000000001
44
0.0000000001
40
1297.0401927254541
40
1297.0401927254541
40
1297.0401927254541
40
1312.0401927254541
40
1312.0401927254541
40
1312.0401927254541
10
272.66128736344047
20
592.56337636008811
30
0
10
272.66128736344047
20
585.06337636008811
30
0
10
272.66128736344047
20
577.56337636008811
30
0
0
SPLINE
5
448
100
AcDbEntity
8
0
100
AcDbSpline
70
1064
71
2
72
6
73
3
74
0
42
0.000000001
43
0.0000000001
44
0.0000000001
40
-96.74955595134152
40
-96.74955595134152
40
-96.74955595134152
40
-78.849555951341117
40
-78.849555951341117
40
-78.849555951341117
10
665.22229388224321
20
409.75367039246288
30
0
10
658.6766782527518
20
415.85755571502256
30
0
10
652.1310626232605
20
421.96144103758223
30
0
0
SPLINE
5
449
100
AcDbEntity
8
0
100
AcDbSpline
70
1064
71
2
72
14
73
11
74
0
42
0.000000001
43
0.0000000001
44
0.0000000001
40
1312.0401927254541
40
1312.0401927254541
40
1312.0401927254541
40
1618.4605050966338
40
1618.4605050966338
40
1760.5303062089718
40
1760.5303062089718
40
1947.694497254686
40
1947.694497254686
40
2105.1231957845739
40
2105.1231957845739
40
2387.409427088432
40
2387.409427088432
40
2387.409427088432
10
272.66128736344047
20
577.56337636008811
30
17.5
10
419.93634193337539
20
535.33293402478262
30
17.5
10
567.21139650331043
20
493.10249168947723
30
17.5
10
646.89128736343787
20
470.25465064756759
30
17.5
10
646.89128736344048
20
387.36370513626213
30
17.5
10
646.89128736344048
20
293.78160961340564
30
17.5
10
646.89128736344048
20
200.19951409054892
30
17.5
10
646.89128736343901
20
104.5779729307653
30
17.5
10
552.20032846904792
20
91.270026528976217
30
17.5
10
412.43080791624436
20
71.62670144453196
30
17.5
10
272.66128736344081
20
51.983376360087874
30
17.5
0
LINE
5
450
100
AcDbEntity
8
0
100
AcDbLine
10
272.66128736344081
20
51.983376360087874
30
17.5
11
272.66128736344081
21
51.983376360087874
31
0
0
SPLINE
5
451
100
AcDbEntity
8
0
100
AcDbSpline
70
1064
71
2
72
14
73
11
74
0
42
0.000000001
43
0.0000000001
44
0.0000000001
40
15
40
15
40
15
40
401.6401983140654
40
401.6401983140654
40
532.01629343804188
40
532.01629343804188
40
772.71483001664797
40
772.71483001664797
40
893.66614717985499
40
893.66614717985499
40
1297.0401927254541
40
1297.0401927254541
40
1297.0401927254541
10
272.66128736344081
20
36.983376360087988
30
0
10
464.54040781667231
20
60.543169911373624
30
0
10
656.41952826990382
20
84.102963462659261
30
0
10
735.45128736344259
20
93.806843300342251
30
0
10
735.45128736344066
20
173.43211711037833
30
0
10
735.45128736344066
20
293.78138539968137
30
0
10
735.45128736344054
20
414.13065368898435
30
0
10
735.45128736344498
20
485.71988618909216
30
0
10
665.69688225438813
20
501.8239595196556
30
0
10
469.17908480891441
20
547.19366793987183
30
0
10
272.66128736344047
20
592.56337636008811
30
0
0
SPLINE
5
452
100
AcDbEntity
8
0
100
AcDbSpline
70
1064
71
2
72
10
73
7
74
0
42
0.000000001
43
0.0000000001
44
0.0000000001
40
-124.2314135447903
40
-124.2314135447903
40
-124.2314135447903
40
-106.33141354479041
40
-106.33141354479041
40
-101.54048474806601
40
-101.54048474806601
40
-96.74955595134152
40
-96.74955595134152
40
-96.74955595134152
10
681.89132210723938
20
418.68471165506469
30
17.5
10
675.78743678468004
20
412.13909602557351
30
17.5
10
669.68355146212048
20
405.59348039608216
30
17.5
10
667.60345646393023
20
403.36285160614352
30
17.5
10
665.37282767399142
20
405.44294660433388
30
17.5
10
663.14219888405273
20
407.52304160252413
30
17.5
10
665.22229388224321
20
409.75367039246288
30
17.5
0
LINE
5
453
100
AcDbEntity
8
0
100
AcDbLine
10
665.22229388224321
20
409.75367039246288
30
17.5
11
665.22229388224321
21
409.75367039246288
31
0
0
SPLINE
5
454
100
AcDbEntity
8
0
100
AcDbSpline
70
1064
71
2
72
6
73
3
74
0
42
0.000000001
43
0.0000000001
44
0.0000000001
40
-96.74955595134152
40
-96.74955595134152
40
-96.74955595134152
40
-78.849555951341117
40
-78.849555951341117
40
-78.849555951341117
10
665.22229388224321
20
409.75367039246288
30
17.5
10
658.6766782527518
20
415.85755571502256
30
17.5
10
652.1310626232605
20
421.96144103758223
30
17.5
0
LINE
5
455
100
AcDbEntity
8
0
100
AcDbLine
10
680.2522938822442
20
149.75367039246299
30
17.5
11
680.2522938822442
21
149.75367039246299
31
0
0
SPLINE
5
456
100
AcDbEntity
8
0
100
AcDbSpline
70
1064
71
2
72
6
73
3
74
0
42
0.000000001
43
0.0000000001
44
0.0000000001
40
-96.74955595134152
40
-96.74955595134152
40
-96.74955595134152
40
-78.849555951341117
40
-78.849555951341117
40
-78.849555951341117
10
680.2522938822442
20
149.75367039246299
30
0
10
673.70667825275279
20
155.85755571502261
30
0
10
667.16106262326161
20
161.96144103758232
30
0
0
SPLINE
5
457
100
AcDbEntity
8
0
100
AcDbSpline
70
1064
71
2
72
8
73
5
74
0
42
0.000000001
43
0.0000000001
44
0.0000000001
40
-188.77698632513659
40
-188.77698632513659
40
-188.77698632513659
40
-183.98605752841209
40
-183.98605752841209
40
-179.1951287316877
40
-179.1951287316877
40
-179.1951287316877
10
652.1310626232605
20
421.96144103758223
30
0
10
649.90043383332261
20
424.04153603577294
30
0
10
651.98052883151308
20
426.27216482571112
30
0
10
654.06062382970379
20
428.50279361564913
30
0
10
656.29125261964191
20
426.42269861745916
30
0
0
LINE
5
458
100
AcDbEntity
8
0
100
AcDbLine
10
667.16106262326161
20
161.96144103758232
30
0
11
667.16106262326161
21
161.96144103758232
31
17.5
0
SPLINE
5
459
100
AcDbEntity
8
0
100
AcDbSpline
70
1064
71
2
72
10
73
7
74
0
42
0.000000001
43
0.0000000001
44
0.0000000001
40
-124.2314135447903
40
-124.2314135447903
40
-124.2314135447903
40
-106.33141354479041
40
-106.33141354479041
40
-101.54048474806601
40
-101.54048474806601
40
-96.74955595134152
40
-96.74955595134152
40
-96.74955595134152
10
696.92132210724048
20
158.68471165506492
30
0
10
690.81743678468104
20
152.13909602557359
30
0
10
684.71355146212136
20
145.59348039608233
30
0
10
682.63345646393122
20
143.36285160614358
30
0
10
680.40282767399219
20
145.44294660433391
30
0
10
678.1721988840535
20
147.52304160252419
30
0
10
680.2522938822442
20
149.75367039246299
30
0
0
SPLINE
5
460
100
AcDbEntity
8
0
100
AcDbSpline
70
1064
71
2
72
10
73
7
74
0
42
0.000000001
43
0.0000000001
44
0.0000000001
40
-124.2314135447903
40
-124.2314135447903
40
-124.2314135447903
40
-106.33141354479041
40
-106.33141354479041
40
-101.54048474806601
40
-101.54048474806601
40
-96.74955595134152
40
-96.74955595134152
40
-96.74955595134152
10
696.92132210724048
20
158.68471165506492
30
17.5
10
690.81743678468104
20
152.13909602557359
30
17.5
10
684.71355146212136
20
145.59348039608233
30
17.5
10
682.63345646393122
20
143.36285160614358
30
17.5
10
680.40282767399219
20
145.44294660433391
30
17.5
10
678.1721988840535
20
147.52304160252419
30
17.5
10
680.2522938822442
20
149.75367039246299
30
17.5
0
LINE
5
461
100
AcDbEntity
8
0
100
AcDbLine
10
656.29125261964191
20
426.42269861745916
30
17.5
11
656.29125261964191
21
426.42269861745916
31
0
0
LINE
5
462
100
AcDbEntity
8
0
100
AcDbLine
10
272.66128736344047
20
592.56337636008811
30
17.5
11
272.66128736344047
21
592.56337636008811
31
0
0
LINE
5
463
100
AcDbEntity
8
0
100
AcDbLine
10
672.96028084463717
20
435.35373988006143
30
17.5
11
672.96028084463717
21
435.35373988006143
31
0
0
LINE
5
464
100
AcDbEntity
8
0
100
AcDbLine
10
652.1310626232605
20
421.96144103758223
30
0
11
652.1310626232605
21
421.96144103758223
31
17.5
0
SPLINE
5
465
100
AcDbEntity
8
0
100
AcDbSpline
70
1064
71
2
72
12
73
9
74
0
42
0.000000001
43
0.0000000001
44
0.0000000001
40
-25.132741228718338
40
-25.132741228718338
40
-25.132741228718338
40
-18.849555921538762
40
-18.849555921538762
40
-12.566370614359169
40
-12.566370614359169
40
-6.2831853071795853
40
-6.2831853071795853
40
0
40
0
40
0
10
885.27364397862823
20
470.25465064756958
30
-4.25
10
885.27364397862823
20
466.25465064756952
30
-4.2499999999999991
10
881.27364397862834
20
466.25465064756952
30
-4.25
10
877.27364397862834
20
466.25465064756952
30
-4.2499999999999991
10
877.27364397862834
20
470.25465064756958
30
-4.25
10
877.27364397862834
20
474.25465064756963
30
-4.2499999999999991
10
881.27364397862834
20
474.25465064756958
30
-4.25
10
885.27364397862823
20
474.25465064756963
30
-4.2499999999999991
10
885.27364397862823
20
470.25465064756958
30
-4.25
0
SPLINE
5
466
100
AcDbEntity
8
0
100
AcDbSpline
70
1064
71
2
72
10
73
7
74
0
42
0.000000001
43
0.0000000001
44
0.0000000001
40
-124.2314135447903
40
-124.2314135447903
40
-124.2314135447903
40
-106.33141354479041
40
-106.33141354479041
40
-101.54048474806601
40
-101.54048474806601
40
-96.74955595134152
40
-96.74955595134152
40
-96.74955595134152
10
681.89132210723938
20
418.68471165506469
30
0
10
675.78743678468004
20
412.13909602557351
30
0
10
669.68355146212048
20
405.59348039608216
30
0
10
667.60345646393023
20
403.36285160614352
30
0
10
665.37282767399142
20
405.44294660433388
30
0
10
663.14219888405273
20
407.52304160252413
30
0
10
665.22229388224321
20
409.75367039246288
30
0
0
SPLINE
5
467
100
AcDbEntity
8
0
100
AcDbSpline
70
1064
71
2
72
8
73
5
74
0
42
0.000000001
43
0.0000000001
44
0.0000000001
40
-188.77698632513659
40
-188.77698632513659
40
-188.77698632513659
40
-183.98605752841209
40
-183.98605752841209
40
-179.1951287316877
40
-179.1951287316877
40
-179.1951287316877
10
667.16106262326161
20
161.96144103758232
30
17.5
10
664.93043383332383
20
164.04153603577299
30
17.5
10
667.01052883151431
20
166.27216482571123
30
17.5
10
669.09062382970478
20
168.50279361564918
30
17.5
10
671.32125261964302
20
166.42269861745919
30
17.5
0
SPLINE
5
468
100
AcDbEntity
8
0
100
AcDbSpline
70
1064
71
2
72
10
73
7
74
0
42
0.000000001
43
0.0000000001
44
0.0000000001
40
-179.1951287316877
40
-179.1951287316877
40
-179.1951287316877
40
-161.29512873168801
40
-161.29512873168801
40
-156.50419993496348
40
-156.50419993496348
40
-151.71327113823909
40
-151.71327113823909
40
-151.71327113823909
10
656.29125261964191
20
426.42269861745916
30
0
10
662.3951379422009
20
432.96831424695057
30
0
10
668.49902326476001
20
439.51392987644203
30
0
10
670.57911826295037
20
441.7445586663809
30
0
10
672.80974705288918
20
439.66446366819042
30
0
10
675.04037584282764
20
437.58436867000012
30
0
10
672.96028084463717
20
435.35373988006143
30
0
0
SPLINE
5
469
100
AcDbEntity
8
0
100
AcDbSpline
70
1064
71
2
72
14
73
11
74
0
42
0.000000001
43
0.0000000001
44
0.0000000001
40
-2387.409427088432
40
-2387.409427088432
40
-2387.409427088432
40
-2105.1231957845739
40
-2105.1231957845739
40
-1947.694497254686
40
-1947.694497254686
40
-1760.5303062089718
40
-1760.5303062089718
40
-1618.4605050966338
40
-1618.4605050966338
40
-1312.0401927254541
40
-1312.0401927254541
40
-1312.0401927254541
10
272.66128736344081
20
51.983376360087874
30
8.75
10
412.43080791624436
20
71.62670144453196
30
8.75
10
552.20032846904792
20
91.270026528976217
30
8.75
10
646.89128736343901
20
104.5779729307653
30
8.75
10
646.89128736344048
20
200.19951409054892
30
8.75
10
646.89128736344048
20
293.78160961340564
30
8.75
10
646.89128736344048
20
387.36370513626213
30
8.75
10
646.89128736343787
20
470.25465064756759
30
8.7500000000000018
10
567.21139650331043
20
493.10249168947723
30
8.75
10
419.93634193337539
20
535.33293402478262
30
8.75
10
272.66128736344047
20
577.56337636008811
30
8.75
0
LINE
5
470
100
AcDbEntity
8
0
100
AcDbLine
10
669.68355146212048
20
405.59348039608216
30
0
11
669.68355146212048
21
405.59348039608216
31
17.5
0
SPLINE
5
471
100
AcDbEntity
8
0
100
AcDbSpline
70
1064
71
2
72
6
73
3
74
0
42
0.000000001
43
0.0000000001
44
0.0000000001
40
-1312.0401927254541
40
-1312.0401927254541
40
-1312.0401927254541
40
-1297.0401927254541
40
-1297.0401927254541
40
-1297.0401927254541
10
272.66128736344047
20
577.56337636008811
30
8.75
10
272.66128736344047
20
585.06337636008811
30
8.75
10
272.66128736344047
20
592.56337636008811
30
8.75
0
LINE
5
472
100
AcDbEntity
8
0
100
AcDbLine
10
683.52902326476078
20
179.51392987644212
30
0
11
683.52902326476078
21
179.51392987644212
31
17.5
0
LINE
5
473
100
AcDbEntity
8
0
100
AcDbLine
10
646.89128736344048
20
200.19951409054892
30
0
11
646.89128736344048
21
200.19951409054892
31
17.5
0
LINE
5
474
100
AcDbEntity
8
0
100
AcDbLine
10
567.21139650331043
20
493.10249168947723
30
0
11
567.21139650331043
21
493.10249168947723
31
17.5
0
LINE
5
475
100
AcDbEntity
8
0
100
AcDbLine
10
272.66128736344081
20
44.483376360087959
30
0
11
272.66128736344081
21
44.483376360087959
31
17.5
0
SPLINE
5
476
100
AcDbEntity
8
0
100
AcDbSpline
70
1064
71
2
72
10
73
7
74
0
42
0.000000001
43
0.0000000001
44
0.0000000001
40
96.74955595134152
40
96.74955595134152
40
96.74955595134152
40
101.54048474806601
40
101.54048474806601
40
106.33141354479041
40
106.33141354479041
40
124.2314135447903
40
124.2314135447903
40
124.2314135447903
10
680.2522938822442
20
149.75367039246299
30
8.75
10
678.1721988840535
20
147.52304160252419
30
8.75
10
680.40282767399219
20
145.44294660433391
30
8.75
10
682.63345646393122
20
143.36285160614358
30
8.75
10
684.71355146212136
20
145.59348039608233
30
8.75
10
690.81743678468104
20
152.13909602557359
30
8.75
10
696.92132210724048
20
158.68471165506492
30
8.75
0
LINE
5
477
100
AcDbEntity
8
0
100
AcDbLine
10
735.45128736344054
20
414.13065368898435
30
0
11
735.45128736344054
21
414.13065368898435
31
17.5
0
LINE
5
478
100
AcDbEntity
8
0
100
AcDbLine
10
686.20204589536843
20
418.83524544681313
30
0
11
686.20204589536843
21
418.83524544681313
31
17.5
0
SPLINE
5
479
100
AcDbEntity
8
0
100
AcDbSpline
70
1064
71
2
72
6
73
3
74
0
42
0.000000001
43
0.0000000001
44
0.0000000001
40
78.849555951341117
40
78.849555951341117
40
78.849555951341117
40
96.74955595134152
40
96.74955595134152
40
96.74955595134152
10
652.1310626232605
20
421.96144103758223
30
8.75
10
658.6766782527518
20
415.85755571502256
30
8.75
10
665.22229388224321
20
409.75367039246288
30
8.75
0
LINE
5
480
100
AcDbEntity
8
0
100
AcDbLine
10
656.41952826990382
20
84.102963462659261
30
0
11
656.41952826990382
21
84.102963462659261
31
17.5
0
SPLINE
5
481
100
AcDbEntity
8
0
100
AcDbSpline
70
1064
71
2
72
10
73
7
74
0
42
0.000000001
43
0.0000000001
44
0.0000000001
40
96.74955595134152
40
96.74955595134152
40
96.74955595134152
40
101.54048474806601
40
101.54048474806601
40
106.33141354479041
40
106.33141354479041
40
124.2314135447903
40
124.2314135447903
40
124.2314135447903
10
665.22229388224321
20
409.75367039246288
30
8.75
10
663.14219888405273
20
407.52304160252413
30
8.75
10
665.37282767399142
20
405.44294660433388
30
8.75
10
667.60345646393023
20
403.36285160614352
30
8.75
10
669.68355146212048
20
405.59348039608216
30
8.75
10
675.78743678468004
20
412.13909602557351
30
8.75
10
681.89132210723938
20
418.68471165506469
30
8.75
0
LINE
5
482
100
AcDbEntity
8
0
100
AcDbLine
10
680.40282767399219
20
145.44294660433391
30
0
11
680.40282767399219
21
145.44294660433391
31
17.5
0
SPLINE
5
483
100
AcDbEntity
8
0
100
AcDbSpline
70
1064
71
2
72
10
73
7
74
0
42
0.000000001
43
0.0000000001
44
0.0000000001
40
124.2314135447903
40
124.2314135447903
40
124.2314135447903
40
129.0223423415147
40
129.0223423415147
40
133.81327113823909
40
133.81327113823909
40
151.71327113823909
40
151.71327113823909
40
151.71327113823909
10
681.89132210723938
20
418.68471165506469
30
8.75
10
684.12195089717795
20
416.60461665687444
30
8.7499999999999982
10
686.20204589536843
20
418.83524544681313
30
8.75
10
688.28214089355879
20
421.06587423675188
30
8.7499999999999982
10
686.0515121036201
20
423.14596923494219
30
8.75
10
679.50589647412869
20
429.24985455750181
30
8.75
10
672.96028084463717
20
435.35373988006143
30
8.75
0
LINE
5
484
100
AcDbEntity
8
0
100
AcDbLine
10
651.98052883151308
20
426.27216482571112
30
0
11
651.98052883151308
21
426.27216482571112
31
17.5
0
SPLINE
5
485
100
AcDbEntity
8
0
100
AcDbSpline
70
1064
71
2
72
8
73
5
74
0
42
0.000000001
43
0.0000000001
44
0.0000000001
40
179.1951287316877
40
179.1951287316877
40
179.1951287316877
40
183.98605752841209
40
183.98605752841209
40
188.77698632513659
40
188.77698632513659
40
188.77698632513659
10
671.32125261964302
20
166.42269861745919
30
8.75
10
669.09062382970478
20
168.50279361564918
30
8.75
10
667.01052883151431
20
166.27216482571123
30
8.75
10
664.93043383332383
20
164.04153603577299
30
8.75
10
667.16106262326161
20
161.96144103758232
30
8.75
0
SPLINE
5
486
100
AcDbEntity
8
0
100
AcDbSpline
70
1064
71
2
72
14
73
11
74
0
42
0.000000001
43
0.0000000001
44
0.0000000001
40
-1297.0401927254541
40
-1297.0401927254541
40
-1297.0401927254541
40
-893.66614717985499
40
-893.66614717985499
40
-772.71483001664797
40
-772.71483001664797
40
-532.01629343804188
40
-532.01629343804188
40
-401.6401983140654
40
-401.6401983140654
40
-15
40
-15
40
-15
10
272.66128736344047
20
592.56337636008811
30
8.75
10
469.17908480891441
20
547.19366793987183
30
8.75
10
665.69688225438813
20
501.8239595196556
30
8.75
10
735.45128736344498
20
485.71988618909216
30
8.75
10
735.45128736344054
20
414.13065368898435
30
8.75
10
735.45128736344066
20
293.78138539968137
30
8.75
10
735.45128736344066
20
173.43211711037833
30
8.75
10
735.45128736344259
20
93.806843300342251
30
8.7500000000000018
10
656.41952826990382
20
84.102963462659261
30
8.75
10
464.54040781667231
20
60.543169911373624
30
8.75
10
272.66128736344081
20
36.983376360087988
30
8.75
0
SPLINE
5
487
100
AcDbEntity
8
0
100
AcDbSpline
70
1064
71
2
72
6
73
3
74
0
42
0.000000001
43
0.0000000001
44
0.0000000001
40
1470
40
1470
40
1470
40
1494
40
1494
40
1494
10
60.671481189988363
20
534.48170924211104
30
0
10
48.671481189988356
20
534.48170924211104
30
0
10
36.67148118998837
20
534.48170924211104
30
0
0
SPLINE
5
488
100
AcDbEntity
8
0
100
AcDbSpline
70
1064
71
2
72
6
73
3
74
0
42
0.000000001
43
0.0000000001
44
0.0000000001
40
972
40
972
40
972
40
996
40
996
40
996
10
36.671481189988583
20
60.481709242111037
30
0
10
48.671481189988583
20
60.481709242110988
30
0
10
60.671481189988583
20
60.481709242110924
30
0
0
LINE
5
489
100
AcDbEntity
8
0
100
AcDbLine
10
658.6766782527518
20
415.85755571502256
30
0
11
658.6766782527518
21
415.85755571502256
31
17.5
0
LINE
5
490
100
AcDbEntity
8
0
100
AcDbLine
10
646.89128736344048
20
387.36370513626213
30
0
11
646.89128736344048
21
387.36370513626213
31
17.5
0
LINE
5
491
100
AcDbEntity
8
0
100
AcDbLine
10
735.45128736344066
20
173.43211711037833
30
0
11
735.45128736344066
21
173.43211711037833
31
17.5
0
LINE
5
492
100
AcDbEntity
8
0
100
AcDbLine
10
36.67148118998837
20
534.48170924211104
30
0
11
36.67148118998837
21
534.48170924211104
31
17.5
0
SPLINE
5
493
100
AcDbEntity
8
0
100
AcDbSpline
70
1064
71
2
72
6
73
3
74
0
42
0.000000001
43
0.0000000001
44
0.0000000001
40
498.00000000000017
40
498.00000000000017
40
498.00000000000017
40
972
40
972
40
972
10
36.67148118998837
20
534.48170924211104
30
17.5
10
36.671481189988469
20
297.48170924211104
30
17.5
10
36.671481189988583
20
60.481709242111037
30
17.5
0
SPLINE
5
494
100
AcDbEntity
8
0
100
AcDbSpline
70
1064
71
2
72
6
73
3
74
0
42
0.000000001
43
0.0000000001
44
0.0000000001
40
996
40
996
40
996
40
1470
40
1470
40
1470
10
60.671481189988583
20
60.481709242110924
30
0
10
60.671481189988477
20
297.48170924211087
30
0
10
60.671481189988363
20
534.48170924211104
30
0
0
LINE
5
495
100
AcDbEntity
8
0
100
AcDbLine
10
504.05628736344261
20
511.21192782242804
30
0
11
504.05628736344261
21
539.14163127458812
31
0
0
SPLINE
5
496
100
AcDbEntity
8
0
100
AcDbSpline
70
1064
71
2
72
10
73
7
74
0
42
0.000000001
43
0.0000000001
44
0.0000000001
40
151.71327113823909
40
151.71327113823909
40
151.71327113823909
40
156.50419993496348
40
156.50419993496348
40
161.29512873168801
40
161.29512873168801
40
179.1951287316877
40
179.1951287316877
40
179.1951287316877
10
687.99028084463816
20
175.35373988006148
30
8.75
10
690.07037584282853
20
177.58436867000023
30
8.75
10
687.83974705288972
20
179.66446366819054
30
8.75
10
685.60911826295126
20
181.74455866638081
30
8.75
10
683.52902326476078
20
179.51392987644212
30
8.75
10
677.4251379422019
20
172.96831424695068
30
8.75
10
671.32125261964302
20
166.42269861745919
30
8.75
0
LINE
5
497
100
AcDbEntity
8
0
100
AcDbLine
10
687.83974705288972
20
179.66446366819054
30
0
11
687.83974705288972
21
179.66446366819054
31
17.5
0
LINE
5
498
100
AcDbEntity
8
0
100
AcDbLine
10
552.20032846904792
20
91.270026528976217
30
0
11
552.20032846904792
21
91.270026528976217
31
17.5
0
LINE
5
499
100
AcDbEntity
8
0
100
AcDbLine
10
701.23204589536954
20
158.8352454468133
30
0
11
701.23204589536954
21
158.8352454468133
31
17.5
0
SPLINE
5
500
100
AcDbEntity
8
0
100
AcDbSpline
70
1064
71
2
72
6
73
3
74
0
42
0.000000001
43
0.0000000001
44
0.0000000001
40
-2402.409427088432
40
-2402.409427088432
40
-2402.409427088432
40
-2387.409427088432
40
-2387.409427088432
40
-2387.409427088432
10
272.66128736344081
20
36.983376360087988
30
8.75
10
272.66128736344081
20
44.483376360087938
30
8.75
10
272.66128736344081
20
51.983376360087874
30
8.75
0
LINE
5
501
100
AcDbEntity
8
0
100
AcDbLine
10
504.05628736344261
20
511.21192782242804
30
17.5
11
504.05628736344261
21
539.14163127458812
31
17.5
0
SPLINE
5
502
100
AcDbEntity
8
0
100
AcDbSpline
70
1064
71
2
72
6
73
3
74
0
42
0.000000001
43
0.0000000001
44
0.0000000001
40
78.849555951341117
40
78.849555951341117
40
78.849555951341117
40
96.74955595134152
40
96.74955595134152
40
96.74955595134152
10
667.16106262326161
20
161.96144103758232
30
8.75
10
673.70667825275279
20
155.85755571502261
30
8.75
10
680.2522938822442
20
149.75367039246299
30
8.75
0
LINE
5
503
100
AcDbEntity
8
0
100
AcDbLine
10
668.49902326476001
20
439.51392987644203
30
0
11
668.49902326476001
21
439.51392987644203
31
17.5
0
SPLINE
5
504
100
AcDbEntity
8
0
100
AcDbSpline
70
1064
71
2
72
6
73
3
74
0
42
0.000000001
43
0.0000000001
44
0.0000000001
40
972
40
972
40
972
40
996
40
996
40
996
10
36.671481189988583
20
60.481709242111037
30
17.5
10
48.671481189988583
20
60.481709242110988
30
17.5
10
60.671481189988583
20
60.481709242110924
30
17.5
0
LINE
5
505
100
AcDbEntity
8
0
100
AcDbLine
10
665.69688225438813
20
501.8239595196556
30
0
11
665.69688225438813
21
501.8239595196556
31
17.5
0
SPLINE
5
506
100
AcDbEntity
8
0
100
AcDbSpline
70
1064
71
2
72
6
73
3
74
0
42
0.000000001
43
0.0000000001
44
0.0000000001
40
996
40
996
40
996
40
1470
40
1470
40
1470
10
60.671481189988583
20
60.481709242110924
30
17.5
10
60.671481189988477
20
297.48170924211087
30
17.5
10
60.671481189988363
20
534.48170924211104
30
17.5
0
LINE
5
507
100
AcDbEntity
8
0
100
AcDbLine
10
60.671481189988363
20
534.48170924211104
30
17.5
11
60.671481189988363
21
534.48170924211104
31
0
0
SPLINE
5
508
100
AcDbEntity
8
0
100
AcDbSpline
70
1064
71
2
72
6
73
3
74
0
42
0.000000001
43
0.0000000001
44
0.0000000001
40
1470
40
1470
40
1470
40
1494
40
1494
40
1494
10
60.671481189988363
20
534.48170924211104
30
17.5
10
48.671481189988356
20
534.48170924211104
30
17.5
10
36.67148118998837
20
534.48170924211104
30
17.5
0
LINE
5
509
100
AcDbEntity
8
0
100
AcDbLine
10
667.01052883151431
20
166.27216482571123
30
0
11
667.01052883151431
21
166.27216482571123
31
17.5
0
SPLINE
5
510
100
AcDbEntity
8
0
100
AcDbSpline
70
1064
71
2
72
8
73
5
74
0
42
0.000000001
43
0.0000000001
44
0.0000000001
40
179.1951287316877
40
179.1951287316877
40
179.1951287316877
40
183.98605752841209
40
183.98605752841209
40
188.77698632513659
40
188.77698632513659
40
188.77698632513659
10
656.29125261964191
20
426.42269861745916
30
8.75
10
654.06062382970379
20
428.50279361564913
30
8.75
10
651.98052883151308
20
426.27216482571112
30
8.75
10
649.90043383332261
20
424.04153603577294
30
8.75
10
652.1310626232605
20
421.96144103758223
30
8.75
0
LINE
5
511
100
AcDbEntity
8
0
100
AcDbLine
10
665.37282767399142
20
405.44294660433388
30
0
11
665.37282767399142
21
405.44294660433388
31
17.5
0
LINE
5
512
100
AcDbEntity
8
0
100
AcDbLine
10
684.71355146212136
20
145.59348039608233
30
0
11
684.71355146212136
21
145.59348039608233
31
17.5
0
LINE
5
513
100
AcDbEntity
8
0
100
AcDbLine
10
504.05628736344261
20
65.395109830215901
30
17.5
11
504.05628736344261
21
84.503822806048149
31
17.5
0
LINE
5
514
100
AcDbEntity
8
0
100
AcDbLine
10
646.89128736344048
20
314.77337636008798
30
17.5
11
735.45128736344066
21
314.77337636008798
31
17.5
0
LINE
5
515
100
AcDbEntity
8
0
100
AcDbLine
10
673.70667825275279
20
155.85755571502267
30
0
11
673.70667825275279
21
155.85755571502267
31
17.5
0
LINE
5
516
100
AcDbEntity
8
0
100
AcDbLine
10
701.08151210362121
20
163.14596923494238
30
0
11
701.08151210362121
21
163.14596923494238
31
17.5
0
SPLINE
5
517
100
AcDbEntity
8
0
100
AcDbSpline
70
1064
71
2
72
10
73
7
74
0
42
0.000000001
43
0.0000000001
44
0.0000000001
40
124.2314135447903
40
124.2314135447903
40
124.2314135447903
40
129.0223423415147
40
129.0223423415147
40
133.81327113823909
40
133.81327113823909
40
151.71327113823909
40
151.71327113823909
40
151.71327113823909
10
696.92132210724048
20
158.68471165506492
30
8.75
10
699.15195089717918
20
156.6046166568745
30
8.7499999999999982
10
701.23204589536954
20
158.8352454468133
30
8.75
10
703.3121408935599
20
161.06587423675199
30
8.7499999999999982
10
701.08151210362121
20
163.14596923494238
30
8.75
10
694.5358964741298
20
169.24985455750192
30
8.75
10
687.99028084463816
20
175.35373988006148
30
8.75
0
LINE
5
518
100
AcDbEntity
8
0
100
AcDbLine
10
60.671481189988583
20
60.481709242110924
30
17.5
11
60.671481189988583
21
60.481709242110924
31
0
0
LWPOLYLINE
5
519
100
AcDbEntity
8
0
100
AcDbPolyline
90
4
70
1
43
0.0
10
60.671481189988583
20
297.48170924211087
10
36.67148118998837
20
297.48170924211087
10
36.671481189988469
20
297.48170924211087
10
60.671481189988477
20
297.48170924211081
0
LINE
5
520
100
AcDbEntity
8
0
100
AcDbLine
10
504.05628736344261
20
65.395109830215901
30
0
11
504.05628736344261
21
84.503822806048149
31
0
0
LINE
5
521
100
AcDbEntity
8
0
100
AcDbLine
10
646.89128736344048
20
314.77337636008798
30
0
11
735.45128736344066
21
314.77337636008798
31
0
0
LINE
5
522
100
AcDbEntity
8
0
100
AcDbLine
10
686.0515121036201
20
423.14596923494219
30
0
11
686.0515121036201
21
423.14596923494219
31
17.5
0
LINE
5
523
100
AcDbEntity
8
0
100
AcDbLine
10
672.80974705288918
20
439.66446366819042
30
0
11
672.80974705288918
21
439.66446366819042
31
17.5
0
SPLINE
5
524
100
AcDbEntity
8
0
100
AcDbSpline
70
1064
71
2
72
10
73
7
74
0
42
0.000000001
43
0.0000000001
44
0.0000000001
40
151.71327113823909
40
151.71327113823909
40
151.71327113823909
40
156.50419993496348
40
156.50419993496348
40
161.29512873168801
40
161.29512873168801
40
179.1951287316877
40
179.1951287316877
40
179.1951287316877
10
672.96028084463717
20
435.35373988006143
30
8.75
10
675.04037584282764
20
437.58436867000012
30
8.75
10
672.80974705288918
20
439.66446366819042
30
8.75
10
670.57911826295037
20
441.7445586663809
30
8.75
10
668.49902326476001
20
439.51392987644203
30
8.75
10
662.3951379422009
20
432.96831424695057
30
8.75
10
656.29125261964191
20
426.42269861745916
30
8.75
0
SPLINE
5
525
100
AcDbEntity
8
0
100
AcDbSpline
70
1064
71
2
72
6
73
3
74
0
42
0.000000001
43
0.0000000001
44
0.0000000001
40
498.00000000000017
40
498.00000000000017
40
498.00000000000017
40
972
40
972
40
972
10
36.67148118998837
20
534.48170924211104
30
0
10
36.671481189988469
20
297.48170924211104
30
0
10
36.671481189988583
20
60.481709242111037
30
0
0
LWPOLYLINE
5
526
100
AcDbEntity
8
0
100
AcDbPolyline
90
4
70
1
43
0.0
10
48.671481189988477
20
534.48170924211104
10
48.671481189988477
20
60.481709242110924
10
48.671481189988526
20
60.481709242110995
10
48.671481189988356
20
534.48170924211104
0
LINE
5
527
100
AcDbEntity
8
0
100
AcDbLine
10
36.671481189988583
20
60.481709242111037
30
17.5
11
36.671481189988583
21
60.481709242111037
31
0
0
LINE
5
528
100
AcDbEntity
8
0
100
AcDbLine
10
272.66128736344029
20
585.063376360088
30
0
11
272.66128736344029
21
585.063376360088
31
17.5
0
SPLINE
5
529
100
AcDbEntity
8
0
100
AcDbSpline
70
1064
71
2
72
6
73
3
74
0
42
0.000000001
43
0.0000000001
44
0.0000000001
40
-1494
40
-1494
40
-1494
40
-1470
40
-1470
40
-1470
10
36.67148118998837
20
534.48170924211104
30
8.75
10
48.671481189988356
20
534.48170924211104
30
8.75
10
60.671481189988363
20
534.48170924211104
30
8.75
0
SPLINE
5
530
100
AcDbEntity
8
0
100
AcDbSpline
70
1064
71
2
72
6
73
3
74
0
42
0.000000001
43
0.0000000001
44
0.0000000001
40
-1470
40
-1470
40
-1470
40
-996
40
-996
40
-996
10
60.671481189988363
20
534.48170924211104
30
8.75
10
60.671481189988477
20
297.48170924211087
30
8.75
10
60.671481189988583
20
60.481709242110924
30
8.75
0
SPLINE
5
531
100
AcDbEntity
8
0
100
AcDbSpline
70
1064
71
2
72
6
73
3
74
0
42
0.000000001
43
0.0000000001
44
0.0000000001
40
-996
40
-996
40
-996
40
-972
40
-972
40
-972
10
60.671481189988583
20
60.481709242110924
30
8.75
10
48.671481189988583
20
60.481709242110988
30
8.75
10
36.671481189988583
20
60.481709242111037
30
8.75
0
SPLINE
5
532
100
AcDbEntity
8
0
100
AcDbSpline
70
1064
71
2
72
6
73
3
74
0
42
0.000000001
43
0.0000000001
44
0.0000000001
40
-972
40
-972
40
-972
40
-498.00000000000017
40
-498.00000000000017
40
-498.00000000000017
10
36.671481189988583
20
60.481709242111037
30
8.75
10
36.671481189988469
20
297.48170924211104
30
8.75
10
36.67148118998837
20
534.48170924211104
30
8.75
0
ENDSEC
0
SECTION
2
OBJECTS
0
DICTIONARY
5
C
100
AcDbDictionary
3
ACAD_GROUP
350
D
3
ACAD_MLINESTYLE
350
17
0
DICTIONARY
5
D
100
AcDbDictionary
0
DICTIONARY
5
1A
330
C
100
AcDbDictionary
0
DICTIONARY
5
17
100
AcDbDictionary
0
ENDSEC
0
EOF
