  0
SECTION
  2
HEADER
  9
$ACADVER
  1
AC1014
  9
$HANDSEED
  5
FFFF
  9
$MEASUREMENT
 70
     1
  0
ENDSEC
  0
SECTION
  2
TABLES
  0
TABLE
  2
VPORT
  5
8
330
0
100
AcDbSymbolTable
 70
     4
  0
VPORT
  5
2E
330
8
100
AcDbSymbolTableRecord
100
AcDbViewportTableRecord
  2
*ACTIVE
 70
     0
 10
0.0
 20
0.0
 11
1.0
 21
1.0
 12
210.0
 22
148.5
 13
0.0
 23
0.0
 14
10.0
 24
10.0
 15
10.0
 25
10.0
 16
0.0
 26
0.0
 36
1.0
 17
0.0
 27
0.0
 37
0.0
 40
341.0
 41
1.24
 42
50.0
 43
0.0
 44
0.0
 50
0.0
 51
0.0
 71
     0
 72
   100
 73
     1
 74
     3
 75
     0
 76
     0
 77
     0
 78
     0
  0
ENDTAB
  0
TABLE
  2
LTYPE
  5
5
330
0
100
AcDbSymbolTable
 70
     1
  0
LTYPE
  5
14
330
5
100
AcDbSymbolTableRecord
100
AcDbLinetypeTableRecord
  2
BYBLOCK
 70
     0
  3

 72
    65
 73
     0
 40
0.0
  0
LTYPE
  5
15
330
5
100
AcDbSymbolTableRecord
100
AcDbLinetypeTableRecord
  2
BYLAYER
 70
     0
  3

 72
    65
 73
     0
 40
0.0
  0
LTYPE
  5
16
330
5
100
AcDbSymbolTableRecord
100
AcDbLinetypeTableRecord
  2
CONTINUOUS
 70
     0
  3
Solid line
 72
    65
 73
     0
 40
0.0
  0
ENDTAB
  0
TABLE
  2
LAYER
  5
2
100
AcDbSymbolTable
 70
2
  0
LAYER
  5
50
100
AcDbSymbolTableRecord
100
AcDbLayerTableRecord
  2
0
 70
0
  6
CONTINUOUS
  0
LAYER
  5
51
100
AcDbSymbolTableRecord
100
AcDbLayerTableRecord
  2
Capa_1
 70
0
  6
CONTINUOUS
  0
ENDTAB
  0
TABLE
  2
STYLE
  5
3
330
0
100
AcDbSymbolTable
 70
     1
  0
STYLE
  5
11
330
3
100
AcDbSymbolTableRecord
100
AcDbTextStyleTableRecord
  2
STANDARD
 70
     0
 40
0.0
 41
1.0
 50
0.0
 71
     0
 42
2.5
  3
txt
  4

  0
ENDTAB
  0
TABLE
  2
VIEW
  5
6
330
0
100
AcDbSymbolTable
 70
     0
  0
ENDTAB
  0
TABLE
  2
UCS
  5
7
330
0
100
AcDbSymbolTable
 70
     0
  0
ENDTAB
  0
TABLE
  2
APPID
  5
9
330
0
100
AcDbSymbolTable
 70
     2
  0
APPID
  5
12
330
9
100
AcDbSymbolTableRecord
100
AcDbRegAppTableRecord
  2
ACAD
 70
     0
  0
ENDTAB
  0
TABLE
  2
DIMSTYLE
  5
A
330
0
100
AcDbSymbolTable
 70
     1
  0
DIMSTYLE
105
27
330
A
100
AcDbSymbolTableRecord
100
AcDbDimStyleTableRecord
  2
ISO-25
 70
     0
  3

  4

  5

  6

  7

 40
1.0
 41
2.5
 42
0.625
 43
3.75
 44
1.25
 45
0.0
 46
0.0
 47
0.0
 48
0.0
140
2.5
141
2.5
142
0.0
143
0.03937007874016
144
1.0
145
0.0
146
1.0
147
0.625
 71
     0
 72
     0
 73
     0
 74
     0
 75
     0
 76
     0
 77
     1
 78
     8
170
     0
171
     3
172
     1
173
     0
174
     0
175
     0
176
     0
177
     0
178
     0
270
     2
271
     2
272
     2
273
     2
274
     3
340
11
275
     0
280
     0
281
     0
282
     0
283
     0
284
     8
285
     0
286
     0
287
     3
288
     0
  0
ENDTAB
  0
TABLE
  2
BLOCK_RECORD
  5
1
330
0
100
AcDbSymbolTable
 70
     1
  0
BLOCK_RECORD
  5
1F
330
1
100
AcDbSymbolTableRecord
100
AcDbBlockTableRecord
  2
*MODEL_SPACE
  0
BLOCK_RECORD
  5
1B
330
1
100
AcDbSymbolTableRecord
100
AcDbBlockTableRecord
  2
*PAPER_SPACE
  0
ENDTAB
  0
ENDSEC
  0
SECTION
  2
BLOCKS
  0
BLOCK
  5
20
330
1F
100
AcDbEntity
  8
0
100
AcDbBlockBegin
  2
*MODEL_SPACE
 70
     0
 10
0.0
 20
0.0
 30
0.0
  3
*MODEL_SPACE
  1

  0
ENDBLK
  5
21
330
1F
100
AcDbEntity
  8
0
100
AcDbBlockEnd
  0
BLOCK
  5
1C
330
1B
100
AcDbEntity
 67
     1
  8
0
100
AcDbBlockBegin
  2
*PAPER_SPACE
  1

  0
ENDBLK
  5
1D
330
1B
100
AcDbEntity
 67
     1
  8
0
100
AcDbBlockEnd
  0
ENDSEC
  0
SECTION
  2
ENTITIES
  0
SPLINE
  5
100
100
AcDbEntity
  8
Capa_1
 62
7
100
AcDbSpline
 70
8
 71
3
 72
8
 73
4
 74
0
 40
0
 40
0
 40
0
 40
0
 40
1
 40
1
 40
1
 40
1
 10
-297.300448
 20
92.458342
 30
0.0
 10
-297.862701
 20
92.453421
 30
0.0
 10
-301.236337
 20
85.626530
 30
0.0
 10
-303.571767
 20
79.767256
 30
0.0
  0
SPLINE
  5
101
100
AcDbEntity
  8
Capa_1
 62
7
100
AcDbSpline
 70
8
 71
3
 72
8
 73
4
 74
0
 40
0
 40
0
 40
0
 40
0
 40
1
 40
1
 40
1
 40
1
 10
-303.571767
 20
79.767256
 30
0.0
 10
-316.746489
 20
46.714022
 30
0.0
 10
-313.680312
 20
8.668682
 30
0.0
 10
-295.392828
 20
-21.721127
 30
0.0
  0
SPLINE
  5
102
100
AcDbEntity
  8
Capa_1
 62
7
100
AcDbSpline
 70
8
 71
3
 72
8
 73
4
 74
0
 40
0
 40
0
 40
0
 40
0
 40
1
 40
1
 40
1
 40
1
 10
-295.392828
 20
-21.721127
 30
0.0
 10
-275.783810
 20
-54.306807
 30
0.0
 10
-241.820499
 20
-75.034933
 30
0.0
 10
-204.052664
 20
-77.466943
 30
0.0
  0
SPLINE
  5
103
100
AcDbEntity
  8
Capa_1
 62
7
100
AcDbSpline
 70
8
 71
3
 72
8
 73
4
 74
0
 40
0
 40
0
 40
0
 40
0
 40
1
 40
1
 40
1
 40
1
 10
-204.052664
 20
-77.466943
 30
0.0
 10
-203.506941
 20
-77.502126
 30
0.0
 10
-202.457722
 20
-77.547291
 30
0.0
 10
-201.721023
 20
-77.566936
 30
0.0
  0
SPLINE
  5
104
100
AcDbEntity
  8
Capa_1
 62
7
100
AcDbSpline
 70
8
 71
3
 72
8
 73
4
 74
0
 40
0
 40
0
 40
0
 40
0
 40
1
 40
1
 40
1
 40
1
 10
-200.381570
 20
-71.574659
 30
0.0
 10
-200.381570
 20
-66.991071
 30
0.0
 10
-200.441002
 20
-65.498662
 30
0.0
 10
-200.629617
 20
-65.346758
 30
0.0
  0
SPLINE
  5
105
100
AcDbEntity
  8
Capa_1
 62
7
100
AcDbSpline
 70
8
 71
3
 72
8
 73
4
 74
0
 40
0
 40
0
 40
0
 40
0
 40
1
 40
1
 40
1
 40
1
 10
-200.629617
 20
-65.346758
 30
0.0
 10
-200.766042
 20
-65.236883
 30
0.0
 10
-205.744343
 20
-62.315605
 30
0.0
 10
-211.692507
 20
-58.854895
 30
0.0
  0
SPLINE
  5
106
100
AcDbEntity
  8
Capa_1
 62
7
100
AcDbSpline
 70
8
 71
3
 72
8
 73
4
 74
0
 40
0
 40
0
 40
0
 40
0
 40
1
 40
1
 40
1
 40
1
 10
-211.692507
 20
-58.854895
 30
0.0
 10
-217.640671
 20
-55.394165
 30
0.0
 10
-222.842214
 20
-52.346304
 30
0.0
 10
-223.251491
 20
-52.082065
 30
0.0
  0
LWPOLYLINE
  5
107
100
AcDbEntity
  8
Capa_1
 62
7
100
AcDbPolyline
 90
3
 70
0
 10
-201.721023
 20
-77.566936
 30
0.0
 10
-200.381570
 20
-77.602595
 30
0.0
 10
-200.381570
 20
-71.574659
 30
0.0
  0
SPLINE
  5
108
100
AcDbEntity
  8
Capa_1
 62
7
100
AcDbSpline
 70
8
 71
3
 72
8
 73
4
 74
0
 40
0
 40
0
 40
0
 40
0
 40
1
 40
1
 40
1
 40
1
 10
-222.974373
 20
-24.248090
 30
0.0
 10
-218.950041
 20
-22.575659
 30
0.0
 10
-214.699669
 20
-18.075315
 30
0.0
 10
-212.694775
 20
-13.363873
 30
0.0
  0
SPLINE
  5
109
100
AcDbEntity
  8
Capa_1
 62
7
100
AcDbSpline
 70
8
 71
3
 72
8
 73
4
 74
0
 40
0
 40
0
 40
0
 40
0
 40
1
 40
1
 40
1
 40
1
 10
-212.694775
 20
-13.363873
 30
0.0
 10
-210.999008
 20
-9.378891
 30
0.0
 10
-210.415165
 20
-6.014184
 30
0.0
 10
-210.429790
 20
-0.311190
 30
0.0
  0
SPLINE
  5
10a
100
AcDbEntity
  8
Capa_1
 62
7
100
AcDbSpline
 70
8
 71
3
 72
8
 73
4
 74
0
 40
0
 40
0
 40
0
 40
0
 40
1
 40
1
 40
1
 40
1
 10
-210.429790
 20
-0.311190
 30
0.0
 10
-210.439513
 20
3.483134
 30
0.0
 10
-210.508153
 20
4.430970
 30
0.0
 10
-210.955332
 20
6.931779
 30
0.0
  0
SPLINE
  5
10b
100
AcDbEntity
  8
Capa_1
 62
7
100
AcDbSpline
 70
8
 71
3
 72
8
 73
4
 74
0
 40
0
 40
0
 40
0
 40
0
 40
1
 40
1
 40
1
 40
1
 10
-210.955332
 20
6.931779
 30
0.0
 10
-212.927364
 20
17.960101
 30
0.0
 10
-218.408128
 20
28.572457
 30
0.0
 10
-226.366404
 20
36.771044
 30
0.0
  0
SPLINE
  5
10c
100
AcDbEntity
  8
Capa_1
 62
7
100
AcDbSpline
 70
8
 71
3
 72
8
 73
4
 74
0
 40
0
 40
0
 40
0
 40
0
 40
1
 40
1
 40
1
 40
1
 10
-226.366404
 20
36.771044
 30
0.0
 10
-240.043550
 20
50.861166
 30
0.0
 10
-257.192340
 20
53.641628
 30
0.0
 10
-266.823623
 20
43.331109
 30
0.0
  0
SPLINE
  5
10d
100
AcDbEntity
  8
Capa_1
 62
7
100
AcDbSpline
 70
8
 71
3
 72
8
 73
4
 74
0
 40
0
 40
0
 40
0
 40
0
 40
1
 40
1
 40
1
 40
1
 10
-266.823623
 20
43.331109
 30
0.0
 10
-269.931849
 20
40.003696
 30
0.0
 10
-271.916422
 20
35.683322
 30
0.0
 10
-272.924425
 20
30.049749
 30
0.0
  0
SPLINE
  5
10e
100
AcDbEntity
  8
Capa_1
 62
7
100
AcDbSpline
 70
8
 71
3
 72
8
 73
4
 74
0
 40
0
 40
0
 40
0
 40
0
 40
1
 40
1
 40
1
 40
1
 10
-272.924425
 20
30.049749
 30
0.0
 10
-273.415816
 20
27.304194
 30
0.0
 10
-273.416967
 20
21.229002
 30
0.0
 10
-272.927997
 20
17.945060
 30
0.0
  0
SPLINE
  5
10f
100
AcDbEntity
  8
Capa_1
 62
7
100
AcDbSpline
 70
8
 71
3
 72
8
 73
4
 74
0
 40
0
 40
0
 40
0
 40
0
 40
1
 40
1
 40
1
 40
1
 10
-272.927997
 20
17.945060
 30
0.0
 10
-271.521968
 20
8.511500
 30
0.0
 10
-267.442371
 20
-0.763806
 30
0.0
 10
-261.173274
 20
-8.779669
 30
0.0
  0
LWPOLYLINE
  5
110
100
AcDbEntity
  8
Capa_1
 62
7
100
AcDbPolyline
 90
5
 70
0
 10
-223.251491
 20
-52.082065
 30
0.0
 10
-223.995632
 20
-51.601469
 30
0.0
 10
-223.995632
 20
-38.137167
 30
0.0
 10
-223.995632
 20
-24.672488
 30
0.0
 10
-222.974373
 20
-24.248090
 30
0.0
  0
SPLINE
  5
111
100
AcDbEntity
  8
Capa_1
 62
7
100
AcDbSpline
 70
8
 71
3
 72
8
 73
4
 74
0
 40
0
 40
0
 40
0
 40
0
 40
1
 40
1
 40
1
 40
1
 10
-260.563635
 20
-30.112077
 30
0.0
 10
-261.139857
 20
-29.765327
 30
0.0
 10
-267.389428
 20
-26.177518
 30
0.0
 10
-274.451144
 20
-22.139315
 30
0.0
  0
LWPOLYLINE
  5
112
100
AcDbEntity
  8
Capa_1
 62
7
100
AcDbPolyline
 90
5
 70
0
 10
-261.173274
 20
-8.779669
 30
0.0
 10
-259.516023
 20
-10.898525
 30
0.0
 10
-259.516023
 20
-20.820400
 30
0.0
 10
-259.516023
 20
-30.742275
 30
0.0
 10
-260.563635
 20
-30.112077
 30
0.0
  0
SPLINE
  5
113
100
AcDbEntity
  8
Capa_1
 62
7
100
AcDbSpline
 70
8
 71
3
 72
8
 73
4
 74
0
 40
0
 40
0
 40
0
 40
0
 40
1
 40
1
 40
1
 40
1
 10
-292.151610
 20
89.262026
 30
0.0
 10
-294.818927
 20
91.018615
 30
0.0
 10
-297.133959
 20
92.456024
 30
0.0
 10
-297.299733
 20
92.458342
 30
0.0
  0
LWPOLYLINE
  5
114
100
AcDbEntity
  8
Capa_1
 62
7
100
AcDbPolyline
 90
5
 70
0
 10
-274.451144
 20
-22.139315
 30
0.0
 10
-287.290288
 20
-14.797127
 30
0.0
 10
-287.294058
 20
35.634292
 30
0.0
 10
-287.298027
 20
86.065710
 30
0.0
 10
-292.151610
 20
89.262026
 30
0.0
  0
LWPOLYLINE
  5
115
100
AcDbEntity
  8
Capa_1
 62
7
100
AcDbPolyline
 90
2
 70
0
 10
-297.299733
 20
92.458342
 30
0.0
 10
-297.300448
 20
92.458342
 30
0.0
  0
SPLINE
  5
116
100
AcDbEntity
  8
Capa_1
 62
7
100
AcDbSpline
 70
8
 71
3
 72
8
 73
4
 74
0
 40
0
 40
0
 40
0
 40
0
 40
1
 40
1
 40
1
 40
1
 10
-297.350454
 20
91.877371
 30
0.0
 10
-296.996263
 20
91.867250
 30
0.0
 10
-295.761466
 20
91.119078
 30
0.0
 10
-292.484846
 20
88.960881
 30
0.0
  0
LWPOLYLINE
  5
117
100
AcDbEntity
  8
Capa_1
 62
7
100
AcDbPolyline
 90
1
 70
1
 10
-297.350454
 20
91.877371
 30
0.0
  0
SPLINE
  5
118
100
AcDbEntity
  8
Capa_1
 62
7
100
AcDbSpline
 70
8
 71
3
 72
8
 73
4
 74
0
 40
0
 40
0
 40
0
 40
0
 40
1
 40
1
 40
1
 40
1
 10
-273.551508
 20
-23.151266
 30
0.0
 10
-265.825721
 20
-27.568307
 30
0.0
 10
-259.418670
 20
-31.129307
 30
0.0
 10
-259.313617
 20
-31.064359
 30
0.0
  0
SPLINE
  5
119
100
AcDbEntity
  8
Capa_1
 62
7
100
AcDbSpline
 70
8
 71
3
 72
8
 73
4
 74
0
 40
0
 40
0
 40
0
 40
0
 40
1
 40
1
 40
1
 40
1
 10
-259.313617
 20
-31.064359
 30
0.0
 10
-259.195309
 20
-30.991214
 30
0.0
 10
-259.122542
 20
-27.094894
 30
0.0
 10
-259.122542
 20
-20.823118
 30
0.0
  0
LWPOLYLINE
  5
11a
100
AcDbEntity
  8
Capa_1
 62
7
100
AcDbPolyline
 90
5
 70
0
 10
-292.484846
 20
88.960881
 30
0.0
 10
-287.702205
 20
85.810686
 30
0.0
 10
-287.650274
 20
35.345163
 30
0.0
 10
-287.598323
 20
-15.120362
 30
0.0
 10
-273.551508
 20
-23.151266
 30
0.0
  0
SPLINE
  5
11b
100
AcDbEntity
  8
Capa_1
 62
7
100
AcDbSpline
 70
8
 71
3
 72
8
 73
4
 74
0
 40
0
 40
0
 40
0
 40
0
 40
1
 40
1
 40
1
 40
1
 10
-260.785627
 20
-8.581231
 30
0.0
 10
-270.252087
 20
3.479959
 30
0.0
 10
-274.789460
 20
19.130545
 30
0.0
 10
-272.301986
 20
31.141155
 30
0.0
  0
SPLINE
  5
11c
100
AcDbEntity
  8
Capa_1
 62
7
100
AcDbSpline
 70
8
 71
3
 72
8
 73
4
 74
0
 40
0
 40
0
 40
0
 40
0
 40
1
 40
1
 40
1
 40
1
 10
-272.301986
 20
31.141155
 30
0.0
 10
-270.404031
 20
40.305293
 30
0.0
 10
-265.043778
 20
46.494217
 30
0.0
 10
-257.237386
 20
48.534666
 30
0.0
  0
SPLINE
  5
11d
100
AcDbEntity
  8
Capa_1
 62
7
100
AcDbSpline
 70
8
 71
3
 72
8
 73
4
 74
0
 40
0
 40
0
 40
0
 40
0
 40
1
 40
1
 40
1
 40
1
 10
-257.237386
 20
48.534666
 30
0.0
 10
-254.531531
 20
49.241926
 30
0.0
 10
-250.313425
 20
49.285699
 30
0.0
 10
-247.286063
 20
48.638150
 30
0.0
  0
SPLINE
  5
11e
100
AcDbEntity
  8
Capa_1
 62
7
100
AcDbSpline
 70
8
 71
3
 72
8
 73
4
 74
0
 40
0
 40
0
 40
0
 40
0
 40
1
 40
1
 40
1
 40
1
 10
-247.286063
 20
48.638150
 30
0.0
 10
-230.088874
 20
44.959684
 30
0.0
 10
-214.449439
 20
26.361112
 30
0.0
 10
-211.165795
 20
5.683786
 30
0.0
  0
SPLINE
  5
11f
100
AcDbEntity
  8
Capa_1
 62
7
100
AcDbSpline
 70
8
 71
3
 72
8
 73
4
 74
0
 40
0
 40
0
 40
0
 40
0
 40
1
 40
1
 40
1
 40
1
 10
-211.165795
 20
5.683786
 30
0.0
 10
-210.681885
 20
2.634833
 30
0.0
 10
-210.681925
 20
-3.911719
 30
0.0
 10
-211.167779
 20
-6.509643
 30
0.0
  0
SPLINE
  5
120
100
AcDbEntity
  8
Capa_1
 62
7
100
AcDbSpline
 70
8
 71
3
 72
8
 73
4
 74
0
 40
0
 40
0
 40
0
 40
0
 40
1
 40
1
 40
1
 40
1
 10
-211.167779
 20
-6.509643
 30
0.0
 10
-212.217196
 20
-12.133739
 30
0.0
 10
-214.125649
 20
-16.221650
 30
0.0
 10
-217.232525
 20
-19.501108
 30
0.0
  0
SPLINE
  5
121
100
AcDbEntity
  8
Capa_1
 62
7
100
AcDbSpline
 70
8
 71
3
 72
8
 73
4
 74
0
 40
0
 40
0
 40
0
 40
0
 40
1
 40
1
 40
1
 40
1
 10
-217.232525
 20
-19.501108
 30
0.0
 10
-218.975600
 20
-21.341001
 30
0.0
 10
-221.294461
 20
-23.033077
 30
0.0
 10
-223.256194
 20
-23.896955
 30
0.0
  0
LWPOLYLINE
  5
122
100
AcDbEntity
  8
Capa_1
 62
7
100
AcDbPolyline
 90
3
 70
0
 10
-259.122542
 20
-20.823118
 30
0.0
 10
-259.122542
 20
-10.700087
 30
0.0
 10
-260.785627
 20
-8.581231
 30
0.0
  0
SPLINE
  5
123
100
AcDbEntity
  8
Capa_1
 62
7
100
AcDbSpline
 70
8
 71
3
 72
8
 73
4
 74
0
 40
0
 40
0
 40
0
 40
0
 40
1
 40
1
 40
1
 40
1
 10
-224.397210
 20
-38.094543
 30
0.0
 10
-224.397210
 20
-48.796971
 30
0.0
 10
-224.342997
 20
-51.839812
 30
0.0
 10
-224.149163
 20
-52.017711
 30
0.0
  0
SPLINE
  5
124
100
AcDbEntity
  8
Capa_1
 62
7
100
AcDbSpline
 70
8
 71
3
 72
8
 73
4
 74
0
 40
0
 40
0
 40
0
 40
0
 40
1
 40
1
 40
1
 40
1
 10
-224.149163
 20
-52.017711
 30
0.0
 10
-224.012737
 20
-52.143005
 30
0.0
 10
-218.721878
 20
-55.263593
 30
0.0
 10
-212.391741
 20
-58.952189
 30
0.0
  0
LWPOLYLINE
  5
125
100
AcDbEntity
  8
Capa_1
 62
7
100
AcDbPolyline
 90
3
 70
0
 10
-223.256194
 20
-23.896955
 30
0.0
 10
-224.397210
 20
-24.399637
 30
0.0
 10
-224.397210
 20
-38.094543
 30
0.0
  0
SPLINE
  5
126
100
AcDbEntity
  8
Capa_1
 62
7
100
AcDbSpline
 70
8
 71
3
 72
8
 73
4
 74
0
 40
0
 40
0
 40
0
 40
0
 40
1
 40
1
 40
1
 40
1
 10
-201.920671
 20
-77.177423
 30
0.0
 10
-205.857909
 20
-77.080208
 30
0.0
 10
-212.664196
 20
-76.284474
 30
0.0
 10
-217.848396
 20
-75.315524
 30
0.0
  0
SPLINE
  5
127
100
AcDbEntity
  8
Capa_1
 62
7
100
AcDbSpline
 70
8
 71
3
 72
8
 73
4
 74
0
 40
0
 40
0
 40
0
 40
0
 40
1
 40
1
 40
1
 40
1
 10
-217.848396
 20
-75.315524
 30
0.0
 10
-240.072582
 20
-71.161711
 30
0.0
 10
-260.470905
 20
-60.531493
 30
0.0
 10
-276.657967
 20
-44.667388
 30
0.0
  0
SPLINE
  5
128
100
AcDbEntity
  8
Capa_1
 62
7
100
AcDbSpline
 70
8
 71
3
 72
8
 73
4
 74
0
 40
0
 40
0
 40
0
 40
0
 40
1
 40
1
 40
1
 40
1
 10
-276.657967
 20
-44.667388
 30
0.0
 10
-281.462437
 20
-39.958803
 30
0.0
 10
-284.989901
 20
-35.942825
 30
0.0
 10
-288.689014
 20
-30.969783
 30
0.0
  0
SPLINE
  5
129
100
AcDbEntity
  8
Capa_1
 62
7
100
AcDbSpline
 70
8
 71
3
 72
8
 73
4
 74
0
 40
0
 40
0
 40
0
 40
0
 40
1
 40
1
 40
1
 40
1
 10
-288.689014
 20
-30.969783
 30
0.0
 10
-297.824204
 20
-18.688546
 30
0.0
 10
-304.412468
 20
-4.679454
 30
0.0
 10
-308.007222
 20
10.106779
 30
0.0
  0
SPLINE
  5
12a
100
AcDbEntity
  8
Capa_1
 62
7
100
AcDbSpline
 70
8
 71
3
 72
8
 73
4
 74
0
 40
0
 40
0
 40
0
 40
0
 40
1
 40
1
 40
1
 40
1
 10
-308.007222
 20
10.106779
 30
0.0
 10
-314.406673
 20
36.429660
 30
0.0
 10
-311.297872
 20
64.272397
 30
0.0
 10
-299.277917
 20
88.286890
 30
0.0
  0
SPLINE
  5
12b
100
AcDbEntity
  8
Capa_1
 62
7
100
AcDbSpline
 70
8
 71
3
 72
8
 73
4
 74
0
 40
0
 40
0
 40
0
 40
0
 40
1
 40
1
 40
1
 40
1
 10
-299.277917
 20
88.286890
 30
0.0
 10
-298.375344
 20
90.090169
 30
0.0
 10
-297.554150
 20
91.688135
 30
0.0
 10
-297.452828
 20
91.838225
 30
0.0
  0
SPLINE
  5
12c
100
AcDbEntity
  8
Capa_1
 62
7
100
AcDbSpline
 70
8
 71
3
 72
8
 73
4
 74
0
 40
0
 40
0
 40
0
 40
0
 40
1
 40
1
 40
1
 40
1
 10
-297.452828
 20
91.838225
 30
0.0
 10
-297.434770
 20
91.864933
 30
0.0
 10
-297.401869
 20
91.878806
 30
0.0
 10
-297.351288
 20
91.877371
 30
0.0
  0
LWPOLYLINE
  5
12d
100
AcDbEntity
  8
Capa_1
 62
7
100
AcDbPolyline
 90
5
 70
0
 10
-212.391741
 20
-58.952189
 30
0.0
 10
-200.882367
 20
-65.658741
 30
0.0
 10
-200.829662
 20
-71.432042
 30
0.0
 10
-200.776957
 20
-77.205720
 30
0.0
 10
-201.920671
 20
-77.177423
 30
0.0
  0
LWPOLYLINE
  5
12e
100
AcDbEntity
  8
Capa_1
 62
7
100
AcDbPolyline
 90
2
 70
0
 10
-297.351288
 20
91.877371
 30
0.0
 10
-297.350454
 20
91.877371
 30
0.0
  0
ENDSEC
  0
SECTION
  2
OBJECTS
  0
DICTIONARY
  5
C
330
0
100
AcDbDictionary
  3
ACAD_GROUP
350
D
  3
ACAD_MLINESTYLE
350
17
  0
DICTIONARY
  5
D
330
C
100
AcDbDictionary
  0
DICTIONARY
  5
1A
330
C
100
AcDbDictionary
  0
DICTIONARY
  5
17
330
C
100
AcDbDictionary
  3
STANDARD
350
18
  0
DICTIONARY
  5
19
330
C
100
AcDbDictionary
  0
ENDSEC
  0
EOF
