0
SECTION
2
HEADER
9
$INSUNITS
70
4
9
$ACADVER
1
AC1014
9
$HANDSEED
5
FFFF
0
ENDSEC
0
SECTION
2
TABLES
0
TABLE
2
VPORT
5
8
100
AcDbSymbolTable
0
ENDTAB
0
TABLE
2
LTYPE
5
5
100
AcDbSymbolTable
0
LTYPE
5
14
100
AcDbSymbolTableRecord
100
AcDbLinetypeTableRecord
2
BYBLOCK
70
0
0
LTYPE
5
15
100
AcDbSymbolTableRecord
100
AcDbLinetypeTableRecord
2
BYLAYER
70
0
0
ENDTAB
0
TABLE
2
LAYER
5
2
100
AcDbSymbolTable
70
2
0
LAYER
5
50
100
AcDbSymbolTableRecord
100
AcDbLayerTableRecord
2
0
70
0
6
CONTINUOUS
0
ENDTAB
0
TABLE
2
STYLE
5
3
100
AcDbSymbolTable
70
1
0
STYLE
5
11
100
AcDbSymbolTableRecord
100
AcDbTextStyleTableRecord
2
STANDARD
70
0
0
ENDTAB
0
TABLE
2
VIEW
5
6
100
AcDbSymbolTable
70
0
0
ENDTAB
0
TABLE
2
UCS
5
7
100
AcDbSymbolTable
70
0
0
ENDTAB
0
TABLE
2
APPID
5
9
100
AcDbSymbolTable
70
2
0
APPID
5
12
100
AcDbSymbolTableRecord
100
AcDbRegAppTableRecord
2
ACAD
70
0
0
ENDTAB
0
TABLE
2
DIMSTYLE
5
A
100
AcDbSymbolTable
70
1
0
ENDTAB
0
TABLE
2
BLOCK_RECORD
5
1
100
AcDbSymbolTable
70
1
0
BLOCK_RECORD
5
1F
100
AcDbSymbolTableRecord
100
AcDbBlockTableRecord
2
*MODEL_SPACE
0
BLOCK_RECORD
5
1B
100
AcDbSymbolTableRecord
100
AcDbBlockTableRecord
2
*PAPER_SPACE
0
ENDTAB
0
ENDSEC
0
SECTION
2
BLOCKS
0
BLOCK
5
20
100
AcDbEntity
100
AcDbBlockBegin
2
*MODEL_SPACE
0
ENDBLK
5
21
100
AcDbEntity
100
AcDbBlockEnd
0
BLOCK
5
1C
100
AcDbEntity
100
AcDbBlockBegin
2
*PAPER_SPACE
0
ENDBLK
5
1D
100
AcDbEntity
100
AcDbBlockEnd
0
ENDSEC
0
SECTION
2
ENTITIES
0
LINE
5
100
100
AcDbEntity
8
0
100
AcDbLine
10
5.953129894791668
20
-5.953129894791668
30
0
11
13.921886446875003
21
-5.953129894791668
31
0
0
LINE
5
101
100
AcDbEntity
8
0
100
AcDbLine
10
13.921886446875003
20
-5.953129894791668
30
0
11
13.921886446875003
21
-8.7656322072916666
31
0
0
LINE
5
102
100
AcDbEntity
8
0
100
AcDbLine
10
13.921886446875003
20
-8.7656322072916666
30
0
11
21.890642998958334
21
-8.7656322072916666
31
0
0
LINE
5
103
100
AcDbEntity
8
0
100
AcDbLine
10
21.890642998958334
20
-8.7656322072916666
30
0
11
21.890642998958334
21
-5.9531298947916671
31
0
0
LINE
5
104
100
AcDbEntity
8
0
100
AcDbLine
10
21.890642998958334
20
-5.9531298947916671
30
0
11
27.515647623958333
21
-5.953129894791668
31
0
0
LINE
5
105
100
AcDbEntity
8
0
100
AcDbLine
10
27.515647623958333
20
-5.953129894791668
30
0
11
27.515647623958333
21
-8.7656322072916666
31
0
0
LINE
5
106
100
AcDbEntity
8
0
100
AcDbLine
10
27.515647623958333
20
-8.7656322072916666
30
0
11
33.140652248958332
21
-8.7656322072916666
31
0
0
LINE
5
107
100
AcDbEntity
8
0
100
AcDbLine
10
33.140652248958332
20
-8.7656322072916666
30
0
11
33.140652248958339
21
-5.9531298947916671
31
0
0
LINE
5
108
100
AcDbEntity
8
0
100
AcDbLine
10
33.140652248958339
20
-5.9531298947916671
30
0
11
38.765656873958342
21
-5.953129894791668
31
0
0
LINE
5
109
100
AcDbEntity
8
0
100
AcDbLine
10
38.765656873958342
20
-5.953129894791668
30
0
11
38.765656873958342
21
-8.7656322072916666
31
0
0
LINE
5
110
100
AcDbEntity
8
0
100
AcDbLine
10
38.765656873958342
20
-8.7656322072916666
30
0
11
44.390661498958352
21
-8.7656322072916666
31
0
0
LINE
5
111
100
AcDbEntity
8
0
100
AcDbLine
10
44.390661498958352
20
-8.7656322072916666
30
0
11
44.390661498958337
21
-5.9531298947916671
31
0
0
LINE
5
112
100
AcDbEntity
8
0
100
AcDbLine
10
44.390661498958337
20
-5.9531298947916671
30
0
11
50.01566612395834
21
-5.953129894791668
31
0
0
LINE
5
113
100
AcDbEntity
8
0
100
AcDbLine
10
50.01566612395834
20
-5.953129894791668
30
0
11
50.015666123958347
21
-8.7656322072916666
31
0
0
LINE
5
114
100
AcDbEntity
8
0
100
AcDbLine
10
50.015666123958347
20
-8.7656322072916666
30
0
11
55.640670748958343
21
-8.7656322072916666
31
0
0
LINE
5
115
100
AcDbEntity
8
0
100
AcDbLine
10
55.640670748958343
20
-8.7656322072916666
30
0
11
55.640670748958343
21
-5.9531298947916671
31
0
0
LINE
5
116
100
AcDbEntity
8
0
100
AcDbLine
10
55.640670748958343
20
-5.9531298947916671
30
0
11
61.265675373958345
21
-5.953129894791668
31
0
0
LINE
5
117
100
AcDbEntity
8
0
100
AcDbLine
10
61.265675373958345
20
-5.953129894791668
30
0
11
61.265675373958345
21
-8.7656322072916666
31
0
0
LINE
5
118
100
AcDbEntity
8
0
100
AcDbLine
10
61.265675373958345
20
-8.7656322072916666
30
0
11
66.890679998958348
21
-8.7656322072916666
31
0
0
LINE
5
119
100
AcDbEntity
8
0
100
AcDbLine
10
66.890679998958348
20
-8.7656322072916666
30
0
11
66.890679998958348
21
-5.9531298947916671
31
0
0
LINE
5
120
100
AcDbEntity
8
0
100
AcDbLine
10
66.890679998958348
20
-5.9531298947916671
30
0
11
72.515684623958336
21
-5.953129894791668
31
0
0
LINE
5
121
100
AcDbEntity
8
0
100
AcDbLine
10
72.515684623958336
20
-5.953129894791668
30
0
11
72.515684623958336
21
-8.7656322072916666
31
0
0
LINE
5
122
100
AcDbEntity
8
0
100
AcDbLine
10
72.515684623958336
20
-8.7656322072916666
30
0
11
78.140689248958353
21
-8.7656322072916666
31
0
0
LINE
5
123
100
AcDbEntity
8
0
100
AcDbLine
10
78.140689248958353
20
-8.7656322072916666
30
0
11
78.140689248958353
21
-5.9531298947916671
31
0
0
LINE
5
124
100
AcDbEntity
8
0
100
AcDbLine
10
78.140689248958353
20
-5.9531298947916671
30
0
11
83.765693873958355
21
-5.953129894791668
31
0
0
LINE
5
125
100
AcDbEntity
8
0
100
AcDbLine
10
83.765693873958355
20
-5.953129894791668
30
0
11
83.765693873958355
21
-8.7656322072916666
31
0
0
LINE
5
126
100
AcDbEntity
8
0
100
AcDbLine
10
83.765693873958355
20
-8.7656322072916666
30
0
11
89.390698498958358
21
-8.7656322072916666
31
0
0
LINE
5
127
100
AcDbEntity
8
0
100
AcDbLine
10
89.390698498958358
20
-8.7656322072916666
30
0
11
89.390698498958329
21
-5.9531298947916671
31
0
0
LINE
5
128
100
AcDbEntity
8
0
100
AcDbLine
10
89.390698498958329
20
-5.9531298947916671
30
0
11
95.015703123958346
21
-5.953129894791668
31
0
0
LINE
5
129
100
AcDbEntity
8
0
100
AcDbLine
10
95.015703123958346
20
-5.953129894791668
30
0
11
95.015703123958346
21
-8.7656322072916666
31
0
0
LINE
5
130
100
AcDbEntity
8
0
100
AcDbLine
10
95.015703123958346
20
-8.7656322072916666
30
0
11
100.64070774895836
21
-8.7656322072916666
31
0
0
LINE
5
131
100
AcDbEntity
8
0
100
AcDbLine
10
100.64070774895836
20
-8.7656322072916666
30
0
11
100.64070774895833
21
-5.9531298947916671
31
0
0
LINE
5
132
100
AcDbEntity
8
0
100
AcDbLine
10
100.64070774895833
20
-5.9531298947916671
30
0
11
106.26571237395835
21
-5.953129894791668
31
0
0
LINE
5
133
100
AcDbEntity
8
0
100
AcDbLine
10
106.26571237395835
20
-5.953129894791668
30
0
11
106.26571237395835
21
-8.7656322072916666
31
0
0
LINE
5
134
100
AcDbEntity
8
0
100
AcDbLine
10
106.26571237395835
20
-8.7656322072916666
30
0
11
111.89071699895835
21
-8.7656322072916666
31
0
0
LINE
5
135
100
AcDbEntity
8
0
100
AcDbLine
10
111.89071699895835
20
-8.7656322072916666
30
0
11
111.89071699895835
21
-5.9531298947916671
31
0
0
LINE
5
136
100
AcDbEntity
8
0
100
AcDbLine
10
111.89071699895835
20
-5.9531298947916671
30
0
11
117.51572162395837
21
-5.953129894791668
31
0
0
LINE
5
137
100
AcDbEntity
8
0
100
AcDbLine
10
117.51572162395837
20
-5.953129894791668
30
0
11
117.51572162395834
21
-8.7656322072916666
31
0
0
LINE
5
138
100
AcDbEntity
8
0
100
AcDbLine
10
117.51572162395834
20
-8.7656322072916666
30
0
11
123.14072624895836
21
-8.7656322072916666
31
0
0
LINE
5
139
100
AcDbEntity
8
0
100
AcDbLine
10
123.14072624895836
20
-8.7656322072916666
30
0
11
123.14072624895836
21
-5.9531298947916671
31
0
0
LINE
5
140
100
AcDbEntity
8
0
100
AcDbLine
10
123.14072624895836
20
-5.9531298947916671
30
0
11
128.76573087395838
21
-5.953129894791668
31
0
0
LINE
5
141
100
AcDbEntity
8
0
100
AcDbLine
10
128.76573087395838
20
-5.953129894791668
30
0
11
128.76573087395835
21
-8.7656322072916666
31
0
0
LINE
5
142
100
AcDbEntity
8
0
100
AcDbLine
10
128.76573087395835
20
-8.7656322072916666
30
0
11
134.39073549895835
21
-8.7656322072916666
31
0
0
LINE
5
143
100
AcDbEntity
8
0
100
AcDbLine
10
134.39073549895835
20
-8.7656322072916666
30
0
11
134.39073549895835
21
-5.9531298947916671
31
0
0
LINE
5
144
100
AcDbEntity
8
0
100
AcDbLine
10
134.39073549895835
20
-5.9531298947916671
30
0
11
140.01574012395835
21
-5.953129894791668
31
0
0
LINE
5
145
100
AcDbEntity
8
0
100
AcDbLine
10
140.01574012395835
20
-5.953129894791668
30
0
11
140.01574012395832
21
-8.7656322072916666
31
0
0
LINE
5
146
100
AcDbEntity
8
0
100
AcDbLine
10
140.01574012395832
20
-8.7656322072916666
30
0
11
147.98449667604169
21
-8.7656322072916666
31
0
0
LINE
5
147
100
AcDbEntity
8
0
100
AcDbLine
10
147.98449667604169
20
-8.7656322072916666
30
0
11
147.98449667604169
21
-5.9531298947916671
31
0
0
LINE
5
148
100
AcDbEntity
8
0
100
AcDbLine
10
147.98449667604169
20
-5.9531298947916671
30
0
11
155.95325322812502
21
-5.953129894791668
31
0
0
LINE
5
149
100
AcDbEntity
8
0
100
AcDbLine
10
155.95325322812502
20
-5.953129894791668
30
0
11
155.95325322812502
21
-14.859387217708338
31
0
0
LINE
5
150
100
AcDbEntity
8
0
100
AcDbLine
10
155.95325322812502
20
-14.859387217708338
30
0
11
153.14075091562503
21
-14.859387217708335
31
0
0
LINE
5
151
100
AcDbEntity
8
0
100
AcDbLine
10
153.14075091562503
20
-14.859387217708335
30
0
11
153.14075091562503
21
-23.765644540625004
31
0
0
LINE
5
152
100
AcDbEntity
8
0
100
AcDbLine
10
153.14075091562503
20
-23.765644540625004
30
0
11
155.95325322812502
21
-23.765644540625001
31
0
0
LINE
5
153
100
AcDbEntity
8
0
100
AcDbLine
10
155.95325322812502
20
-23.765644540625001
30
0
11
155.95325322812502
21
-29.390649165625003
31
0
0
LINE
5
154
100
AcDbEntity
8
0
100
AcDbLine
10
155.95325322812502
20
-29.390649165625003
30
0
11
153.14075091562503
21
-29.390649165625003
31
0
0
LINE
5
155
100
AcDbEntity
8
0
100
AcDbLine
10
153.14075091562503
20
-29.390649165625003
30
0
11
153.14075091562503
21
-35.015653790625009
31
0
0
LINE
5
156
100
AcDbEntity
8
0
100
AcDbLine
10
153.14075091562503
20
-35.015653790625009
30
0
11
155.95325322812502
21
-35.015653790625009
31
0
0
LINE
5
157
100
AcDbEntity
8
0
100
AcDbLine
10
155.95325322812502
20
-35.015653790625009
30
0
11
155.95325322812502
21
-40.640658415624998
31
0
0
LINE
5
158
100
AcDbEntity
8
0
100
AcDbLine
10
155.95325322812502
20
-40.640658415624998
30
0
11
153.14075091562503
21
-40.640658415625012
31
0
0
LINE
5
159
100
AcDbEntity
8
0
100
AcDbLine
10
153.14075091562503
20
-40.640658415625012
30
0
11
153.14075091562503
21
-46.265663040625007
31
0
0
LINE
5
160
100
AcDbEntity
8
0
100
AcDbLine
10
153.14075091562503
20
-46.265663040625007
30
0
11
155.95325322812502
21
-46.265663040625007
31
0
0
LINE
5
161
100
AcDbEntity
8
0
100
AcDbLine
10
155.95325322812502
20
-46.265663040625007
30
0
11
155.95325322812502
21
-51.89066766562501
31
0
0
LINE
5
162
100
AcDbEntity
8
0
100
AcDbLine
10
155.95325322812502
20
-51.89066766562501
30
0
11
153.14075091562503
21
-51.89066766562501
31
0
0
LINE
5
163
100
AcDbEntity
8
0
100
AcDbLine
10
153.14075091562503
20
-51.89066766562501
30
0
11
153.14075091562503
21
-57.515672290625012
31
0
0
LINE
5
164
100
AcDbEntity
8
0
100
AcDbLine
10
153.14075091562503
20
-57.515672290625012
30
0
11
155.95325322812502
21
-57.515672290625012
31
0
0
LINE
5
165
100
AcDbEntity
8
0
100
AcDbLine
10
155.95325322812502
20
-57.515672290625012
30
0
11
155.95325322812502
21
-63.140676915625008
31
0
0
LINE
5
166
100
AcDbEntity
8
0
100
AcDbLine
10
155.95325322812502
20
-63.140676915625008
30
0
11
153.14075091562503
21
-63.140676915625008
31
0
0
LINE
5
167
100
AcDbEntity
8
0
100
AcDbLine
10
153.14075091562503
20
-63.140676915625008
30
0
11
153.14075091562503
21
-72.046934238541681
31
0
0
LINE
5
168
100
AcDbEntity
8
0
100
AcDbLine
10
153.14075091562503
20
-72.046934238541681
30
0
11
155.95325322812502
21
-72.046934238541681
31
0
0
LINE
5
169
100
AcDbEntity
8
0
100
AcDbLine
10
155.95325322812502
20
-72.046934238541681
30
0
11
155.95325322812505
21
-80.95319156145834
31
0
0
LINE
5
170
100
AcDbEntity
8
0
100
AcDbLine
10
155.95325322812505
20
-80.95319156145834
30
0
11
147.98449667604169
21
-80.95319156145834
31
0
0
LINE
5
171
100
AcDbEntity
8
0
100
AcDbLine
10
147.98449667604169
20
-80.95319156145834
30
0
11
147.98449667604169
21
-78.140689248958338
31
0
0
LINE
5
172
100
AcDbEntity
8
0
100
AcDbLine
10
147.98449667604169
20
-78.140689248958338
30
0
11
140.01574012395832
21
-78.140689248958338
31
0
0
LINE
5
173
100
AcDbEntity
8
0
100
AcDbLine
10
140.01574012395832
20
-78.140689248958338
30
0
11
140.01574012395832
21
-80.95319156145834
31
0
0
LINE
5
174
100
AcDbEntity
8
0
100
AcDbLine
10
140.01574012395832
20
-80.95319156145834
30
0
11
134.39073549895835
21
-80.95319156145834
31
0
0
LINE
5
175
100
AcDbEntity
8
0
100
AcDbLine
10
134.39073549895835
20
-80.95319156145834
30
0
11
134.39073549895835
21
-78.140689248958338
31
0
0
LINE
5
176
100
AcDbEntity
8
0
100
AcDbLine
10
134.39073549895835
20
-78.140689248958338
30
0
11
128.76573087395835
21
-78.140689248958338
31
0
0
LINE
5
177
100
AcDbEntity
8
0
100
AcDbLine
10
128.76573087395835
20
-78.140689248958338
30
0
11
128.76573087395835
21
-80.95319156145834
31
0
0
LINE
5
178
100
AcDbEntity
8
0
100
AcDbLine
10
128.76573087395835
20
-80.95319156145834
30
0
11
123.14072624895834
21
-80.95319156145834
31
0
0
LINE
5
179
100
AcDbEntity
8
0
100
AcDbLine
10
123.14072624895834
20
-80.95319156145834
30
0
11
123.14072624895836
21
-78.140689248958338
31
0
0
LINE
5
180
100
AcDbEntity
8
0
100
AcDbLine
10
123.14072624895836
20
-78.140689248958338
30
0
11
117.51572162395834
21
-78.140689248958338
31
0
0
LINE
5
181
100
AcDbEntity
8
0
100
AcDbLine
10
117.51572162395834
20
-78.140689248958338
30
0
11
117.51572162395834
21
-80.95319156145834
31
0
0
LINE
5
182
100
AcDbEntity
8
0
100
AcDbLine
10
117.51572162395834
20
-80.95319156145834
30
0
11
111.89071699895834
21
-80.95319156145834
31
0
0
LINE
5
183
100
AcDbEntity
8
0
100
AcDbLine
10
111.89071699895834
20
-80.95319156145834
30
0
11
111.89071699895835
21
-78.140689248958338
31
0
0
LINE
5
184
100
AcDbEntity
8
0
100
AcDbLine
10
111.89071699895835
20
-78.140689248958338
30
0
11
106.26571237395835
21
-78.140689248958338
31
0
0
LINE
5
185
100
AcDbEntity
8
0
100
AcDbLine
10
106.26571237395835
20
-78.140689248958338
30
0
11
106.26571237395835
21
-80.95319156145834
31
0
0
LINE
5
186
100
AcDbEntity
8
0
100
AcDbLine
10
106.26571237395835
20
-80.95319156145834
30
0
11
100.64070774895833
21
-80.95319156145834
31
0
0
LINE
5
187
100
AcDbEntity
8
0
100
AcDbLine
10
100.64070774895833
20
-80.95319156145834
30
0
11
100.64070774895833
21
-78.140689248958338
31
0
0
LINE
5
188
100
AcDbEntity
8
0
100
AcDbLine
10
100.64070774895833
20
-78.140689248958338
30
0
11
95.015703123958332
21
-78.140689248958338
31
0
0
LINE
5
189
100
AcDbEntity
8
0
100
AcDbLine
10
95.015703123958332
20
-78.140689248958338
30
0
11
95.015703123958346
21
-80.95319156145834
31
0
0
LINE
5
190
100
AcDbEntity
8
0
100
AcDbLine
10
95.015703123958346
20
-80.95319156145834
30
0
11
89.390698498958329
21
-80.95319156145834
31
0
0
LINE
5
191
100
AcDbEntity
8
0
100
AcDbLine
10
89.390698498958329
20
-80.95319156145834
30
0
11
89.390698498958329
21
-78.140689248958338
31
0
0
LINE
5
192
100
AcDbEntity
8
0
100
AcDbLine
10
89.390698498958329
20
-78.140689248958338
30
0
11
83.765693873958341
21
-78.140689248958338
31
0
0
LINE
5
193
100
AcDbEntity
8
0
100
AcDbLine
10
83.765693873958341
20
-78.140689248958338
30
0
11
83.765693873958355
21
-80.95319156145834
31
0
0
LINE
5
194
100
AcDbEntity
8
0
100
AcDbLine
10
83.765693873958355
20
-80.95319156145834
30
0
11
78.140689248958367
21
-80.95319156145834
31
0
0
LINE
5
195
100
AcDbEntity
8
0
100
AcDbLine
10
78.140689248958367
20
-80.95319156145834
30
0
11
78.140689248958353
21
-78.140689248958338
31
0
0
LINE
5
196
100
AcDbEntity
8
0
100
AcDbLine
10
78.140689248958353
20
-78.140689248958338
30
0
11
72.515684623958336
21
-78.140689248958338
31
0
0
LINE
5
197
100
AcDbEntity
8
0
100
AcDbLine
10
72.515684623958336
20
-78.140689248958338
30
0
11
72.515684623958336
21
-80.95319156145834
31
0
0
LINE
5
198
100
AcDbEntity
8
0
100
AcDbLine
10
72.515684623958336
20
-80.95319156145834
30
0
11
66.890679998958348
21
-80.95319156145834
31
0
0
LINE
5
199
100
AcDbEntity
8
0
100
AcDbLine
10
66.890679998958348
20
-80.95319156145834
30
0
11
66.890679998958348
21
-78.140689248958338
31
0
0
LINE
5
200
100
AcDbEntity
8
0
100
AcDbLine
10
66.890679998958348
20
-78.140689248958338
30
0
11
61.265675373958345
21
-78.140689248958338
31
0
0
LINE
5
201
100
AcDbEntity
8
0
100
AcDbLine
10
61.265675373958345
20
-78.140689248958338
30
0
11
61.265675373958345
21
-80.95319156145834
31
0
0
LINE
5
202
100
AcDbEntity
8
0
100
AcDbLine
10
61.265675373958345
20
-80.95319156145834
30
0
11
55.640670748958343
21
-80.95319156145834
31
0
0
LINE
5
203
100
AcDbEntity
8
0
100
AcDbLine
10
55.640670748958343
20
-80.95319156145834
30
0
11
55.640670748958343
21
-78.140689248958338
31
0
0
LINE
5
204
100
AcDbEntity
8
0
100
AcDbLine
10
55.640670748958343
20
-78.140689248958338
30
0
11
50.015666123958347
21
-78.140689248958338
31
0
0
LINE
5
205
100
AcDbEntity
8
0
100
AcDbLine
10
50.015666123958347
20
-78.140689248958338
30
0
11
50.015666123958347
21
-80.95319156145834
31
0
0
LINE
5
206
100
AcDbEntity
8
0
100
AcDbLine
10
50.015666123958347
20
-80.95319156145834
30
0
11
44.390661498958352
21
-80.95319156145834
31
0
0
LINE
5
207
100
AcDbEntity
8
0
100
AcDbLine
10
44.390661498958352
20
-80.95319156145834
30
0
11
44.390661498958337
21
-78.140689248958338
31
0
0
LINE
5
208
100
AcDbEntity
8
0
100
AcDbLine
10
44.390661498958337
20
-78.140689248958338
30
0
11
38.765656873958335
21
-78.140689248958338
31
0
0
LINE
5
209
100
AcDbEntity
8
0
100
AcDbLine
10
38.765656873958335
20
-78.140689248958338
30
0
11
38.765656873958342
21
-80.95319156145834
31
0
0
LINE
5
210
100
AcDbEntity
8
0
100
AcDbLine
10
38.765656873958342
20
-80.95319156145834
30
0
11
33.140652248958339
21
-80.95319156145834
31
0
0
LINE
5
211
100
AcDbEntity
8
0
100
AcDbLine
10
33.140652248958339
20
-80.95319156145834
30
0
11
33.140652248958339
21
-78.140689248958338
31
0
0
LINE
5
212
100
AcDbEntity
8
0
100
AcDbLine
10
33.140652248958339
20
-78.140689248958338
30
0
11
27.515647623958337
21
-78.140689248958338
31
0
0
LINE
5
213
100
AcDbEntity
8
0
100
AcDbLine
10
27.515647623958337
20
-78.140689248958338
30
0
11
27.515647623958333
21
-80.95319156145834
31
0
0
LINE
5
214
100
AcDbEntity
8
0
100
AcDbLine
10
27.515647623958333
20
-80.95319156145834
30
0
11
21.890642998958334
21
-80.95319156145834
31
0
0
LINE
5
215
100
AcDbEntity
8
0
100
AcDbLine
10
21.890642998958334
20
-80.95319156145834
30
0
11
21.890642998958334
21
-78.140689248958338
31
0
0
LINE
5
216
100
AcDbEntity
8
0
100
AcDbLine
10
21.890642998958334
20
-78.140689248958338
30
0
11
13.921886446875003
21
-78.140689248958338
31
0
0
LINE
5
217
100
AcDbEntity
8
0
100
AcDbLine
10
13.921886446875003
20
-78.140689248958338
30
0
11
13.921886446875003
21
-80.95319156145834
31
0
0
LINE
5
218
100
AcDbEntity
8
0
100
AcDbLine
10
13.921886446875003
20
-80.95319156145834
30
0
11
5.9531298947916689
21
-80.95319156145834
31
0
0
LINE
5
219
100
AcDbEntity
8
0
100
AcDbLine
10
5.9531298947916689
20
-80.95319156145834
30
0
11
5.953129894791668
21
-72.046934238541681
31
0
0
LINE
5
220
100
AcDbEntity
8
0
100
AcDbLine
10
5.953129894791668
20
-72.046934238541681
30
0
11
8.7656322072916666
21
-72.046934238541681
31
0
0
LINE
5
221
100
AcDbEntity
8
0
100
AcDbLine
10
8.7656322072916666
20
-72.046934238541681
30
0
11
8.7656322072916666
21
-63.140676915625008
31
0
0
LINE
5
222
100
AcDbEntity
8
0
100
AcDbLine
10
8.7656322072916666
20
-63.140676915625008
30
0
11
5.9531298947916671
21
-63.140676915625008
31
0
0
LINE
5
223
100
AcDbEntity
8
0
100
AcDbLine
10
5.9531298947916671
20
-63.140676915625008
30
0
11
5.953129894791668
21
-57.515672290625012
31
0
0
LINE
5
224
100
AcDbEntity
8
0
100
AcDbLine
10
5.953129894791668
20
-57.515672290625012
30
0
11
8.7656322072916666
21
-57.515672290625012
31
0
0
LINE
5
225
100
AcDbEntity
8
0
100
AcDbLine
10
8.7656322072916666
20
-57.515672290625012
30
0
11
8.7656322072916666
21
-51.89066766562501
31
0
0
LINE
5
226
100
AcDbEntity
8
0
100
AcDbLine
10
8.7656322072916666
20
-51.89066766562501
30
0
11
5.9531298947916671
21
-51.89066766562501
31
0
0
LINE
5
227
100
AcDbEntity
8
0
100
AcDbLine
10
5.9531298947916671
20
-51.89066766562501
30
0
11
5.953129894791668
21
-46.265663040625007
31
0
0
LINE
5
228
100
AcDbEntity
8
0
100
AcDbLine
10
5.953129894791668
20
-46.265663040625007
30
0
11
8.7656322072916666
21
-46.265663040625007
31
0
0
LINE
5
229
100
AcDbEntity
8
0
100
AcDbLine
10
8.7656322072916666
20
-46.265663040625007
30
0
11
8.7656322072916666
21
-40.640658415625012
31
0
0
LINE
5
230
100
AcDbEntity
8
0
100
AcDbLine
10
8.7656322072916666
20
-40.640658415625012
30
0
11
5.9531298947916671
21
-40.640658415625012
31
0
0
LINE
5
231
100
AcDbEntity
8
0
100
AcDbLine
10
5.9531298947916671
20
-40.640658415625012
30
0
11
5.953129894791668
21
-35.015653790625016
31
0
0
LINE
5
232
100
AcDbEntity
8
0
100
AcDbLine
10
5.953129894791668
20
-35.015653790625016
30
0
11
8.7656322072916666
21
-35.015653790625009
31
0
0
LINE
5
233
100
AcDbEntity
8
0
100
AcDbLine
10
8.7656322072916666
20
-35.015653790625009
30
0
11
8.7656322072916666
21
-29.390649165625003
31
0
0
LINE
5
234
100
AcDbEntity
8
0
100
AcDbLine
10
8.7656322072916666
20
-29.390649165625003
30
0
11
5.9531298947916671
21
-29.390649165625003
31
0
0
LINE
5
235
100
AcDbEntity
8
0
100
AcDbLine
10
5.9531298947916671
20
-29.390649165625003
30
0
11
5.953129894791668
21
-23.765644540625001
31
0
0
LINE
5
236
100
AcDbEntity
8
0
100
AcDbLine
10
5.953129894791668
20
-23.765644540625001
30
0
11
8.7656322072916666
21
-23.765644540625001
31
0
0
LINE
5
237
100
AcDbEntity
8
0
100
AcDbLine
10
8.7656322072916666
20
-23.765644540625001
30
0
11
8.7656322072916666
21
-14.859387217708333
31
0
0
LINE
5
238
100
AcDbEntity
8
0
100
AcDbLine
10
8.7656322072916666
20
-14.859387217708333
30
0
11
5.9531298947916671
21
-14.859387217708335
31
0
0
LINE
5
239
100
AcDbEntity
8
0
100
AcDbLine
10
5.9531298947916671
20
-14.859387217708335
30
0
11
5.953129894791668
21
-5.953129894791668
31
0
0
LINE
5
240
100
AcDbEntity
8
0
100
AcDbLine
10
155.95325322812502
20
-5.953129894791668
30
0
11
163.92200978020836
21
-5.953129894791668
31
0
0
LINE
5
241
100
AcDbEntity
8
0
100
AcDbLine
10
163.92200978020836
20
-5.953129894791668
30
0
11
163.92200978020836
21
-8.7656322072916666
31
0
0
LINE
5
242
100
AcDbEntity
8
0
100
AcDbLine
10
163.92200978020836
20
-8.7656322072916666
30
0
11
171.89076633229166
21
-8.7656322072916666
31
0
0
LINE
5
243
100
AcDbEntity
8
0
100
AcDbLine
10
171.89076633229166
20
-8.7656322072916666
30
0
11
171.89076633229166
21
-5.9531298947916671
31
0
0
LINE
5
244
100
AcDbEntity
8
0
100
AcDbLine
10
171.89076633229166
20
-5.9531298947916671
30
0
11
177.51577095729169
21
-5.953129894791668
31
0
0
LINE
5
245
100
AcDbEntity
8
0
100
AcDbLine
10
177.51577095729169
20
-5.953129894791668
30
0
11
177.51577095729169
21
-8.7656322072916666
31
0
0
LINE
5
246
100
AcDbEntity
8
0
100
AcDbLine
10
177.51577095729169
20
-8.7656322072916666
30
0
11
183.1407755822917
21
-8.7656322072916666
31
0
0
LINE
5
247
100
AcDbEntity
8
0
100
AcDbLine
10
183.1407755822917
20
-8.7656322072916666
30
0
11
183.1407755822917
21
-5.9531298947916671
31
0
0
LINE
5
248
100
AcDbEntity
8
0
100
AcDbLine
10
183.1407755822917
20
-5.9531298947916671
30
0
11
188.7657802072917
21
-5.953129894791668
31
0
0
LINE
5
249
100
AcDbEntity
8
0
100
AcDbLine
10
188.7657802072917
20
-5.953129894791668
30
0
11
188.76578020729167
21
-8.7656322072916666
31
0
0
LINE
5
250
100
AcDbEntity
8
0
100
AcDbLine
10
188.76578020729167
20
-8.7656322072916666
30
0
11
194.39078483229167
21
-8.7656322072916666
31
0
0
LINE
5
251
100
AcDbEntity
8
0
100
AcDbLine
10
194.39078483229167
20
-8.7656322072916666
30
0
11
194.39078483229167
21
-5.9531298947916671
31
0
0
LINE
5
252
100
AcDbEntity
8
0
100
AcDbLine
10
194.39078483229167
20
-5.9531298947916671
30
0
11
200.01578945729167
21
-5.953129894791668
31
0
0
LINE
5
253
100
AcDbEntity
8
0
100
AcDbLine
10
200.01578945729167
20
-5.953129894791668
30
0
11
200.01578945729167
21
-8.7656322072916666
31
0
0
LINE
5
254
100
AcDbEntity
8
0
100
AcDbLine
10
200.01578945729167
20
-8.7656322072916666
30
0
11
205.64079408229168
21
-8.7656322072916666
31
0
0
LINE
5
255
100
AcDbEntity
8
0
100
AcDbLine
10
205.64079408229168
20
-8.7656322072916666
30
0
11
205.64079408229168
21
-5.9531298947916671
31
0
0
LINE
5
256
100
AcDbEntity
8
0
100
AcDbLine
10
205.64079408229168
20
-5.9531298947916671
30
0
11
211.26579870729171
21
-5.953129894791668
31
0
0
LINE
5
257
100
AcDbEntity
8
0
100
AcDbLine
10
211.26579870729171
20
-5.953129894791668
30
0
11
211.26579870729171
21
-8.7656322072916666
31
0
0
LINE
5
258
100
AcDbEntity
8
0
100
AcDbLine
10
211.26579870729171
20
-8.7656322072916666
30
0
11
216.89080333229171
21
-8.7656322072916666
31
0
0
LINE
5
259
100
AcDbEntity
8
0
100
AcDbLine
10
216.89080333229171
20
-8.7656322072916666
30
0
11
216.89080333229168
21
-5.9531298947916671
31
0
0
LINE
5
260
100
AcDbEntity
8
0
100
AcDbLine
10
216.89080333229168
20
-5.9531298947916671
30
0
11
222.51580795729168
21
-5.953129894791668
31
0
0
LINE
5
261
100
AcDbEntity
8
0
100
AcDbLine
10
222.51580795729168
20
-5.953129894791668
30
0
11
222.51580795729168
21
-8.7656322072916666
31
0
0
LINE
5
262
100
AcDbEntity
8
0
100
AcDbLine
10
222.51580795729168
20
-8.7656322072916666
30
0
11
228.14081258229169
21
-8.7656322072916666
31
0
0
LINE
5
263
100
AcDbEntity
8
0
100
AcDbLine
10
228.14081258229169
20
-8.7656322072916666
30
0
11
228.14081258229169
21
-5.9531298947916671
31
0
0
LINE
5
264
100
AcDbEntity
8
0
100
AcDbLine
10
228.14081258229169
20
-5.9531298947916671
30
0
11
233.76581720729172
21
-5.953129894791668
31
0
0
LINE
5
265
100
AcDbEntity
8
0
100
AcDbLine
10
233.76581720729172
20
-5.953129894791668
30
0
11
233.76581720729172
21
-8.7656322072916666
31
0
0
LINE
5
266
100
AcDbEntity
8
0
100
AcDbLine
10
233.76581720729172
20
-8.7656322072916666
30
0
11
239.39082183229172
21
-8.7656322072916666
31
0
0
LINE
5
267
100
AcDbEntity
8
0
100
AcDbLine
10
239.39082183229172
20
-8.7656322072916666
30
0
11
239.39082183229169
21
-5.9531298947916671
31
0
0
LINE
5
268
100
AcDbEntity
8
0
100
AcDbLine
10
239.39082183229169
20
-5.9531298947916671
30
0
11
245.01582645729167
21
-5.953129894791668
31
0
0
LINE
5
269
100
AcDbEntity
8
0
100
AcDbLine
10
245.01582645729167
20
-5.953129894791668
30
0
11
245.01582645729167
21
-8.7656322072916666
31
0
0
LINE
5
270
100
AcDbEntity
8
0
100
AcDbLine
10
245.01582645729167
20
-8.7656322072916666
30
0
11
250.6408310822917
21
-8.7656322072916666
31
0
0
LINE
5
271
100
AcDbEntity
8
0
100
AcDbLine
10
250.6408310822917
20
-8.7656322072916666
30
0
11
250.6408310822917
21
-5.9531298947916671
31
0
0
LINE
5
272
100
AcDbEntity
8
0
100
AcDbLine
10
250.6408310822917
20
-5.9531298947916671
30
0
11
256.26583570729167
21
-5.953129894791668
31
0
0
LINE
5
273
100
AcDbEntity
8
0
100
AcDbLine
10
256.26583570729167
20
-5.953129894791668
30
0
11
256.26583570729167
21
-8.7656322072916666
31
0
0
LINE
5
274
100
AcDbEntity
8
0
100
AcDbLine
10
256.26583570729167
20
-8.7656322072916666
30
0
11
261.8908403322917
21
-8.7656322072916666
31
0
0
LINE
5
275
100
AcDbEntity
8
0
100
AcDbLine
10
261.8908403322917
20
-8.7656322072916666
30
0
11
261.8908403322917
21
-5.9531298947916671
31
0
0
LINE
5
276
100
AcDbEntity
8
0
100
AcDbLine
10
261.8908403322917
20
-5.9531298947916671
30
0
11
267.51584495729168
21
-5.953129894791668
31
0
0
LINE
5
277
100
AcDbEntity
8
0
100
AcDbLine
10
267.51584495729168
20
-5.953129894791668
30
0
11
267.51584495729168
21
-8.7656322072916666
31
0
0
LINE
5
278
100
AcDbEntity
8
0
100
AcDbLine
10
267.51584495729168
20
-8.7656322072916666
30
0
11
273.14084958229171
21
-8.7656322072916666
31
0
0
LINE
5
279
100
AcDbEntity
8
0
100
AcDbLine
10
273.14084958229171
20
-8.7656322072916666
30
0
11
273.14084958229171
21
-5.9531298947916671
31
0
0
LINE
5
280
100
AcDbEntity
8
0
100
AcDbLine
10
273.14084958229171
20
-5.9531298947916671
30
0
11
278.76585420729168
21
-5.953129894791668
31
0
0
LINE
5
281
100
AcDbEntity
8
0
100
AcDbLine
10
278.76585420729168
20
-5.953129894791668
30
0
11
278.76585420729168
21
-8.7656322072916666
31
0
0
LINE
5
282
100
AcDbEntity
8
0
100
AcDbLine
10
278.76585420729168
20
-8.7656322072916666
30
0
11
284.39085883229171
21
-8.7656322072916666
31
0
0
LINE
5
283
100
AcDbEntity
8
0
100
AcDbLine
10
284.39085883229171
20
-8.7656322072916666
30
0
11
284.39085883229171
21
-5.9531298947916671
31
0
0
LINE
5
284
100
AcDbEntity
8
0
100
AcDbLine
10
284.39085883229171
20
-5.9531298947916671
30
0
11
290.01586345729169
21
-5.953129894791668
31
0
0
LINE
5
285
100
AcDbEntity
8
0
100
AcDbLine
10
290.01586345729169
20
-5.953129894791668
30
0
11
290.01586345729169
21
-8.7656322072916666
31
0
0
LINE
5
286
100
AcDbEntity
8
0
100
AcDbLine
10
290.01586345729169
20
-8.7656322072916666
30
0
11
297.98462000937508
21
-8.7656322072916666
31
0
0
LINE
5
287
100
AcDbEntity
8
0
100
AcDbLine
10
297.98462000937508
20
-8.7656322072916666
30
0
11
297.98462000937502
21
-5.9531298947916671
31
0
0
LINE
5
288
100
AcDbEntity
8
0
100
AcDbLine
10
297.98462000937502
20
-5.9531298947916671
30
0
11
305.9533765614583
21
-5.953129894791668
31
0
0
LINE
5
289
100
AcDbEntity
8
0
100
AcDbLine
10
305.9533765614583
20
-5.953129894791668
30
0
11
305.95337656145836
21
-14.859387217708338
31
0
0
LINE
5
290
100
AcDbEntity
8
0
100
AcDbLine
10
305.95337656145836
20
-14.859387217708338
30
0
11
303.14087424895837
21
-14.859387217708335
31
0
0
LINE
5
291
100
AcDbEntity
8
0
100
AcDbLine
10
303.14087424895837
20
-14.859387217708335
30
0
11
303.14087424895837
21
-23.765644540625004
31
0
0
LINE
5
292
100
AcDbEntity
8
0
100
AcDbLine
10
303.14087424895837
20
-23.765644540625004
30
0
11
305.9533765614583
21
-23.765644540625001
31
0
0
LINE
5
293
100
AcDbEntity
8
0
100
AcDbLine
10
305.9533765614583
20
-23.765644540625001
30
0
11
305.95337656145836
21
-29.390649165625003
31
0
0
LINE
5
294
100
AcDbEntity
8
0
100
AcDbLine
10
305.95337656145836
20
-29.390649165625003
30
0
11
303.14087424895837
21
-29.390649165625003
31
0
0
LINE
5
295
100
AcDbEntity
8
0
100
AcDbLine
10
303.14087424895837
20
-29.390649165625003
30
0
11
303.14087424895837
21
-35.015653790625009
31
0
0
LINE
5
296
100
AcDbEntity
8
0
100
AcDbLine
10
303.14087424895837
20
-35.015653790625009
30
0
11
305.9533765614583
21
-35.015653790625009
31
0
0
LINE
5
297
100
AcDbEntity
8
0
100
AcDbLine
10
305.9533765614583
20
-35.015653790625009
30
0
11
305.95337656145836
21
-40.640658415624998
31
0
0
LINE
5
298
100
AcDbEntity
8
0
100
AcDbLine
10
305.95337656145836
20
-40.640658415624998
30
0
11
303.14087424895837
21
-40.640658415625012
31
0
0
LINE
5
299
100
AcDbEntity
8
0
100
AcDbLine
10
303.14087424895837
20
-40.640658415625012
30
0
11
303.14087424895837
21
-46.265663040625007
31
0
0
LINE
5
300
100
AcDbEntity
8
0
100
AcDbLine
10
303.14087424895837
20
-46.265663040625007
30
0
11
305.9533765614583
21
-46.265663040625007
31
0
0
LINE
5
301
100
AcDbEntity
8
0
100
AcDbLine
10
305.9533765614583
20
-46.265663040625007
30
0
11
305.95337656145836
21
-51.89066766562501
31
0
0
LINE
5
302
100
AcDbEntity
8
0
100
AcDbLine
10
305.95337656145836
20
-51.89066766562501
30
0
11
303.14087424895837
21
-51.89066766562501
31
0
0
LINE
5
303
100
AcDbEntity
8
0
100
AcDbLine
10
303.14087424895837
20
-51.89066766562501
30
0
11
303.14087424895837
21
-57.515672290625012
31
0
0
LINE
5
304
100
AcDbEntity
8
0
100
AcDbLine
10
303.14087424895837
20
-57.515672290625012
30
0
11
305.9533765614583
21
-57.515672290625012
31
0
0
LINE
5
305
100
AcDbEntity
8
0
100
AcDbLine
10
305.9533765614583
20
-57.515672290625012
30
0
11
305.95337656145836
21
-63.140676915625008
31
0
0
LINE
5
306
100
AcDbEntity
8
0
100
AcDbLine
10
305.95337656145836
20
-63.140676915625008
30
0
11
303.14087424895837
21
-63.140676915625008
31
0
0
LINE
5
307
100
AcDbEntity
8
0
100
AcDbLine
10
303.14087424895837
20
-63.140676915625008
30
0
11
303.14087424895837
21
-72.046934238541681
31
0
0
LINE
5
308
100
AcDbEntity
8
0
100
AcDbLine
10
303.14087424895837
20
-72.046934238541681
30
0
11
305.9533765614583
21
-72.046934238541681
31
0
0
LINE
5
309
100
AcDbEntity
8
0
100
AcDbLine
10
305.9533765614583
20
-72.046934238541681
30
0
11
305.95337656145841
21
-80.95319156145834
31
0
0
LINE
5
310
100
AcDbEntity
8
0
100
AcDbLine
10
305.95337656145841
20
-80.95319156145834
30
0
11
297.98462000937502
21
-80.95319156145834
31
0
0
LINE
5
311
100
AcDbEntity
8
0
100
AcDbLine
10
297.98462000937502
20
-80.95319156145834
30
0
11
297.98462000937502
21
-78.140689248958338
31
0
0
LINE
5
312
100
AcDbEntity
8
0
100
AcDbLine
10
297.98462000937502
20
-78.140689248958338
30
0
11
290.01586345729163
21
-78.140689248958338
31
0
0
LINE
5
313
100
AcDbEntity
8
0
100
AcDbLine
10
290.01586345729163
20
-78.140689248958338
30
0
11
290.01586345729169
21
-80.95319156145834
31
0
0
LINE
5
314
100
AcDbEntity
8
0
100
AcDbLine
10
290.01586345729169
20
-80.95319156145834
30
0
11
284.39085883229171
21
-80.95319156145834
31
0
0
LINE
5
315
100
AcDbEntity
8
0
100
AcDbLine
10
284.39085883229171
20
-80.95319156145834
30
0
11
284.39085883229171
21
-78.140689248958338
31
0
0
LINE
5
316
100
AcDbEntity
8
0
100
AcDbLine
10
284.39085883229171
20
-78.140689248958338
30
0
11
278.76585420729168
21
-78.140689248958338
31
0
0
LINE
5
317
100
AcDbEntity
8
0
100
AcDbLine
10
278.76585420729168
20
-78.140689248958338
30
0
11
278.76585420729168
21
-80.95319156145834
31
0
0
LINE
5
318
100
AcDbEntity
8
0
100
AcDbLine
10
278.76585420729168
20
-80.95319156145834
30
0
11
273.14084958229171
21
-80.95319156145834
31
0
0
LINE
5
319
100
AcDbEntity
8
0
100
AcDbLine
10
273.14084958229171
20
-80.95319156145834
30
0
11
273.14084958229171
21
-78.140689248958338
31
0
0
LINE
5
320
100
AcDbEntity
8
0
100
AcDbLine
10
273.14084958229171
20
-78.140689248958338
30
0
11
267.51584495729168
21
-78.140689248958338
31
0
0
LINE
5
321
100
AcDbEntity
8
0
100
AcDbLine
10
267.51584495729168
20
-78.140689248958338
30
0
11
267.51584495729168
21
-80.95319156145834
31
0
0
LINE
5
322
100
AcDbEntity
8
0
100
AcDbLine
10
267.51584495729168
20
-80.95319156145834
30
0
11
261.8908403322917
21
-80.95319156145834
31
0
0
LINE
5
323
100
AcDbEntity
8
0
100
AcDbLine
10
261.8908403322917
20
-80.95319156145834
30
0
11
261.8908403322917
21
-78.140689248958338
31
0
0
LINE
5
324
100
AcDbEntity
8
0
100
AcDbLine
10
261.8908403322917
20
-78.140689248958338
30
0
11
256.26583570729167
21
-78.140689248958338
31
0
0
LINE
5
325
100
AcDbEntity
8
0
100
AcDbLine
10
256.26583570729167
20
-78.140689248958338
30
0
11
256.26583570729167
21
-80.95319156145834
31
0
0
LINE
5
326
100
AcDbEntity
8
0
100
AcDbLine
10
256.26583570729167
20
-80.95319156145834
30
0
11
250.6408310822917
21
-80.95319156145834
31
0
0
LINE
5
327
100
AcDbEntity
8
0
100
AcDbLine
10
250.6408310822917
20
-80.95319156145834
30
0
11
250.6408310822917
21
-78.140689248958338
31
0
0
LINE
5
328
100
AcDbEntity
8
0
100
AcDbLine
10
250.6408310822917
20
-78.140689248958338
30
0
11
245.01582645729167
21
-78.140689248958338
31
0
0
LINE
5
329
100
AcDbEntity
8
0
100
AcDbLine
10
245.01582645729167
20
-78.140689248958338
30
0
11
245.01582645729167
21
-80.95319156145834
31
0
0
LINE
5
330
100
AcDbEntity
8
0
100
AcDbLine
10
245.01582645729167
20
-80.95319156145834
30
0
11
239.39082183229169
21
-80.95319156145834
31
0
0
LINE
5
331
100
AcDbEntity
8
0
100
AcDbLine
10
239.39082183229169
20
-80.95319156145834
30
0
11
239.39082183229169
21
-78.140689248958338
31
0
0
LINE
5
332
100
AcDbEntity
8
0
100
AcDbLine
10
239.39082183229169
20
-78.140689248958338
30
0
11
233.76581720729166
21
-78.140689248958338
31
0
0
LINE
5
333
100
AcDbEntity
8
0
100
AcDbLine
10
233.76581720729166
20
-78.140689248958338
30
0
11
233.76581720729172
21
-80.95319156145834
31
0
0
LINE
5
334
100
AcDbEntity
8
0
100
AcDbLine
10
233.76581720729172
20
-80.95319156145834
30
0
11
228.14081258229169
21
-80.95319156145834
31
0
0
LINE
5
335
100
AcDbEntity
8
0
100
AcDbLine
10
228.14081258229169
20
-80.95319156145834
30
0
11
228.14081258229169
21
-78.140689248958338
31
0
0
LINE
5
336
100
AcDbEntity
8
0
100
AcDbLine
10
228.14081258229169
20
-78.140689248958338
30
0
11
222.51580795729168
21
-78.140689248958338
31
0
0
LINE
5
337
100
AcDbEntity
8
0
100
AcDbLine
10
222.51580795729168
20
-78.140689248958338
30
0
11
222.51580795729168
21
-80.95319156145834
31
0
0
LINE
5
338
100
AcDbEntity
8
0
100
AcDbLine
10
222.51580795729168
20
-80.95319156145834
30
0
11
216.89080333229168
21
-80.95319156145834
31
0
0
LINE
5
339
100
AcDbEntity
8
0
100
AcDbLine
10
216.89080333229168
20
-80.95319156145834
30
0
11
216.89080333229168
21
-78.140689248958338
31
0
0
LINE
5
340
100
AcDbEntity
8
0
100
AcDbLine
10
216.89080333229168
20
-78.140689248958338
30
0
11
211.26579870729165
21
-78.140689248958338
31
0
0
LINE
5
341
100
AcDbEntity
8
0
100
AcDbLine
10
211.26579870729165
20
-78.140689248958338
30
0
11
211.26579870729171
21
-80.95319156145834
31
0
0
LINE
5
342
100
AcDbEntity
8
0
100
AcDbLine
10
211.26579870729171
20
-80.95319156145834
30
0
11
205.64079408229168
21
-80.95319156145834
31
0
0
LINE
5
343
100
AcDbEntity
8
0
100
AcDbLine
10
205.64079408229168
20
-80.95319156145834
30
0
11
205.64079408229168
21
-78.140689248958338
31
0
0
LINE
5
344
100
AcDbEntity
8
0
100
AcDbLine
10
205.64079408229168
20
-78.140689248958338
30
0
11
200.01578945729167
21
-78.140689248958338
31
0
0
LINE
5
345
100
AcDbEntity
8
0
100
AcDbLine
10
200.01578945729167
20
-78.140689248958338
30
0
11
200.01578945729167
21
-80.95319156145834
31
0
0
LINE
5
346
100
AcDbEntity
8
0
100
AcDbLine
10
200.01578945729167
20
-80.95319156145834
30
0
11
194.39078483229167
21
-80.95319156145834
31
0
0
LINE
5
347
100
AcDbEntity
8
0
100
AcDbLine
10
194.39078483229167
20
-80.95319156145834
30
0
11
194.39078483229167
21
-78.140689248958338
31
0
0
LINE
5
348
100
AcDbEntity
8
0
100
AcDbLine
10
194.39078483229167
20
-78.140689248958338
30
0
11
188.76578020729167
21
-78.140689248958338
31
0
0
LINE
5
349
100
AcDbEntity
8
0
100
AcDbLine
10
188.76578020729167
20
-78.140689248958338
30
0
11
188.76578020729167
21
-80.95319156145834
31
0
0
LINE
5
350
100
AcDbEntity
8
0
100
AcDbLine
10
188.76578020729167
20
-80.95319156145834
30
0
11
183.14077558229167
21
-80.95319156145834
31
0
0
LINE
5
351
100
AcDbEntity
8
0
100
AcDbLine
10
183.14077558229167
20
-80.95319156145834
30
0
11
183.1407755822917
21
-78.140689248958338
31
0
0
LINE
5
352
100
AcDbEntity
8
0
100
AcDbLine
10
183.1407755822917
20
-78.140689248958338
30
0
11
177.51577095729169
21
-78.140689248958338
31
0
0
LINE
5
353
100
AcDbEntity
8
0
100
AcDbLine
10
177.51577095729169
20
-78.140689248958338
30
0
11
177.51577095729169
21
-80.95319156145834
31
0
0
LINE
5
354
100
AcDbEntity
8
0
100
AcDbLine
10
177.51577095729169
20
-80.95319156145834
30
0
11
171.89076633229166
21
-80.95319156145834
31
0
0
LINE
5
355
100
AcDbEntity
8
0
100
AcDbLine
10
171.89076633229166
20
-80.95319156145834
30
0
11
171.89076633229166
21
-78.140689248958338
31
0
0
LINE
5
356
100
AcDbEntity
8
0
100
AcDbLine
10
171.89076633229166
20
-78.140689248958338
30
0
11
163.92200978020836
21
-78.140689248958338
31
0
0
LINE
5
357
100
AcDbEntity
8
0
100
AcDbLine
10
163.92200978020836
20
-78.140689248958338
30
0
11
163.92200978020836
21
-80.95319156145834
31
0
0
LINE
5
358
100
AcDbEntity
8
0
100
AcDbLine
10
163.92200978020836
20
-80.95319156145834
30
0
11
155.95325322812505
21
-80.95319156145834
31
0
0
LINE
5
359
100
AcDbEntity
8
0
100
AcDbLine
10
155.95325322812505
20
-80.95319156145834
30
0
11
155.95325322812502
21
-72.046934238541681
31
0
0
LINE
5
360
100
AcDbEntity
8
0
100
AcDbLine
10
155.95325322812502
20
-72.046934238541681
30
0
11
158.76575554062501
21
-72.046934238541681
31
0
0
LINE
5
361
100
AcDbEntity
8
0
100
AcDbLine
10
158.76575554062501
20
-72.046934238541681
30
0
11
158.76575554062501
21
-63.140676915625008
31
0
0
LINE
5
362
100
AcDbEntity
8
0
100
AcDbLine
10
158.76575554062501
20
-63.140676915625008
30
0
11
155.95325322812502
21
-63.140676915625008
31
0
0
LINE
5
363
100
AcDbEntity
8
0
100
AcDbLine
10
155.95325322812502
20
-63.140676915625008
30
0
11
155.95325322812502
21
-57.515672290625012
31
0
0
LINE
5
364
100
AcDbEntity
8
0
100
AcDbLine
10
155.95325322812502
20
-57.515672290625012
30
0
11
158.76575554062501
21
-57.515672290625012
31
0
0
LINE
5
365
100
AcDbEntity
8
0
100
AcDbLine
10
158.76575554062501
20
-57.515672290625012
30
0
11
158.76575554062501
21
-51.89066766562501
31
0
0
LINE
5
366
100
AcDbEntity
8
0
100
AcDbLine
10
158.76575554062501
20
-51.89066766562501
30
0
11
155.95325322812502
21
-51.89066766562501
31
0
0
LINE
5
367
100
AcDbEntity
8
0
100
AcDbLine
10
155.95325322812502
20
-51.89066766562501
30
0
11
155.95325322812502
21
-46.265663040625007
31
0
0
LINE
5
368
100
AcDbEntity
8
0
100
AcDbLine
10
155.95325322812502
20
-46.265663040625007
30
0
11
158.76575554062501
21
-46.265663040625007
31
0
0
LINE
5
369
100
AcDbEntity
8
0
100
AcDbLine
10
158.76575554062501
20
-46.265663040625007
30
0
11
158.76575554062501
21
-40.640658415625012
31
0
0
LINE
5
370
100
AcDbEntity
8
0
100
AcDbLine
10
158.76575554062501
20
-40.640658415625012
30
0
11
155.95325322812502
21
-40.640658415624998
31
0
0
LINE
5
371
100
AcDbEntity
8
0
100
AcDbLine
10
155.95325322812502
20
-40.640658415624998
30
0
11
155.95325322812502
21
-35.015653790625009
31
0
0
LINE
5
372
100
AcDbEntity
8
0
100
AcDbLine
10
155.95325322812502
20
-35.015653790625009
30
0
11
158.76575554062501
21
-35.015653790625009
31
0
0
LINE
5
373
100
AcDbEntity
8
0
100
AcDbLine
10
158.76575554062501
20
-35.015653790625009
30
0
11
158.76575554062501
21
-29.390649165625003
31
0
0
LINE
5
374
100
AcDbEntity
8
0
100
AcDbLine
10
158.76575554062501
20
-29.390649165625003
30
0
11
155.95325322812502
21
-29.390649165625003
31
0
0
LINE
5
375
100
AcDbEntity
8
0
100
AcDbLine
10
155.95325322812502
20
-29.390649165625003
30
0
11
155.95325322812502
21
-23.765644540625001
31
0
0
LINE
5
376
100
AcDbEntity
8
0
100
AcDbLine
10
155.95325322812502
20
-23.765644540625001
30
0
11
158.76575554062501
21
-23.765644540625001
31
0
0
LINE
5
377
100
AcDbEntity
8
0
100
AcDbLine
10
158.76575554062501
20
-23.765644540625001
30
0
11
158.76575554062501
21
-14.859387217708333
31
0
0
LINE
5
378
100
AcDbEntity
8
0
100
AcDbLine
10
158.76575554062501
20
-14.859387217708333
30
0
11
155.95325322812502
21
-14.859387217708338
31
0
0
LINE
5
379
100
AcDbEntity
8
0
100
AcDbLine
10
155.95325322812502
20
-14.859387217708338
30
0
11
155.95325322812502
21
-5.953129894791668
31
0
0
LINE
5
380
100
AcDbEntity
8
0
100
AcDbLine
10
308.7658788739584
20
-5.953129894791668
30
0
11
313.45338272812501
21
-5.953129894791668
31
0
0
LINE
5
381
100
AcDbEntity
8
0
100
AcDbLine
10
313.45338272812501
20
-5.953129894791668
30
0
11
313.45338272812501
21
-8.7656322072916666
31
0
0
LINE
5
382
100
AcDbEntity
8
0
100
AcDbLine
10
313.45338272812501
20
-8.7656322072916666
30
0
11
320.95338889479171
21
-8.7656322072916666
31
0
0
LINE
5
383
100
AcDbEntity
8
0
100
AcDbLine
10
320.95338889479171
20
-8.7656322072916666
30
0
11
320.95338889479171
21
-5.9531298947916671
31
0
0
LINE
5
384
100
AcDbEntity
8
0
100
AcDbLine
10
320.95338889479171
20
-5.9531298947916671
30
0
11
326.57839351979169
21
-5.953129894791668
31
0
0
LINE
5
385
100
AcDbEntity
8
0
100
AcDbLine
10
326.57839351979169
20
-5.953129894791668
30
0
11
326.57839351979169
21
-8.7656322072916666
31
0
0
LINE
5
386
100
AcDbEntity
8
0
100
AcDbLine
10
326.57839351979169
20
-8.7656322072916666
30
0
11
332.20339814479178
21
-8.7656322072916666
31
0
0
LINE
5
387
100
AcDbEntity
8
0
100
AcDbLine
10
332.20339814479178
20
-8.7656322072916666
30
0
11
332.20339814479178
21
-5.9531298947916671
31
0
0
LINE
5
388
100
AcDbEntity
8
0
100
AcDbLine
10
332.20339814479178
20
-5.9531298947916671
30
0
11
337.82840276979175
21
-5.953129894791668
31
0
0
LINE
5
389
100
AcDbEntity
8
0
100
AcDbLine
10
337.82840276979175
20
-5.953129894791668
30
0
11
337.82840276979175
21
-8.7656322072916666
31
0
0
LINE
5
390
100
AcDbEntity
8
0
100
AcDbLine
10
337.82840276979175
20
-8.7656322072916666
30
0
11
345.3284089364584
21
-8.7656322072916666
31
0
0
LINE
5
391
100
AcDbEntity
8
0
100
AcDbLine
10
345.3284089364584
20
-8.7656322072916666
30
0
11
345.32840893645835
21
-5.9531298947916671
31
0
0
LINE
5
392
100
AcDbEntity
8
0
100
AcDbLine
10
345.32840893645835
20
-5.9531298947916671
30
0
11
350.01591279062501
21
-5.953129894791668
31
0
0
LINE
5
393
100
AcDbEntity
8
0
100
AcDbLine
10
350.01591279062501
20
-5.953129894791668
30
0
11
350.01591279062501
21
-14.859387217708338
31
0
0
LINE
5
394
100
AcDbEntity
8
0
100
AcDbLine
10
350.01591279062501
20
-14.859387217708338
30
0
11
352.828415103125
21
-14.859387217708335
31
0
0
LINE
5
395
100
AcDbEntity
8
0
100
AcDbLine
10
352.828415103125
20
-14.859387217708335
30
0
11
352.82841510312505
21
-23.765644540625004
31
0
0
LINE
5
396
100
AcDbEntity
8
0
100
AcDbLine
10
352.82841510312505
20
-23.765644540625004
30
0
11
350.01591279062507
21
-23.765644540625001
31
0
0
LINE
5
397
100
AcDbEntity
8
0
100
AcDbLine
10
350.01591279062507
20
-23.765644540625001
30
0
11
350.01591279062501
21
-29.390649165625003
31
0
0
LINE
5
398
100
AcDbEntity
8
0
100
AcDbLine
10
350.01591279062501
20
-29.390649165625003
30
0
11
352.828415103125
21
-29.390649165625003
31
0
0
LINE
5
399
100
AcDbEntity
8
0
100
AcDbLine
10
352.828415103125
20
-29.390649165625003
30
0
11
352.82841510312505
21
-35.015653790625009
31
0
0
LINE
5
400
100
AcDbEntity
8
0
100
AcDbLine
10
352.82841510312505
20
-35.015653790625009
30
0
11
350.01591279062507
21
-35.015653790625009
31
0
0
LINE
5
401
100
AcDbEntity
8
0
100
AcDbLine
10
350.01591279062507
20
-35.015653790625009
30
0
11
350.01591279062501
21
-40.640658415624998
31
0
0
LINE
5
402
100
AcDbEntity
8
0
100
AcDbLine
10
350.01591279062501
20
-40.640658415624998
30
0
11
352.828415103125
21
-40.640658415625012
31
0
0
LINE
5
403
100
AcDbEntity
8
0
100
AcDbLine
10
352.828415103125
20
-40.640658415625012
30
0
11
352.82841510312505
21
-46.265663040625007
31
0
0
LINE
5
404
100
AcDbEntity
8
0
100
AcDbLine
10
352.82841510312505
20
-46.265663040625007
30
0
11
350.01591279062507
21
-46.265663040625007
31
0
0
LINE
5
405
100
AcDbEntity
8
0
100
AcDbLine
10
350.01591279062507
20
-46.265663040625007
30
0
11
350.01591279062501
21
-51.89066766562501
31
0
0
LINE
5
406
100
AcDbEntity
8
0
100
AcDbLine
10
350.01591279062501
20
-51.89066766562501
30
0
11
352.828415103125
21
-51.89066766562501
31
0
0
LINE
5
407
100
AcDbEntity
8
0
100
AcDbLine
10
352.828415103125
20
-51.89066766562501
30
0
11
352.82841510312505
21
-57.515672290625012
31
0
0
LINE
5
408
100
AcDbEntity
8
0
100
AcDbLine
10
352.82841510312505
20
-57.515672290625012
30
0
11
350.01591279062507
21
-57.515672290625012
31
0
0
LINE
5
409
100
AcDbEntity
8
0
100
AcDbLine
10
350.01591279062507
20
-57.515672290625012
30
0
11
350.01591279062501
21
-63.140676915625008
31
0
0
LINE
5
410
100
AcDbEntity
8
0
100
AcDbLine
10
350.01591279062501
20
-63.140676915625008
30
0
11
352.828415103125
21
-63.140676915625008
31
0
0
LINE
5
411
100
AcDbEntity
8
0
100
AcDbLine
10
352.828415103125
20
-63.140676915625008
30
0
11
352.82841510312505
21
-72.046934238541681
31
0
0
LINE
5
412
100
AcDbEntity
8
0
100
AcDbLine
10
352.82841510312505
20
-72.046934238541681
30
0
11
350.01591279062507
21
-72.046934238541681
31
0
0
LINE
5
413
100
AcDbEntity
8
0
100
AcDbLine
10
350.01591279062507
20
-72.046934238541681
30
0
11
350.01591279062501
21
-80.95319156145834
31
0
0
LINE
5
414
100
AcDbEntity
8
0
100
AcDbLine
10
350.01591279062501
20
-80.95319156145834
30
0
11
345.32840893645835
21
-80.95319156145834
31
0
0
LINE
5
415
100
AcDbEntity
8
0
100
AcDbLine
10
345.32840893645835
20
-80.95319156145834
30
0
11
345.32840893645835
21
-78.140689248958338
31
0
0
LINE
5
416
100
AcDbEntity
8
0
100
AcDbLine
10
345.32840893645835
20
-78.140689248958338
30
0
11
337.82840276979164
21
-78.140689248958338
31
0
0
LINE
5
417
100
AcDbEntity
8
0
100
AcDbLine
10
337.82840276979164
20
-78.140689248958338
30
0
11
337.82840276979175
21
-80.95319156145834
31
0
0
LINE
5
418
100
AcDbEntity
8
0
100
AcDbLine
10
337.82840276979175
20
-80.95319156145834
30
0
11
332.20339814479178
21
-80.95319156145834
31
0
0
LINE
5
419
100
AcDbEntity
8
0
100
AcDbLine
10
332.20339814479178
20
-80.95319156145834
30
0
11
332.20339814479178
21
-78.140689248958338
31
0
0
LINE
5
420
100
AcDbEntity
8
0
100
AcDbLine
10
332.20339814479178
20
-78.140689248958338
30
0
11
326.57839351979169
21
-78.140689248958338
31
0
0
LINE
5
421
100
AcDbEntity
8
0
100
AcDbLine
10
326.57839351979169
20
-78.140689248958338
30
0
11
326.57839351979169
21
-80.95319156145834
31
0
0
LINE
5
422
100
AcDbEntity
8
0
100
AcDbLine
10
326.57839351979169
20
-80.95319156145834
30
0
11
320.95338889479171
21
-80.95319156145834
31
0
0
LINE
5
423
100
AcDbEntity
8
0
100
AcDbLine
10
320.95338889479171
20
-80.95319156145834
30
0
11
320.95338889479171
21
-78.140689248958338
31
0
0
LINE
5
424
100
AcDbEntity
8
0
100
AcDbLine
10
320.95338889479171
20
-78.140689248958338
30
0
11
313.45338272812501
21
-78.140689248958338
31
0
0
LINE
5
425
100
AcDbEntity
8
0
100
AcDbLine
10
313.45338272812501
20
-78.140689248958338
30
0
11
313.45338272812501
21
-80.95319156145834
31
0
0
LINE
5
426
100
AcDbEntity
8
0
100
AcDbLine
10
313.45338272812501
20
-80.95319156145834
30
0
11
308.7658788739584
21
-80.95319156145834
31
0
0
LINE
5
427
100
AcDbEntity
8
0
100
AcDbLine
10
308.7658788739584
20
-80.95319156145834
30
0
11
308.7658788739584
21
-72.046934238541681
31
0
0
LINE
5
428
100
AcDbEntity
8
0
100
AcDbLine
10
308.7658788739584
20
-72.046934238541681
30
0
11
305.9533765614583
21
-72.046934238541681
31
0
0
LINE
5
429
100
AcDbEntity
8
0
100
AcDbLine
10
305.9533765614583
20
-72.046934238541681
30
0
11
305.95337656145836
21
-63.140676915625008
31
0
0
LINE
5
430
100
AcDbEntity
8
0
100
AcDbLine
10
305.95337656145836
20
-63.140676915625008
30
0
11
308.7658788739584
21
-63.140676915625008
31
0
0
LINE
5
431
100
AcDbEntity
8
0
100
AcDbLine
10
308.7658788739584
20
-63.140676915625008
30
0
11
308.7658788739584
21
-57.515672290625012
31
0
0
LINE
5
432
100
AcDbEntity
8
0
100
AcDbLine
10
308.7658788739584
20
-57.515672290625012
30
0
11
305.9533765614583
21
-57.515672290625012
31
0
0
LINE
5
433
100
AcDbEntity
8
0
100
AcDbLine
10
305.9533765614583
20
-57.515672290625012
30
0
11
305.95337656145836
21
-51.89066766562501
31
0
0
LINE
5
434
100
AcDbEntity
8
0
100
AcDbLine
10
305.95337656145836
20
-51.89066766562501
30
0
11
308.7658788739584
21
-51.89066766562501
31
0
0
LINE
5
435
100
AcDbEntity
8
0
100
AcDbLine
10
308.7658788739584
20
-51.89066766562501
30
0
11
308.7658788739584
21
-46.265663040625007
31
0
0
LINE
5
436
100
AcDbEntity
8
0
100
AcDbLine
10
308.7658788739584
20
-46.265663040625007
30
0
11
305.9533765614583
21
-46.265663040625007
31
0
0
LINE
5
437
100
AcDbEntity
8
0
100
AcDbLine
10
305.9533765614583
20
-46.265663040625007
30
0
11
305.95337656145836
21
-40.640658415624998
31
0
0
LINE
5
438
100
AcDbEntity
8
0
100
AcDbLine
10
305.95337656145836
20
-40.640658415624998
30
0
11
308.7658788739584
21
-40.640658415625012
31
0
0
LINE
5
439
100
AcDbEntity
8
0
100
AcDbLine
10
308.7658788739584
20
-40.640658415625012
30
0
11
308.7658788739584
21
-35.015653790625016
31
0
0
LINE
5
440
100
AcDbEntity
8
0
100
AcDbLine
10
308.7658788739584
20
-35.015653790625016
30
0
11
305.9533765614583
21
-35.015653790625009
31
0
0
LINE
5
441
100
AcDbEntity
8
0
100
AcDbLine
10
305.9533765614583
20
-35.015653790625009
30
0
11
305.95337656145836
21
-29.390649165625003
31
0
0
LINE
5
442
100
AcDbEntity
8
0
100
AcDbLine
10
305.95337656145836
20
-29.390649165625003
30
0
11
308.7658788739584
21
-29.390649165625003
31
0
0
LINE
5
443
100
AcDbEntity
8
0
100
AcDbLine
10
308.7658788739584
20
-29.390649165625003
30
0
11
308.7658788739584
21
-23.765644540625001
31
0
0
LINE
5
444
100
AcDbEntity
8
0
100
AcDbLine
10
308.7658788739584
20
-23.765644540625001
30
0
11
305.9533765614583
21
-23.765644540625001
31
0
0
LINE
5
445
100
AcDbEntity
8
0
100
AcDbLine
10
305.9533765614583
20
-23.765644540625001
30
0
11
305.95337656145836
21
-14.859387217708338
31
0
0
LINE
5
446
100
AcDbEntity
8
0
100
AcDbLine
10
305.95337656145836
20
-14.859387217708338
30
0
11
308.7658788739584
21
-14.859387217708335
31
0
0
LINE
5
447
100
AcDbEntity
8
0
100
AcDbLine
10
308.7658788739584
20
-14.859387217708335
30
0
11
308.7658788739584
21
-5.953129894791668
31
0
0
LINE
5
448
100
AcDbEntity
8
0
100
AcDbLine
10
308.7658788739584
20
-80.95319156145834
30
0
11
313.45338272812501
21
-80.95319156145834
31
0
0
LINE
5
449
100
AcDbEntity
8
0
100
AcDbLine
10
313.45338272812501
20
-80.95319156145834
30
0
11
313.45338272812501
21
-83.765693873958341
31
0
0
LINE
5
450
100
AcDbEntity
8
0
100
AcDbLine
10
313.45338272812501
20
-83.765693873958341
30
0
11
320.95338889479171
21
-83.765693873958341
31
0
0
LINE
5
451
100
AcDbEntity
8
0
100
AcDbLine
10
320.95338889479171
20
-83.765693873958341
30
0
11
320.95338889479171
21
-80.95319156145834
31
0
0
LINE
5
452
100
AcDbEntity
8
0
100
AcDbLine
10
320.95338889479171
20
-80.95319156145834
30
0
11
326.57839351979169
21
-80.95319156145834
31
0
0
LINE
5
453
100
AcDbEntity
8
0
100
AcDbLine
10
326.57839351979169
20
-80.95319156145834
30
0
11
326.57839351979169
21
-83.765693873958341
31
0
0
LINE
5
454
100
AcDbEntity
8
0
100
AcDbLine
10
326.57839351979169
20
-83.765693873958341
30
0
11
332.20339814479178
21
-83.765693873958341
31
0
0
LINE
5
455
100
AcDbEntity
8
0
100
AcDbLine
10
332.20339814479178
20
-83.765693873958341
30
0
11
332.20339814479178
21
-80.95319156145834
31
0
0
LINE
5
456
100
AcDbEntity
8
0
100
AcDbLine
10
332.20339814479178
20
-80.95319156145834
30
0
11
337.82840276979175
21
-80.95319156145834
31
0
0
LINE
5
457
100
AcDbEntity
8
0
100
AcDbLine
10
337.82840276979175
20
-80.95319156145834
30
0
11
337.82840276979175
21
-83.765693873958341
31
0
0
LINE
5
458
100
AcDbEntity
8
0
100
AcDbLine
10
337.82840276979175
20
-83.765693873958341
30
0
11
345.3284089364584
21
-83.765693873958341
31
0
0
LINE
5
459
100
AcDbEntity
8
0
100
AcDbLine
10
345.3284089364584
20
-83.765693873958341
30
0
11
345.32840893645835
21
-80.95319156145834
31
0
0
LINE
5
460
100
AcDbEntity
8
0
100
AcDbLine
10
345.32840893645835
20
-80.95319156145834
30
0
11
350.01591279062501
21
-80.95319156145834
31
0
0
LINE
5
461
100
AcDbEntity
8
0
100
AcDbLine
10
350.01591279062501
20
-80.95319156145834
30
0
11
350.01591279062501
21
-89.859448884375013
31
0
0
LINE
5
462
100
AcDbEntity
8
0
100
AcDbLine
10
350.01591279062501
20
-89.859448884375013
30
0
11
352.828415103125
21
-89.859448884375013
31
0
0
LINE
5
463
100
AcDbEntity
8
0
100
AcDbLine
10
352.828415103125
20
-89.859448884375013
30
0
11
352.82841510312505
21
-98.765706207291686
31
0
0
LINE
5
464
100
AcDbEntity
8
0
100
AcDbLine
10
352.82841510312505
20
-98.765706207291686
30
0
11
350.01591279062507
21
-98.765706207291686
31
0
0
LINE
5
465
100
AcDbEntity
8
0
100
AcDbLine
10
350.01591279062507
20
-98.765706207291686
30
0
11
350.01591279062501
21
-104.39071083229169
31
0
0
LINE
5
466
100
AcDbEntity
8
0
100
AcDbLine
10
350.01591279062501
20
-104.39071083229169
30
0
11
352.828415103125
21
-104.39071083229167
31
0
0
LINE
5
467
100
AcDbEntity
8
0
100
AcDbLine
10
352.828415103125
20
-104.39071083229167
30
0
11
352.82841510312505
21
-110.01571545729169
31
0
0
LINE
5
468
100
AcDbEntity
8
0
100
AcDbLine
10
352.82841510312505
20
-110.01571545729169
30
0
11
350.01591279062507
21
-110.01571545729169
31
0
0
LINE
5
469
100
AcDbEntity
8
0
100
AcDbLine
10
350.01591279062507
20
-110.01571545729169
30
0
11
350.01591279062501
21
-115.64072008229168
31
0
0
LINE
5
470
100
AcDbEntity
8
0
100
AcDbLine
10
350.01591279062501
20
-115.64072008229168
30
0
11
352.828415103125
21
-115.64072008229168
31
0
0
LINE
5
471
100
AcDbEntity
8
0
100
AcDbLine
10
352.828415103125
20
-115.64072008229168
30
0
11
352.82841510312505
21
-121.2657247072917
31
0
0
LINE
5
472
100
AcDbEntity
8
0
100
AcDbLine
10
352.82841510312505
20
-121.2657247072917
30
0
11
350.01591279062507
21
-121.26572470729167
31
0
0
LINE
5
473
100
AcDbEntity
8
0
100
AcDbLine
10
350.01591279062507
20
-121.26572470729167
30
0
11
350.01591279062501
21
-126.89072933229168
31
0
0
LINE
5
474
100
AcDbEntity
8
0
100
AcDbLine
10
350.01591279062501
20
-126.89072933229168
30
0
11
352.828415103125
21
-126.89072933229168
31
0
0
LINE
5
475
100
AcDbEntity
8
0
100
AcDbLine
10
352.828415103125
20
-126.89072933229168
30
0
11
352.82841510312505
21
-132.5157339572917
31
0
0
LINE
5
476
100
AcDbEntity
8
0
100
AcDbLine
10
352.82841510312505
20
-132.5157339572917
30
0
11
350.01591279062507
21
-132.51573395729167
31
0
0
LINE
5
477
100
AcDbEntity
8
0
100
AcDbLine
10
350.01591279062507
20
-132.51573395729167
30
0
11
350.01591279062501
21
-138.14073858229168
31
0
0
LINE
5
478
100
AcDbEntity
8
0
100
AcDbLine
10
350.01591279062501
20
-138.14073858229168
30
0
11
352.828415103125
21
-138.14073858229168
31
0
0
LINE
5
479
100
AcDbEntity
8
0
100
AcDbLine
10
352.828415103125
20
-138.14073858229168
30
0
11
352.82841510312505
21
-147.04699590520835
31
0
0
LINE
5
480
100
AcDbEntity
8
0
100
AcDbLine
10
352.82841510312505
20
-147.04699590520835
30
0
11
350.01591279062507
21
-147.04699590520835
31
0
0
LINE
5
481
100
AcDbEntity
8
0
100
AcDbLine
10
350.01591279062507
20
-147.04699590520835
30
0
11
350.01591279062501
21
-155.95325322812502
31
0
0
LINE
5
482
100
AcDbEntity
8
0
100
AcDbLine
10
350.01591279062501
20
-155.95325322812502
30
0
11
345.32840893645835
21
-155.95325322812502
31
0
0
LINE
5
483
100
AcDbEntity
8
0
100
AcDbLine
10
345.32840893645835
20
-155.95325322812502
30
0
11
345.32840893645835
21
-153.14075091562503
31
0
0
LINE
5
484
100
AcDbEntity
8
0
100
AcDbLine
10
345.32840893645835
20
-153.14075091562503
30
0
11
337.82840276979164
21
-153.14075091562503
31
0
0
LINE
5
485
100
AcDbEntity
8
0
100
AcDbLine
10
337.82840276979164
20
-153.14075091562503
30
0
11
337.82840276979175
21
-155.95325322812502
31
0
0
LINE
5
486
100
AcDbEntity
8
0
100
AcDbLine
10
337.82840276979175
20
-155.95325322812502
30
0
11
332.20339814479178
21
-155.95325322812502
31
0
0
LINE
5
487
100
AcDbEntity
8
0
100
AcDbLine
10
332.20339814479178
20
-155.95325322812502
30
0
11
332.20339814479178
21
-153.14075091562503
31
0
0
LINE
5
488
100
AcDbEntity
8
0
100
AcDbLine
10
332.20339814479178
20
-153.14075091562503
30
0
11
326.57839351979169
21
-153.14075091562503
31
0
0
LINE
5
489
100
AcDbEntity
8
0
100
AcDbLine
10
326.57839351979169
20
-153.14075091562503
30
0
11
326.57839351979169
21
-155.95325322812502
31
0
0
LINE
5
490
100
AcDbEntity
8
0
100
AcDbLine
10
326.57839351979169
20
-155.95325322812502
30
0
11
320.95338889479171
21
-155.95325322812502
31
0
0
LINE
5
491
100
AcDbEntity
8
0
100
AcDbLine
10
320.95338889479171
20
-155.95325322812502
30
0
11
320.95338889479171
21
-153.14075091562503
31
0
0
LINE
5
492
100
AcDbEntity
8
0
100
AcDbLine
10
320.95338889479171
20
-153.14075091562503
30
0
11
313.45338272812501
21
-153.14075091562503
31
0
0
LINE
5
493
100
AcDbEntity
8
0
100
AcDbLine
10
313.45338272812501
20
-153.14075091562503
30
0
11
313.45338272812501
21
-155.95325322812502
31
0
0
LINE
5
494
100
AcDbEntity
8
0
100
AcDbLine
10
313.45338272812501
20
-155.95325322812502
30
0
11
308.7658788739584
21
-155.95325322812502
31
0
0
LINE
5
495
100
AcDbEntity
8
0
100
AcDbLine
10
308.7658788739584
20
-155.95325322812502
30
0
11
308.7658788739584
21
-147.04699590520835
31
0
0
LINE
5
496
100
AcDbEntity
8
0
100
AcDbLine
10
308.7658788739584
20
-147.04699590520835
30
0
11
305.95337656145836
21
-147.04699590520835
31
0
0
LINE
5
497
100
AcDbEntity
8
0
100
AcDbLine
10
305.95337656145836
20
-147.04699590520835
30
0
11
305.95337656145836
21
-138.14073858229168
31
0
0
LINE
5
498
100
AcDbEntity
8
0
100
AcDbLine
10
305.95337656145836
20
-138.14073858229168
30
0
11
308.7658788739584
21
-138.14073858229168
31
0
0
LINE
5
499
100
AcDbEntity
8
0
100
AcDbLine
10
308.7658788739584
20
-138.14073858229168
30
0
11
308.7658788739584
21
-132.51573395729167
31
0
0
LINE
5
500
100
AcDbEntity
8
0
100
AcDbLine
10
308.7658788739584
20
-132.51573395729167
30
0
11
305.95337656145836
21
-132.51573395729167
31
0
0
LINE
5
501
100
AcDbEntity
8
0
100
AcDbLine
10
305.95337656145836
20
-132.51573395729167
30
0
11
305.95337656145836
21
-126.89072933229167
31
0
0
LINE
5
502
100
AcDbEntity
8
0
100
AcDbLine
10
305.95337656145836
20
-126.89072933229167
30
0
11
308.7658788739584
21
-126.89072933229168
31
0
0
LINE
5
503
100
AcDbEntity
8
0
100
AcDbLine
10
308.7658788739584
20
-126.89072933229168
30
0
11
308.7658788739584
21
-121.26572470729167
31
0
0
LINE
5
504
100
AcDbEntity
8
0
100
AcDbLine
10
308.7658788739584
20
-121.26572470729167
30
0
11
305.95337656145836
21
-121.26572470729167
31
0
0
LINE
5
505
100
AcDbEntity
8
0
100
AcDbLine
10
305.95337656145836
20
-121.26572470729167
30
0
11
305.95337656145836
21
-115.64072008229166
31
0
0
LINE
5
506
100
AcDbEntity
8
0
100
AcDbLine
10
305.95337656145836
20
-115.64072008229166
30
0
11
308.7658788739584
21
-115.64072008229168
31
0
0
LINE
5
507
100
AcDbEntity
8
0
100
AcDbLine
10
308.7658788739584
20
-115.64072008229168
30
0
11
308.7658788739584
21
-110.01571545729169
31
0
0
LINE
5
508
100
AcDbEntity
8
0
100
AcDbLine
10
308.7658788739584
20
-110.01571545729169
30
0
11
305.95337656145836
21
-110.01571545729169
31
0
0
LINE
5
509
100
AcDbEntity
8
0
100
AcDbLine
10
305.95337656145836
20
-110.01571545729169
30
0
11
305.95337656145836
21
-104.39071083229167
31
0
0
LINE
5
510
100
AcDbEntity
8
0
100
AcDbLine
10
305.95337656145836
20
-104.39071083229167
30
0
11
308.7658788739584
21
-104.39071083229167
31
0
0
LINE
5
511
100
AcDbEntity
8
0
100
AcDbLine
10
308.7658788739584
20
-104.39071083229167
30
0
11
308.7658788739584
21
-98.765706207291672
31
0
0
LINE
5
512
100
AcDbEntity
8
0
100
AcDbLine
10
308.7658788739584
20
-98.765706207291672
30
0
11
305.95337656145836
21
-98.765706207291686
31
0
0
LINE
5
513
100
AcDbEntity
8
0
100
AcDbLine
10
305.95337656145836
20
-98.765706207291686
30
0
11
305.95337656145836
21
-89.859448884375013
31
0
0
LINE
5
514
100
AcDbEntity
8
0
100
AcDbLine
10
305.95337656145836
20
-89.859448884375013
30
0
11
308.7658788739584
21
-89.859448884375013
31
0
0
LINE
5
515
100
AcDbEntity
8
0
100
AcDbLine
10
308.7658788739584
20
-89.859448884375013
30
0
11
308.7658788739584
21
-80.95319156145834
31
0
0
LINE
5
516
100
AcDbEntity
8
0
100
AcDbLine
10
8.7656322072916666
20
-83.765693873958341
30
0
11
13.921886446875003
21
-83.765693873958341
31
0
0
LINE
5
517
100
AcDbEntity
8
0
100
AcDbLine
10
13.921886446875003
20
-83.765693873958341
30
0
11
13.921886446875003
21
-80.95319156145834
31
0
0
LINE
5
518
100
AcDbEntity
8
0
100
AcDbLine
10
13.921886446875003
20
-80.95319156145834
30
0
11
21.890642998958334
21
-80.95319156145834
31
0
0
LINE
5
519
100
AcDbEntity
8
0
100
AcDbLine
10
21.890642998958334
20
-80.95319156145834
30
0
11
21.890642998958334
21
-83.765693873958341
31
0
0
LINE
5
520
100
AcDbEntity
8
0
100
AcDbLine
10
21.890642998958334
20
-83.765693873958341
30
0
11
27.515647623958333
21
-83.765693873958341
31
0
0
LINE
5
521
100
AcDbEntity
8
0
100
AcDbLine
10
27.515647623958333
20
-83.765693873958341
30
0
11
27.515647623958333
21
-80.95319156145834
31
0
0
LINE
5
522
100
AcDbEntity
8
0
100
AcDbLine
10
27.515647623958333
20
-80.95319156145834
30
0
11
33.140652248958339
21
-80.95319156145834
31
0
0
LINE
5
523
100
AcDbEntity
8
0
100
AcDbLine
10
33.140652248958339
20
-80.95319156145834
30
0
11
33.140652248958339
21
-83.765693873958341
31
0
0
LINE
5
524
100
AcDbEntity
8
0
100
AcDbLine
10
33.140652248958339
20
-83.765693873958341
30
0
11
38.765656873958342
21
-83.765693873958341
31
0
0
LINE
5
525
100
AcDbEntity
8
0
100
AcDbLine
10
38.765656873958342
20
-83.765693873958341
30
0
11
38.765656873958342
21
-80.95319156145834
31
0
0
LINE
5
526
100
AcDbEntity
8
0
100
AcDbLine
10
38.765656873958342
20
-80.95319156145834
30
0
11
44.390661498958352
21
-80.95319156145834
31
0
0
LINE
5
527
100
AcDbEntity
8
0
100
AcDbLine
10
44.390661498958352
20
-80.95319156145834
30
0
11
44.390661498958337
21
-83.765693873958341
31
0
0
LINE
5
528
100
AcDbEntity
8
0
100
AcDbLine
10
44.390661498958337
20
-83.765693873958341
30
0
11
50.01566612395834
21
-83.765693873958341
31
0
0
LINE
5
529
100
AcDbEntity
8
0
100
AcDbLine
10
50.01566612395834
20
-83.765693873958341
30
0
11
50.015666123958347
21
-80.95319156145834
31
0
0
LINE
5
530
100
AcDbEntity
8
0
100
AcDbLine
10
50.015666123958347
20
-80.95319156145834
30
0
11
55.640670748958343
21
-80.95319156145834
31
0
0
LINE
5
531
100
AcDbEntity
8
0
100
AcDbLine
10
55.640670748958343
20
-80.95319156145834
30
0
11
55.640670748958343
21
-83.765693873958341
31
0
0
LINE
5
532
100
AcDbEntity
8
0
100
AcDbLine
10
55.640670748958343
20
-83.765693873958341
30
0
11
61.265675373958345
21
-83.765693873958341
31
0
0
LINE
5
533
100
AcDbEntity
8
0
100
AcDbLine
10
61.265675373958345
20
-83.765693873958341
30
0
11
61.265675373958345
21
-80.95319156145834
31
0
0
LINE
5
534
100
AcDbEntity
8
0
100
AcDbLine
10
61.265675373958345
20
-80.95319156145834
30
0
11
66.890679998958348
21
-80.95319156145834
31
0
0
LINE
5
535
100
AcDbEntity
8
0
100
AcDbLine
10
66.890679998958348
20
-80.95319156145834
30
0
11
66.890679998958348
21
-83.765693873958341
31
0
0
LINE
5
536
100
AcDbEntity
8
0
100
AcDbLine
10
66.890679998958348
20
-83.765693873958341
30
0
11
72.515684623958336
21
-83.765693873958341
31
0
0
LINE
5
537
100
AcDbEntity
8
0
100
AcDbLine
10
72.515684623958336
20
-83.765693873958341
30
0
11
72.515684623958336
21
-80.95319156145834
31
0
0
LINE
5
538
100
AcDbEntity
8
0
100
AcDbLine
10
72.515684623958336
20
-80.95319156145834
30
0
11
78.140689248958367
21
-80.95319156145834
31
0
0
LINE
5
539
100
AcDbEntity
8
0
100
AcDbLine
10
78.140689248958367
20
-80.95319156145834
30
0
11
78.140689248958353
21
-83.765693873958341
31
0
0
LINE
5
540
100
AcDbEntity
8
0
100
AcDbLine
10
78.140689248958353
20
-83.765693873958341
30
0
11
83.765693873958355
21
-83.765693873958341
31
0
0
LINE
5
541
100
AcDbEntity
8
0
100
AcDbLine
10
83.765693873958355
20
-83.765693873958341
30
0
11
83.765693873958355
21
-80.95319156145834
31
0
0
LINE
5
542
100
AcDbEntity
8
0
100
AcDbLine
10
83.765693873958355
20
-80.95319156145834
30
0
11
89.390698498958329
21
-80.95319156145834
31
0
0
LINE
5
543
100
AcDbEntity
8
0
100
AcDbLine
10
89.390698498958329
20
-80.95319156145834
30
0
11
89.390698498958329
21
-83.765693873958341
31
0
0
LINE
5
544
100
AcDbEntity
8
0
100
AcDbLine
10
89.390698498958329
20
-83.765693873958341
30
0
11
95.015703123958346
21
-83.765693873958341
31
0
0
LINE
5
545
100
AcDbEntity
8
0
100
AcDbLine
10
95.015703123958346
20
-83.765693873958341
30
0
11
95.015703123958346
21
-80.95319156145834
31
0
0
LINE
5
546
100
AcDbEntity
8
0
100
AcDbLine
10
95.015703123958346
20
-80.95319156145834
30
0
11
100.64070774895833
21
-80.95319156145834
31
0
0
LINE
5
547
100
AcDbEntity
8
0
100
AcDbLine
10
100.64070774895833
20
-80.95319156145834
30
0
11
100.64070774895833
21
-83.765693873958341
31
0
0
LINE
5
548
100
AcDbEntity
8
0
100
AcDbLine
10
100.64070774895833
20
-83.765693873958341
30
0
11
106.26571237395835
21
-83.765693873958341
31
0
0
LINE
5
549
100
AcDbEntity
8
0
100
AcDbLine
10
106.26571237395835
20
-83.765693873958341
30
0
11
106.26571237395835
21
-80.95319156145834
31
0
0
LINE
5
550
100
AcDbEntity
8
0
100
AcDbLine
10
106.26571237395835
20
-80.95319156145834
30
0
11
111.89071699895834
21
-80.95319156145834
31
0
0
LINE
5
551
100
AcDbEntity
8
0
100
AcDbLine
10
111.89071699895834
20
-80.95319156145834
30
0
11
111.89071699895835
21
-83.765693873958341
31
0
0
LINE
5
552
100
AcDbEntity
8
0
100
AcDbLine
10
111.89071699895835
20
-83.765693873958341
30
0
11
117.51572162395837
21
-83.765693873958341
31
0
0
LINE
5
553
100
AcDbEntity
8
0
100
AcDbLine
10
117.51572162395837
20
-83.765693873958341
30
0
11
117.51572162395834
21
-80.95319156145834
31
0
0
LINE
5
554
100
AcDbEntity
8
0
100
AcDbLine
10
117.51572162395834
20
-80.95319156145834
30
0
11
123.14072624895834
21
-80.95319156145834
31
0
0
LINE
5
555
100
AcDbEntity
8
0
100
AcDbLine
10
123.14072624895834
20
-80.95319156145834
30
0
11
123.14072624895836
21
-83.765693873958341
31
0
0
LINE
5
556
100
AcDbEntity
8
0
100
AcDbLine
10
123.14072624895836
20
-83.765693873958341
30
0
11
128.76573087395838
21
-83.765693873958341
31
0
0
LINE
5
557
100
AcDbEntity
8
0
100
AcDbLine
10
128.76573087395838
20
-83.765693873958341
30
0
11
128.76573087395835
21
-80.95319156145834
31
0
0
LINE
5
558
100
AcDbEntity
8
0
100
AcDbLine
10
128.76573087395835
20
-80.95319156145834
30
0
11
134.39073549895835
21
-80.95319156145834
31
0
0
LINE
5
559
100
AcDbEntity
8
0
100
AcDbLine
10
134.39073549895835
20
-80.95319156145834
30
0
11
134.39073549895835
21
-83.765693873958341
31
0
0
LINE
5
560
100
AcDbEntity
8
0
100
AcDbLine
10
134.39073549895835
20
-83.765693873958341
30
0
11
140.01574012395835
21
-83.765693873958341
31
0
0
LINE
5
561
100
AcDbEntity
8
0
100
AcDbLine
10
140.01574012395835
20
-83.765693873958341
30
0
11
140.01574012395832
21
-80.95319156145834
31
0
0
LINE
5
562
100
AcDbEntity
8
0
100
AcDbLine
10
140.01574012395832
20
-80.95319156145834
30
0
11
147.98449667604169
21
-80.95319156145834
31
0
0
LINE
5
563
100
AcDbEntity
8
0
100
AcDbLine
10
147.98449667604169
20
-80.95319156145834
30
0
11
147.98449667604169
21
-83.765693873958341
31
0
0
LINE
5
564
100
AcDbEntity
8
0
100
AcDbLine
10
147.98449667604169
20
-83.765693873958341
30
0
11
153.14075091562503
21
-83.765693873958341
31
0
0
LINE
5
565
100
AcDbEntity
8
0
100
AcDbLine
10
153.14075091562503
20
-83.765693873958341
30
0
11
153.14075091562503
21
-88.453197728125005
31
0
0
LINE
5
566
100
AcDbEntity
8
0
100
AcDbLine
10
153.14075091562503
20
-88.453197728125005
30
0
11
155.95325322812502
21
-88.453197728125005
31
0
0
LINE
5
567
100
AcDbEntity
8
0
100
AcDbLine
10
155.95325322812502
20
-88.453197728125005
30
0
11
155.95325322812502
21
-95.95320389479167
31
0
0
LINE
5
568
100
AcDbEntity
8
0
100
AcDbLine
10
155.95325322812502
20
-95.95320389479167
30
0
11
153.14075091562503
21
-95.95320389479167
31
0
0
LINE
5
569
100
AcDbEntity
8
0
100
AcDbLine
10
153.14075091562503
20
-95.95320389479167
30
0
11
153.14075091562503
21
-101.57820851979167
31
0
0
LINE
5
570
100
AcDbEntity
8
0
100
AcDbLine
10
153.14075091562503
20
-101.57820851979167
30
0
11
155.95325322812502
21
-101.57820851979167
31
0
0
LINE
5
571
100
AcDbEntity
8
0
100
AcDbLine
10
155.95325322812502
20
-101.57820851979167
30
0
11
155.95325322812502
21
-107.20321314479168
31
0
0
LINE
5
572
100
AcDbEntity
8
0
100
AcDbLine
10
155.95325322812502
20
-107.20321314479168
30
0
11
153.14075091562503
21
-107.20321314479166
31
0
0
LINE
5
573
100
AcDbEntity
8
0
100
AcDbLine
10
153.14075091562503
20
-107.20321314479166
30
0
11
153.14075091562503
21
-112.82821776979168
31
0
0
LINE
5
574
100
AcDbEntity
8
0
100
AcDbLine
10
153.14075091562503
20
-112.82821776979168
30
0
11
155.95325322812502
21
-112.82821776979168
31
0
0
LINE
5
575
100
AcDbEntity
8
0
100
AcDbLine
10
155.95325322812502
20
-112.82821776979168
30
0
11
155.95325322812502
21
-120.32822393645836
31
0
0
LINE
5
576
100
AcDbEntity
8
0
100
AcDbLine
10
155.95325322812502
20
-120.32822393645836
30
0
11
153.14075091562503
21
-120.32822393645836
31
0
0
LINE
5
577
100
AcDbEntity
8
0
100
AcDbLine
10
153.14075091562503
20
-120.32822393645836
30
0
11
153.14075091562506
21
-125.01572779062501
31
0
0
LINE
5
578
100
AcDbEntity
8
0
100
AcDbLine
10
153.14075091562506
20
-125.01572779062501
30
0
11
147.98449667604169
21
-125.01572779062501
31
0
0
LINE
5
579
100
AcDbEntity
8
0
100
AcDbLine
10
147.98449667604169
20
-125.01572779062501
30
0
11
147.98449667604169
21
-127.82823010312501
31
0
0
LINE
5
580
100
AcDbEntity
8
0
100
AcDbLine
10
147.98449667604169
20
-127.82823010312501
30
0
11
140.01574012395832
21
-127.82823010312501
31
0
0
LINE
5
581
100
AcDbEntity
8
0
100
AcDbLine
10
140.01574012395832
20
-127.82823010312501
30
0
11
140.01574012395832
21
-125.01572779062501
31
0
0
LINE
5
582
100
AcDbEntity
8
0
100
AcDbLine
10
140.01574012395832
20
-125.01572779062501
30
0
11
134.39073549895835
21
-125.01572779062501
31
0
0
LINE
5
583
100
AcDbEntity
8
0
100
AcDbLine
10
134.39073549895835
20
-125.01572779062501
30
0
11
134.39073549895835
21
-127.82823010312501
31
0
0
LINE
5
584
100
AcDbEntity
8
0
100
AcDbLine
10
134.39073549895835
20
-127.82823010312501
30
0
11
128.76573087395835
21
-127.82823010312501
31
0
0
LINE
5
585
100
AcDbEntity
8
0
100
AcDbLine
10
128.76573087395835
20
-127.82823010312501
30
0
11
128.76573087395835
21
-125.01572779062501
31
0
0
LINE
5
586
100
AcDbEntity
8
0
100
AcDbLine
10
128.76573087395835
20
-125.01572779062501
30
0
11
123.14072624895834
21
-125.01572779062501
31
0
0
LINE
5
587
100
AcDbEntity
8
0
100
AcDbLine
10
123.14072624895834
20
-125.01572779062501
30
0
11
123.14072624895836
21
-127.82823010312501
31
0
0
LINE
5
588
100
AcDbEntity
8
0
100
AcDbLine
10
123.14072624895836
20
-127.82823010312501
30
0
11
117.51572162395834
21
-127.82823010312501
31
0
0
LINE
5
589
100
AcDbEntity
8
0
100
AcDbLine
10
117.51572162395834
20
-127.82823010312501
30
0
11
117.51572162395834
21
-125.01572779062501
31
0
0
LINE
5
590
100
AcDbEntity
8
0
100
AcDbLine
10
117.51572162395834
20
-125.01572779062501
30
0
11
111.89071699895834
21
-125.01572779062501
31
0
0
LINE
5
591
100
AcDbEntity
8
0
100
AcDbLine
10
111.89071699895834
20
-125.01572779062501
30
0
11
111.89071699895835
21
-127.82823010312501
31
0
0
LINE
5
592
100
AcDbEntity
8
0
100
AcDbLine
10
111.89071699895835
20
-127.82823010312501
30
0
11
106.26571237395835
21
-127.82823010312501
31
0
0
LINE
5
593
100
AcDbEntity
8
0
100
AcDbLine
10
106.26571237395835
20
-127.82823010312501
30
0
11
106.26571237395835
21
-125.01572779062501
31
0
0
LINE
5
594
100
AcDbEntity
8
0
100
AcDbLine
10
106.26571237395835
20
-125.01572779062501
30
0
11
100.64070774895833
21
-125.01572779062501
31
0
0
LINE
5
595
100
AcDbEntity
8
0
100
AcDbLine
10
100.64070774895833
20
-125.01572779062501
30
0
11
100.64070774895833
21
-127.82823010312501
31
0
0
LINE
5
596
100
AcDbEntity
8
0
100
AcDbLine
10
100.64070774895833
20
-127.82823010312501
30
0
11
95.015703123958332
21
-127.82823010312501
31
0
0
LINE
5
597
100
AcDbEntity
8
0
100
AcDbLine
10
95.015703123958332
20
-127.82823010312501
30
0
11
95.015703123958346
21
-125.01572779062501
31
0
0
LINE
5
598
100
AcDbEntity
8
0
100
AcDbLine
10
95.015703123958346
20
-125.01572779062501
30
0
11
89.390698498958329
21
-125.01572779062501
31
0
0
LINE
5
599
100
AcDbEntity
8
0
100
AcDbLine
10
89.390698498958329
20
-125.01572779062501
30
0
11
89.390698498958329
21
-127.82823010312501
31
0
0
LINE
5
600
100
AcDbEntity
8
0
100
AcDbLine
10
89.390698498958329
20
-127.82823010312501
30
0
11
83.765693873958341
21
-127.82823010312501
31
0
0
LINE
5
601
100
AcDbEntity
8
0
100
AcDbLine
10
83.765693873958341
20
-127.82823010312501
30
0
11
83.765693873958355
21
-125.01572779062501
31
0
0
LINE
5
602
100
AcDbEntity
8
0
100
AcDbLine
10
83.765693873958355
20
-125.01572779062501
30
0
11
78.140689248958367
21
-125.01572779062501
31
0
0
LINE
5
603
100
AcDbEntity
8
0
100
AcDbLine
10
78.140689248958367
20
-125.01572779062501
30
0
11
78.140689248958353
21
-127.82823010312501
31
0
0
LINE
5
604
100
AcDbEntity
8
0
100
AcDbLine
10
78.140689248958353
20
-127.82823010312501
30
0
11
72.515684623958336
21
-127.82823010312501
31
0
0
LINE
5
605
100
AcDbEntity
8
0
100
AcDbLine
10
72.515684623958336
20
-127.82823010312501
30
0
11
72.515684623958336
21
-125.01572779062501
31
0
0
LINE
5
606
100
AcDbEntity
8
0
100
AcDbLine
10
72.515684623958336
20
-125.01572779062501
30
0
11
66.890679998958348
21
-125.01572779062501
31
0
0
LINE
5
607
100
AcDbEntity
8
0
100
AcDbLine
10
66.890679998958348
20
-125.01572779062501
30
0
11
66.890679998958348
21
-127.82823010312501
31
0
0
LINE
5
608
100
AcDbEntity
8
0
100
AcDbLine
10
66.890679998958348
20
-127.82823010312501
30
0
11
61.265675373958345
21
-127.82823010312501
31
0
0
LINE
5
609
100
AcDbEntity
8
0
100
AcDbLine
10
61.265675373958345
20
-127.82823010312501
30
0
11
61.265675373958345
21
-125.01572779062501
31
0
0
LINE
5
610
100
AcDbEntity
8
0
100
AcDbLine
10
61.265675373958345
20
-125.01572779062501
30
0
11
55.640670748958343
21
-125.01572779062501
31
0
0
LINE
5
611
100
AcDbEntity
8
0
100
AcDbLine
10
55.640670748958343
20
-125.01572779062501
30
0
11
55.640670748958343
21
-127.82823010312501
31
0
0
LINE
5
612
100
AcDbEntity
8
0
100
AcDbLine
10
55.640670748958343
20
-127.82823010312501
30
0
11
50.015666123958347
21
-127.82823010312501
31
0
0
LINE
5
613
100
AcDbEntity
8
0
100
AcDbLine
10
50.015666123958347
20
-127.82823010312501
30
0
11
50.015666123958347
21
-125.01572779062501
31
0
0
LINE
5
614
100
AcDbEntity
8
0
100
AcDbLine
10
50.015666123958347
20
-125.01572779062501
30
0
11
44.390661498958352
21
-125.01572779062501
31
0
0
LINE
5
615
100
AcDbEntity
8
0
100
AcDbLine
10
44.390661498958352
20
-125.01572779062501
30
0
11
44.390661498958337
21
-127.82823010312501
31
0
0
LINE
5
616
100
AcDbEntity
8
0
100
AcDbLine
10
44.390661498958337
20
-127.82823010312501
30
0
11
38.765656873958335
21
-127.82823010312501
31
0
0
LINE
5
617
100
AcDbEntity
8
0
100
AcDbLine
10
38.765656873958335
20
-127.82823010312501
30
0
11
38.765656873958342
21
-125.01572779062501
31
0
0
LINE
5
618
100
AcDbEntity
8
0
100
AcDbLine
10
38.765656873958342
20
-125.01572779062501
30
0
11
33.140652248958339
21
-125.01572779062501
31
0
0
LINE
5
619
100
AcDbEntity
8
0
100
AcDbLine
10
33.140652248958339
20
-125.01572779062501
30
0
11
33.140652248958339
21
-127.82823010312501
31
0
0
LINE
5
620
100
AcDbEntity
8
0
100
AcDbLine
10
33.140652248958339
20
-127.82823010312501
30
0
11
27.515647623958337
21
-127.82823010312501
31
0
0
LINE
5
621
100
AcDbEntity
8
0
100
AcDbLine
10
27.515647623958337
20
-127.82823010312501
30
0
11
27.515647623958333
21
-125.01572779062501
31
0
0
LINE
5
622
100
AcDbEntity
8
0
100
AcDbLine
10
27.515647623958333
20
-125.01572779062501
30
0
11
21.890642998958334
21
-125.01572779062501
31
0
0
LINE
5
623
100
AcDbEntity
8
0
100
AcDbLine
10
21.890642998958334
20
-125.01572779062501
30
0
11
21.890642998958334
21
-127.82823010312501
31
0
0
LINE
5
624
100
AcDbEntity
8
0
100
AcDbLine
10
21.890642998958334
20
-127.82823010312501
30
0
11
13.921886446875003
21
-127.82823010312501
31
0
0
LINE
5
625
100
AcDbEntity
8
0
100
AcDbLine
10
13.921886446875003
20
-127.82823010312501
30
0
11
13.921886446875003
21
-125.01572779062501
31
0
0
LINE
5
626
100
AcDbEntity
8
0
100
AcDbLine
10
13.921886446875003
20
-125.01572779062501
30
0
11
8.7656322072916684
21
-125.01572779062501
31
0
0
LINE
5
627
100
AcDbEntity
8
0
100
AcDbLine
10
8.7656322072916684
20
-125.01572779062501
30
0
11
8.7656322072916666
21
-120.32822393645836
31
0
0
LINE
5
628
100
AcDbEntity
8
0
100
AcDbLine
10
8.7656322072916666
20
-120.32822393645836
30
0
11
5.9531298947916671
21
-120.32822393645836
31
0
0
LINE
5
629
100
AcDbEntity
8
0
100
AcDbLine
10
5.9531298947916671
20
-120.32822393645836
30
0
11
5.953129894791668
21
-112.82821776979168
31
0
0
LINE
5
630
100
AcDbEntity
8
0
100
AcDbLine
10
5.953129894791668
20
-112.82821776979168
30
0
11
8.7656322072916666
21
-112.82821776979168
31
0
0
LINE
5
631
100
AcDbEntity
8
0
100
AcDbLine
10
8.7656322072916666
20
-112.82821776979168
30
0
11
8.7656322072916666
21
-107.20321314479166
31
0
0
LINE
5
632
100
AcDbEntity
8
0
100
AcDbLine
10
8.7656322072916666
20
-107.20321314479166
30
0
11
5.9531298947916671
21
-107.20321314479166
31
0
0
LINE
5
633
100
AcDbEntity
8
0
100
AcDbLine
10
5.9531298947916671
20
-107.20321314479166
30
0
11
5.953129894791668
21
-101.57820851979166
31
0
0
LINE
5
634
100
AcDbEntity
8
0
100
AcDbLine
10
5.953129894791668
20
-101.57820851979166
30
0
11
8.7656322072916666
21
-101.57820851979167
31
0
0
LINE
5
635
100
AcDbEntity
8
0
100
AcDbLine
10
8.7656322072916666
20
-101.57820851979167
30
0
11
8.7656322072916666
21
-95.95320389479167
31
0
0
LINE
5
636
100
AcDbEntity
8
0
100
AcDbLine
10
8.7656322072916666
20
-95.95320389479167
30
0
11
5.9531298947916671
21
-95.95320389479167
31
0
0
LINE
5
637
100
AcDbEntity
8
0
100
AcDbLine
10
5.9531298947916671
20
-95.95320389479167
30
0
11
5.953129894791668
21
-88.453197728125005
31
0
0
LINE
5
638
100
AcDbEntity
8
0
100
AcDbLine
10
5.953129894791668
20
-88.453197728125005
30
0
11
8.7656322072916666
21
-88.453197728125005
31
0
0
LINE
5
639
100
AcDbEntity
8
0
100
AcDbLine
10
8.7656322072916666
20
-88.453197728125005
30
0
11
8.7656322072916666
21
-83.765693873958341
31
0
0
LINE
5
640
100
AcDbEntity
8
0
100
AcDbLine
10
158.76575554062501
20
-83.765693873958341
30
0
11
163.92200978020836
21
-83.765693873958341
31
0
0
LINE
5
641
100
AcDbEntity
8
0
100
AcDbLine
10
163.92200978020836
20
-83.765693873958341
30
0
11
163.92200978020836
21
-80.95319156145834
31
0
0
LINE
5
642
100
AcDbEntity
8
0
100
AcDbLine
10
163.92200978020836
20
-80.95319156145834
30
0
11
171.89076633229166
21
-80.95319156145834
31
0
0
LINE
5
643
100
AcDbEntity
8
0
100
AcDbLine
10
171.89076633229166
20
-80.95319156145834
30
0
11
171.89076633229166
21
-83.765693873958341
31
0
0
LINE
5
644
100
AcDbEntity
8
0
100
AcDbLine
10
171.89076633229166
20
-83.765693873958341
30
0
11
177.51577095729169
21
-83.765693873958341
31
0
0
LINE
5
645
100
AcDbEntity
8
0
100
AcDbLine
10
177.51577095729169
20
-83.765693873958341
30
0
11
177.51577095729169
21
-80.95319156145834
31
0
0
LINE
5
646
100
AcDbEntity
8
0
100
AcDbLine
10
177.51577095729169
20
-80.95319156145834
30
0
11
183.14077558229167
21
-80.95319156145834
31
0
0
LINE
5
647
100
AcDbEntity
8
0
100
AcDbLine
10
183.14077558229167
20
-80.95319156145834
30
0
11
183.1407755822917
21
-83.765693873958341
31
0
0
LINE
5
648
100
AcDbEntity
8
0
100
AcDbLine
10
183.1407755822917
20
-83.765693873958341
30
0
11
188.7657802072917
21
-83.765693873958341
31
0
0
LINE
5
649
100
AcDbEntity
8
0
100
AcDbLine
10
188.7657802072917
20
-83.765693873958341
30
0
11
188.76578020729167
21
-80.95319156145834
31
0
0
LINE
5
650
100
AcDbEntity
8
0
100
AcDbLine
10
188.76578020729167
20
-80.95319156145834
30
0
11
194.39078483229167
21
-80.95319156145834
31
0
0
LINE
5
651
100
AcDbEntity
8
0
100
AcDbLine
10
194.39078483229167
20
-80.95319156145834
30
0
11
194.39078483229167
21
-83.765693873958341
31
0
0
LINE
5
652
100
AcDbEntity
8
0
100
AcDbLine
10
194.39078483229167
20
-83.765693873958341
30
0
11
200.01578945729167
21
-83.765693873958341
31
0
0
LINE
5
653
100
AcDbEntity
8
0
100
AcDbLine
10
200.01578945729167
20
-83.765693873958341
30
0
11
200.01578945729167
21
-80.95319156145834
31
0
0
LINE
5
654
100
AcDbEntity
8
0
100
AcDbLine
10
200.01578945729167
20
-80.95319156145834
30
0
11
205.64079408229168
21
-80.95319156145834
31
0
0
LINE
5
655
100
AcDbEntity
8
0
100
AcDbLine
10
205.64079408229168
20
-80.95319156145834
30
0
11
205.64079408229168
21
-83.765693873958341
31
0
0
LINE
5
656
100
AcDbEntity
8
0
100
AcDbLine
10
205.64079408229168
20
-83.765693873958341
30
0
11
211.26579870729171
21
-83.765693873958341
31
0
0
LINE
5
657
100
AcDbEntity
8
0
100
AcDbLine
10
211.26579870729171
20
-83.765693873958341
30
0
11
211.26579870729171
21
-80.95319156145834
31
0
0
LINE
5
658
100
AcDbEntity
8
0
100
AcDbLine
10
211.26579870729171
20
-80.95319156145834
30
0
11
216.89080333229168
21
-80.95319156145834
31
0
0
LINE
5
659
100
AcDbEntity
8
0
100
AcDbLine
10
216.89080333229168
20
-80.95319156145834
30
0
11
216.89080333229168
21
-83.765693873958341
31
0
0
LINE
5
660
100
AcDbEntity
8
0
100
AcDbLine
10
216.89080333229168
20
-83.765693873958341
30
0
11
222.51580795729168
21
-83.765693873958341
31
0
0
LINE
5
661
100
AcDbEntity
8
0
100
AcDbLine
10
222.51580795729168
20
-83.765693873958341
30
0
11
222.51580795729168
21
-80.95319156145834
31
0
0
LINE
5
662
100
AcDbEntity
8
0
100
AcDbLine
10
222.51580795729168
20
-80.95319156145834
30
0
11
228.14081258229169
21
-80.95319156145834
31
0
0
LINE
5
663
100
AcDbEntity
8
0
100
AcDbLine
10
228.14081258229169
20
-80.95319156145834
30
0
11
228.14081258229169
21
-83.765693873958341
31
0
0
LINE
5
664
100
AcDbEntity
8
0
100
AcDbLine
10
228.14081258229169
20
-83.765693873958341
30
0
11
233.76581720729172
21
-83.765693873958341
31
0
0
LINE
5
665
100
AcDbEntity
8
0
100
AcDbLine
10
233.76581720729172
20
-83.765693873958341
30
0
11
233.76581720729172
21
-80.95319156145834
31
0
0
LINE
5
666
100
AcDbEntity
8
0
100
AcDbLine
10
233.76581720729172
20
-80.95319156145834
30
0
11
239.39082183229169
21
-80.95319156145834
31
0
0
LINE
5
667
100
AcDbEntity
8
0
100
AcDbLine
10
239.39082183229169
20
-80.95319156145834
30
0
11
239.39082183229169
21
-83.765693873958341
31
0
0
LINE
5
668
100
AcDbEntity
8
0
100
AcDbLine
10
239.39082183229169
20
-83.765693873958341
30
0
11
245.01582645729167
21
-83.765693873958341
31
0
0
LINE
5
669
100
AcDbEntity
8
0
100
AcDbLine
10
245.01582645729167
20
-83.765693873958341
30
0
11
245.01582645729167
21
-80.95319156145834
31
0
0
LINE
5
670
100
AcDbEntity
8
0
100
AcDbLine
10
245.01582645729167
20
-80.95319156145834
30
0
11
250.6408310822917
21
-80.95319156145834
31
0
0
LINE
5
671
100
AcDbEntity
8
0
100
AcDbLine
10
250.6408310822917
20
-80.95319156145834
30
0
11
250.6408310822917
21
-83.765693873958341
31
0
0
LINE
5
672
100
AcDbEntity
8
0
100
AcDbLine
10
250.6408310822917
20
-83.765693873958341
30
0
11
256.26583570729167
21
-83.765693873958341
31
0
0
LINE
5
673
100
AcDbEntity
8
0
100
AcDbLine
10
256.26583570729167
20
-83.765693873958341
30
0
11
256.26583570729167
21
-80.95319156145834
31
0
0
LINE
5
674
100
AcDbEntity
8
0
100
AcDbLine
10
256.26583570729167
20
-80.95319156145834
30
0
11
261.8908403322917
21
-80.95319156145834
31
0
0
LINE
5
675
100
AcDbEntity
8
0
100
AcDbLine
10
261.8908403322917
20
-80.95319156145834
30
0
11
261.8908403322917
21
-83.765693873958341
31
0
0
LINE
5
676
100
AcDbEntity
8
0
100
AcDbLine
10
261.8908403322917
20
-83.765693873958341
30
0
11
267.51584495729168
21
-83.765693873958341
31
0
0
LINE
5
677
100
AcDbEntity
8
0
100
AcDbLine
10
267.51584495729168
20
-83.765693873958341
30
0
11
267.51584495729168
21
-80.95319156145834
31
0
0
LINE
5
678
100
AcDbEntity
8
0
100
AcDbLine
10
267.51584495729168
20
-80.95319156145834
30
0
11
273.14084958229171
21
-80.95319156145834
31
0
0
LINE
5
679
100
AcDbEntity
8
0
100
AcDbLine
10
273.14084958229171
20
-80.95319156145834
30
0
11
273.14084958229171
21
-83.765693873958341
31
0
0
LINE
5
680
100
AcDbEntity
8
0
100
AcDbLine
10
273.14084958229171
20
-83.765693873958341
30
0
11
278.76585420729168
21
-83.765693873958341
31
0
0
LINE
5
681
100
AcDbEntity
8
0
100
AcDbLine
10
278.76585420729168
20
-83.765693873958341
30
0
11
278.76585420729168
21
-80.95319156145834
31
0
0
LINE
5
682
100
AcDbEntity
8
0
100
AcDbLine
10
278.76585420729168
20
-80.95319156145834
30
0
11
284.39085883229171
21
-80.95319156145834
31
0
0
LINE
5
683
100
AcDbEntity
8
0
100
AcDbLine
10
284.39085883229171
20
-80.95319156145834
30
0
11
284.39085883229171
21
-83.765693873958341
31
0
0
LINE
5
684
100
AcDbEntity
8
0
100
AcDbLine
10
284.39085883229171
20
-83.765693873958341
30
0
11
290.01586345729169
21
-83.765693873958341
31
0
0
LINE
5
685
100
AcDbEntity
8
0
100
AcDbLine
10
290.01586345729169
20
-83.765693873958341
30
0
11
290.01586345729169
21
-80.95319156145834
31
0
0
LINE
5
686
100
AcDbEntity
8
0
100
AcDbLine
10
290.01586345729169
20
-80.95319156145834
30
0
11
297.98462000937502
21
-80.95319156145834
31
0
0
LINE
5
687
100
AcDbEntity
8
0
100
AcDbLine
10
297.98462000937502
20
-80.95319156145834
30
0
11
297.98462000937502
21
-83.765693873958341
31
0
0
LINE
5
688
100
AcDbEntity
8
0
100
AcDbLine
10
297.98462000937502
20
-83.765693873958341
30
0
11
303.14087424895837
21
-83.765693873958341
31
0
0
LINE
5
689
100
AcDbEntity
8
0
100
AcDbLine
10
303.14087424895837
20
-83.765693873958341
30
0
11
303.14087424895837
21
-88.453197728125005
31
0
0
LINE
5
690
100
AcDbEntity
8
0
100
AcDbLine
10
303.14087424895837
20
-88.453197728125005
30
0
11
305.9533765614583
21
-88.453197728125005
31
0
0
LINE
5
691
100
AcDbEntity
8
0
100
AcDbLine
10
305.9533765614583
20
-88.453197728125005
30
0
11
305.95337656145836
21
-95.95320389479167
31
0
0
LINE
5
692
100
AcDbEntity
8
0
100
AcDbLine
10
305.95337656145836
20
-95.95320389479167
30
0
11
303.14087424895837
21
-95.95320389479167
31
0
0
LINE
5
693
100
AcDbEntity
8
0
100
AcDbLine
10
303.14087424895837
20
-95.95320389479167
30
0
11
303.14087424895837
21
-101.57820851979167
31
0
0
LINE
5
694
100
AcDbEntity
8
0
100
AcDbLine
10
303.14087424895837
20
-101.57820851979167
30
0
11
305.9533765614583
21
-101.57820851979167
31
0
0
LINE
5
695
100
AcDbEntity
8
0
100
AcDbLine
10
305.9533765614583
20
-101.57820851979167
30
0
11
305.95337656145836
21
-107.20321314479168
31
0
0
LINE
5
696
100
AcDbEntity
8
0
100
AcDbLine
10
305.95337656145836
20
-107.20321314479168
30
0
11
303.14087424895837
21
-107.20321314479166
31
0
0
LINE
5
697
100
AcDbEntity
8
0
100
AcDbLine
10
303.14087424895837
20
-107.20321314479166
30
0
11
303.14087424895837
21
-112.82821776979168
31
0
0
LINE
5
698
100
AcDbEntity
8
0
100
AcDbLine
10
303.14087424895837
20
-112.82821776979168
30
0
11
305.9533765614583
21
-112.82821776979168
31
0
0
LINE
5
699
100
AcDbEntity
8
0
100
AcDbLine
10
305.9533765614583
20
-112.82821776979168
30
0
11
305.95337656145836
21
-120.32822393645836
31
0
0
LINE
5
700
100
AcDbEntity
8
0
100
AcDbLine
10
305.95337656145836
20
-120.32822393645836
30
0
11
303.14087424895837
21
-120.32822393645836
31
0
0
LINE
5
701
100
AcDbEntity
8
0
100
AcDbLine
10
303.14087424895837
20
-120.32822393645836
30
0
11
303.14087424895843
21
-125.01572779062501
31
0
0
LINE
5
702
100
AcDbEntity
8
0
100
AcDbLine
10
303.14087424895843
20
-125.01572779062501
30
0
11
297.98462000937502
21
-125.01572779062501
31
0
0
LINE
5
703
100
AcDbEntity
8
0
100
AcDbLine
10
297.98462000937502
20
-125.01572779062501
30
0
11
297.98462000937502
21
-127.82823010312501
31
0
0
LINE
5
704
100
AcDbEntity
8
0
100
AcDbLine
10
297.98462000937502
20
-127.82823010312501
30
0
11
290.01586345729163
21
-127.82823010312501
31
0
0
LINE
5
705
100
AcDbEntity
8
0
100
AcDbLine
10
290.01586345729163
20
-127.82823010312501
30
0
11
290.01586345729169
21
-125.01572779062501
31
0
0
LINE
5
706
100
AcDbEntity
8
0
100
AcDbLine
10
290.01586345729169
20
-125.01572779062501
30
0
11
284.39085883229171
21
-125.01572779062501
31
0
0
LINE
5
707
100
AcDbEntity
8
0
100
AcDbLine
10
284.39085883229171
20
-125.01572779062501
30
0
11
284.39085883229171
21
-127.82823010312501
31
0
0
LINE
5
708
100
AcDbEntity
8
0
100
AcDbLine
10
284.39085883229171
20
-127.82823010312501
30
0
11
278.76585420729168
21
-127.82823010312501
31
0
0
LINE
5
709
100
AcDbEntity
8
0
100
AcDbLine
10
278.76585420729168
20
-127.82823010312501
30
0
11
278.76585420729168
21
-125.01572779062501
31
0
0
LINE
5
710
100
AcDbEntity
8
0
100
AcDbLine
10
278.76585420729168
20
-125.01572779062501
30
0
11
273.14084958229171
21
-125.01572779062501
31
0
0
LINE
5
711
100
AcDbEntity
8
0
100
AcDbLine
10
273.14084958229171
20
-125.01572779062501
30
0
11
273.14084958229171
21
-127.82823010312501
31
0
0
LINE
5
712
100
AcDbEntity
8
0
100
AcDbLine
10
273.14084958229171
20
-127.82823010312501
30
0
11
267.51584495729168
21
-127.82823010312501
31
0
0
LINE
5
713
100
AcDbEntity
8
0
100
AcDbLine
10
267.51584495729168
20
-127.82823010312501
30
0
11
267.51584495729168
21
-125.01572779062501
31
0
0
LINE
5
714
100
AcDbEntity
8
0
100
AcDbLine
10
267.51584495729168
20
-125.01572779062501
30
0
11
261.8908403322917
21
-125.01572779062501
31
0
0
LINE
5
715
100
AcDbEntity
8
0
100
AcDbLine
10
261.8908403322917
20
-125.01572779062501
30
0
11
261.8908403322917
21
-127.82823010312501
31
0
0
LINE
5
716
100
AcDbEntity
8
0
100
AcDbLine
10
261.8908403322917
20
-127.82823010312501
30
0
11
256.26583570729167
21
-127.82823010312501
31
0
0
LINE
5
717
100
AcDbEntity
8
0
100
AcDbLine
10
256.26583570729167
20
-127.82823010312501
30
0
11
256.26583570729167
21
-125.01572779062501
31
0
0
LINE
5
718
100
AcDbEntity
8
0
100
AcDbLine
10
256.26583570729167
20
-125.01572779062501
30
0
11
250.6408310822917
21
-125.01572779062501
31
0
0
LINE
5
719
100
AcDbEntity
8
0
100
AcDbLine
10
250.6408310822917
20
-125.01572779062501
30
0
11
250.6408310822917
21
-127.82823010312501
31
0
0
LINE
5
720
100
AcDbEntity
8
0
100
AcDbLine
10
250.6408310822917
20
-127.82823010312501
30
0
11
245.01582645729167
21
-127.82823010312501
31
0
0
LINE
5
721
100
AcDbEntity
8
0
100
AcDbLine
10
245.01582645729167
20
-127.82823010312501
30
0
11
245.01582645729167
21
-125.01572779062501
31
0
0
LINE
5
722
100
AcDbEntity
8
0
100
AcDbLine
10
245.01582645729167
20
-125.01572779062501
30
0
11
239.39082183229169
21
-125.01572779062501
31
0
0
LINE
5
723
100
AcDbEntity
8
0
100
AcDbLine
10
239.39082183229169
20
-125.01572779062501
30
0
11
239.39082183229169
21
-127.82823010312501
31
0
0
LINE
5
724
100
AcDbEntity
8
0
100
AcDbLine
10
239.39082183229169
20
-127.82823010312501
30
0
11
233.76581720729166
21
-127.82823010312501
31
0
0
LINE
5
725
100
AcDbEntity
8
0
100
AcDbLine
10
233.76581720729166
20
-127.82823010312501
30
0
11
233.76581720729172
21
-125.01572779062501
31
0
0
LINE
5
726
100
AcDbEntity
8
0
100
AcDbLine
10
233.76581720729172
20
-125.01572779062501
30
0
11
228.14081258229169
21
-125.01572779062501
31
0
0
LINE
5
727
100
AcDbEntity
8
0
100
AcDbLine
10
228.14081258229169
20
-125.01572779062501
30
0
11
228.14081258229169
21
-127.82823010312501
31
0
0
LINE
5
728
100
AcDbEntity
8
0
100
AcDbLine
10
228.14081258229169
20
-127.82823010312501
30
0
11
222.51580795729168
21
-127.82823010312501
31
0
0
LINE
5
729
100
AcDbEntity
8
0
100
AcDbLine
10
222.51580795729168
20
-127.82823010312501
30
0
11
222.51580795729168
21
-125.01572779062501
31
0
0
LINE
5
730
100
AcDbEntity
8
0
100
AcDbLine
10
222.51580795729168
20
-125.01572779062501
30
0
11
216.89080333229168
21
-125.01572779062501
31
0
0
LINE
5
731
100
AcDbEntity
8
0
100
AcDbLine
10
216.89080333229168
20
-125.01572779062501
30
0
11
216.89080333229168
21
-127.82823010312501
31
0
0
LINE
5
732
100
AcDbEntity
8
0
100
AcDbLine
10
216.89080333229168
20
-127.82823010312501
30
0
11
211.26579870729165
21
-127.82823010312501
31
0
0
LINE
5
733
100
AcDbEntity
8
0
100
AcDbLine
10
211.26579870729165
20
-127.82823010312501
30
0
11
211.26579870729171
21
-125.01572779062501
31
0
0
LINE
5
734
100
AcDbEntity
8
0
100
AcDbLine
10
211.26579870729171
20
-125.01572779062501
30
0
11
205.64079408229168
21
-125.01572779062501
31
0
0
LINE
5
735
100
AcDbEntity
8
0
100
AcDbLine
10
205.64079408229168
20
-125.01572779062501
30
0
11
205.64079408229168
21
-127.82823010312501
31
0
0
LINE
5
736
100
AcDbEntity
8
0
100
AcDbLine
10
205.64079408229168
20
-127.82823010312501
30
0
11
200.01578945729167
21
-127.82823010312501
31
0
0
LINE
5
737
100
AcDbEntity
8
0
100
AcDbLine
10
200.01578945729167
20
-127.82823010312501
30
0
11
200.01578945729167
21
-125.01572779062501
31
0
0
LINE
5
738
100
AcDbEntity
8
0
100
AcDbLine
10
200.01578945729167
20
-125.01572779062501
30
0
11
194.39078483229167
21
-125.01572779062501
31
0
0
LINE
5
739
100
AcDbEntity
8
0
100
AcDbLine
10
194.39078483229167
20
-125.01572779062501
30
0
11
194.39078483229167
21
-127.82823010312501
31
0
0
LINE
5
740
100
AcDbEntity
8
0
100
AcDbLine
10
194.39078483229167
20
-127.82823010312501
30
0
11
188.76578020729167
21
-127.82823010312501
31
0
0
LINE
5
741
100
AcDbEntity
8
0
100
AcDbLine
10
188.76578020729167
20
-127.82823010312501
30
0
11
188.76578020729167
21
-125.01572779062501
31
0
0
LINE
5
742
100
AcDbEntity
8
0
100
AcDbLine
10
188.76578020729167
20
-125.01572779062501
30
0
11
183.14077558229167
21
-125.01572779062501
31
0
0
LINE
5
743
100
AcDbEntity
8
0
100
AcDbLine
10
183.14077558229167
20
-125.01572779062501
30
0
11
183.1407755822917
21
-127.82823010312501
31
0
0
LINE
5
744
100
AcDbEntity
8
0
100
AcDbLine
10
183.1407755822917
20
-127.82823010312501
30
0
11
177.51577095729169
21
-127.82823010312501
31
0
0
LINE
5
745
100
AcDbEntity
8
0
100
AcDbLine
10
177.51577095729169
20
-127.82823010312501
30
0
11
177.51577095729169
21
-125.01572779062501
31
0
0
LINE
5
746
100
AcDbEntity
8
0
100
AcDbLine
10
177.51577095729169
20
-125.01572779062501
30
0
11
171.89076633229166
21
-125.01572779062501
31
0
0
LINE
5
747
100
AcDbEntity
8
0
100
AcDbLine
10
171.89076633229166
20
-125.01572779062501
30
0
11
171.89076633229166
21
-127.82823010312501
31
0
0
LINE
5
748
100
AcDbEntity
8
0
100
AcDbLine
10
171.89076633229166
20
-127.82823010312501
30
0
11
163.92200978020836
21
-127.82823010312501
31
0
0
LINE
5
749
100
AcDbEntity
8
0
100
AcDbLine
10
163.92200978020836
20
-127.82823010312501
30
0
11
163.92200978020836
21
-125.01572779062501
31
0
0
LINE
5
750
100
AcDbEntity
8
0
100
AcDbLine
10
163.92200978020836
20
-125.01572779062501
30
0
11
158.76575554062498
21
-125.01572779062501
31
0
0
LINE
5
751
100
AcDbEntity
8
0
100
AcDbLine
10
158.76575554062498
20
-125.01572779062501
30
0
11
158.76575554062501
21
-120.32822393645836
31
0
0
LINE
5
752
100
AcDbEntity
8
0
100
AcDbLine
10
158.76575554062501
20
-120.32822393645836
30
0
11
155.95325322812502
21
-120.32822393645836
31
0
0
LINE
5
753
100
AcDbEntity
8
0
100
AcDbLine
10
155.95325322812502
20
-120.32822393645836
30
0
11
155.95325322812502
21
-112.82821776979168
31
0
0
LINE
5
754
100
AcDbEntity
8
0
100
AcDbLine
10
155.95325322812502
20
-112.82821776979168
30
0
11
158.76575554062501
21
-112.82821776979168
31
0
0
LINE
5
755
100
AcDbEntity
8
0
100
AcDbLine
10
158.76575554062501
20
-112.82821776979168
30
0
11
158.76575554062501
21
-107.20321314479166
31
0
0
LINE
5
756
100
AcDbEntity
8
0
100
AcDbLine
10
158.76575554062501
20
-107.20321314479166
30
0
11
155.95325322812502
21
-107.20321314479168
31
0
0
LINE
5
757
100
AcDbEntity
8
0
100
AcDbLine
10
155.95325322812502
20
-107.20321314479168
30
0
11
155.95325322812502
21
-101.57820851979167
31
0
0
LINE
5
758
100
AcDbEntity
8
0
100
AcDbLine
10
155.95325322812502
20
-101.57820851979167
30
0
11
158.76575554062501
21
-101.57820851979167
31
0
0
LINE
5
759
100
AcDbEntity
8
0
100
AcDbLine
10
158.76575554062501
20
-101.57820851979167
30
0
11
158.76575554062501
21
-95.95320389479167
31
0
0
LINE
5
760
100
AcDbEntity
8
0
100
AcDbLine
10
158.76575554062501
20
-95.95320389479167
30
0
11
155.95325322812502
21
-95.95320389479167
31
0
0
LINE
5
761
100
AcDbEntity
8
0
100
AcDbLine
10
155.95325322812502
20
-95.95320389479167
30
0
11
155.95325322812502
21
-88.453197728125005
31
0
0
LINE
5
762
100
AcDbEntity
8
0
100
AcDbLine
10
155.95325322812502
20
-88.453197728125005
30
0
11
158.76575554062501
21
-88.453197728125005
31
0
0
LINE
5
763
100
AcDbEntity
8
0
100
AcDbLine
10
158.76575554062501
20
-88.453197728125005
30
0
11
158.76575554062501
21
-83.765693873958341
31
0
0
ENDSEC
0
SECTION
2
OBJECTS
0
DICTIONARY
5
C
100
AcDbDictionary
3
ACAD_GROUP
350
D
3
ACAD_MLINESTYLE
350
17
0
DICTIONARY
5
D
100
AcDbDictionary
0
DICTIONARY
5
1A
330
C
100
AcDbDictionary
0
DICTIONARY
5
17
100
AcDbDictionary
0
ENDSEC
0
EOF
