  0
SECTION
  2
HEADER
  9
$ACADVER
  1
AC1009
  9
$INSBASE
 10
0.0
 20
0.0
 30
0.0
  9
$EXTMIN
 10
0.0
 20
0.0
 30
0.0
  9
$EXTMAX
 10
0.0
 20
0.0
 30
0.0
  0
ENDSEC
  0
SECTION
  2
TABLES
  0
TABLE
  2
VPORT
 70
0
  0
ENDTAB
  0
TABLE
  2
LTYPE
 70
1
  0
LTYPE
  2
CONTINUOUS
 70
0
  3
Solid line
 72
65
 73
0
 40
0.0
  0
ENDTAB
  0
TABLE
  2
LAYER
 70
1
  0
LAYER
  2
0
 70
64
 62
7
  6
continuous
  0
ENDTAB
  0
TABLE
  2
STYLE
 70
1
  0
STYLE
  2
STANDARD
 70
0
 40
0
 41
1.0
 50
0.0
 71
0
 42
1
 3
ARIAL.TTF
 4

  0
ENDTAB
  0
TABLE
  2
VIEW
 70
0
  0
ENDTAB
  0
ENDSEC
  0
SECTION
  2
BLOCKS
  0
BLOCK
  8
0
  2
SHAPE2DVIEW
 70
0
 10
0.0
 20
0.0
 30
0.0
  3
SHAPE2DVIEW
  0
ARC
  8
0
 62
0
 10
0.0
 20
0.0
 30
0.0
 40
30.0
 50
3.2006787725614334
 51
41.79932122743863
  0
LINE
  8
0
 62
0
 10
22.36451687754381
 20
19.99570916056887
 30
0.0
 11
18.154966606964614
 21
15.786158889989672
 31
0.0
  0
LINE
  8
0
 62
0
 10
15.786158889989672
 20
-18.15496660696461
 30
0.0
 11
18.154966606964607
 21
-15.786158889989675
 31
0.0
  0
LINE
  8
0
 62
0
 10
19.995709160568865
 20
-22.364516877543807
 30
0.0
 11
15.786158889989672
 21
-18.154966606964614
 31
0.0
  0
ARC
  8
0
 62
0
 10
0.0
 20
0.0
 30
0.0
 40
30.0
 50
-86.79932122743861
 51
-48.200678772561425
  0
LINE
  8
0
 62
0
 10
1.6749999999999972
 20
-24.0
 30
0.0
 11
1.6749999999999965
 21
-29.953203084144434
 31
0.0
  0
LINE
  8
0
 62
0
 10
-1.675000000000003
 20
-24.0
 30
0.0
 11
1.6749999999999972
 21
-24.0
 31
0.0
  0
LINE
  8
0
 62
0
 10
-1.6750000000000038
 20
-29.9532030841445
 30
0.0
 11
-1.6750000000000032
 21
-24.0
 31
0.0
  0
ARC
  8
0
 62
0
 10
0.0
 20
0.0
 30
0.0
 40
30.0
 50
-131.79932122743867
 51
-93.20067877256024
  0
LINE
  8
0
 62
0
 10
-15.786158889989675
 20
-18.154966606964607
 30
0.0
 11
-19.99570916056888
 21
-22.364516877543807
 31
0.0
  0
LINE
  8
0
 62
0
 10
-18.15496660696461
 20
-15.786158889989672
 30
0.0
 11
-15.786158889989675
 21
-18.154966606964607
 31
0.0
  0
LINE
  8
0
 62
0
 10
-22.36451687754381
 20
-19.99570916056887
 30
0.0
 11
-18.154966606964607
 21
-15.786158889989672
 31
0.0
  0
ARC
  8
0
 62
0
 10
0.0
 20
0.0
 30
0.0
 40
30.0
 50
-176.79932122743858
 51
-138.2006787725614
  0
LINE
  8
0
 62
0
 10
-24.0
 20
-1.6749999999999974
 30
0.0
 11
-29.95320308414443
 21
-1.6749999999999967
 31
0.0
  0
LINE
  8
0
 62
0
 10
-24.0
 20
1.6750000000000027
 30
0.0
 11
-24.0
 21
-1.6749999999999974
 31
0.0
  0
LINE
  8
0
 62
0
 10
-29.95320308414438
 20
1.6750000000000034
 30
0.0
 11
-24.0
 21
1.6750000000000027
 31
0.0
  0
ARC
  8
0
 62
0
 10
0.0
 20
0.0
 30
0.0
 40
30.0
 50
138.2006787725614
 51
176.7993212274378
  0
LINE
  8
0
 62
0
 10
-18.154966606964607
 20
15.786158889989675
 30
0.0
 11
-22.364516877543803
 21
19.99570916056887
 31
0.0
  0
LINE
  8
0
 62
0
 10
-15.786158889989672
 20
18.15496660696461
 30
0.0
 11
-18.154966606964607
 21
15.786158889989675
 31
0.0
  0
LINE
  8
0
 62
0
 10
-19.99570916056887
 20
22.364516877543807
 30
0.0
 11
-15.786158889989672
 21
18.154966606964607
 31
0.0
  0
ARC
  8
0
 62
0
 10
0.0
 20
0.0
 30
0.0
 40
30.0
 50
93.20067877256145
 51
131.79932122743864
  0
LINE
  8
0
 62
0
 10
-1.675
 20
24.0
 30
0.0
 11
-1.675
 21
29.953203084144434
 31
0.0
  0
LINE
  8
0
 62
0
 10
1.675
 20
24.0
 30
0.0
 11
-1.675
 21
24.0
 31
0.0
  0
LINE
  8
0
 62
0
 10
1.675
 20
29.95320308414447
 30
0.0
 11
1.675
 21
24.0
 31
0.0
  0
ARC
  8
0
 62
0
 10
0.0
 20
0.0
 30
0.0
 40
30.0
 50
48.20067877256137
 51
86.79932122743922
  0
LINE
  8
0
 62
0
 10
15.786158889989675
 20
18.154966606964607
 30
0.0
 11
19.995709160568875
 21
22.364516877543803
 31
0.0
  0
LINE
  8
0
 62
0
 10
18.15496660696461
 20
15.786158889989672
 30
0.0
 11
15.786158889989675
 21
18.154966606964607
 31
0.0
  0
LINE
  8
0
 62
0
 10
24.0
 20
1.6749999999999947
 30
0.0
 11
29.953203084144437
 21
1.6749999999999934
 31
0.0
  0
LINE
  8
0
 62
0
 10
24.0
 20
-1.6750000000000054
 30
0.0
 11
24.0
 21
1.6749999999999947
 31
0.0
  0
LINE
  8
0
 62
0
 10
29.95320308414444
 20
-1.6750000000000067
 30
0.0
 11
24.0
 21
-1.6750000000000054
 31
0.0
  0
ARC
  8
0
 62
0
 10
0.0
 20
0.0
 30
0.0
 40
30.0
 50
-41.79932122743866
 51
-3.2006787725614334
  0
LINE
  8
0
 62
0
 10
18.154966606964607
 20
-15.786158889989675
 30
0.0
 11
22.364516877543807
 21
-19.99570916056888
 31
0.0
  0
ENDBLK
  0
ENDSEC
  0
SECTION
  2
ENTITIES
  0
INSERT
  2
SHAPE2DVIEW
  8
0
 62
0
 10
0.0
 20
0.0
 30
0.0
  0
ENDSEC
  0
EOF
