  0
SECTION
  2
HEADER
  9
$ACADVER
  1
AC1014
  9
$ACADMAINTVER
 70
     9
  9
$DWGCODEPAGE
  3
ANSI_1252
  9
$INSBASE
 10
0.0
 20
0.0
 30
0.0
  9
$EXTMIN
 10
-1627.207188847055
 20
-1034.346378181172
 30
0.0
  9
$EXTMAX
 10
2440.0
 20
1220.0
 30
0.0
  9
$LIMMIN
 10
0.0
 20
0.0
  9
$LIMMAX
 10
12.0
 20
9.0
  9
$ORTHOMODE
 70
     0
  9
$REGENMODE
 70
     1
  9
$FILLMODE
 70
     1
  9
$QTEXTMODE
 70
     0
  9
$MIRRTEXT
 70
     1
  9
$DRAGMODE
 70
     2
  9
$LTSCALE
 40
1.0
  9
$OSMODE
 70
    37
  9
$ATTMODE
 70
     1
  9
$TEXTSIZE
 40
0.2
  9
$TRACEWID
 40
0.05
  9
$TEXTSTYLE
  7
STANDARD
  9
$CLAYER
  8
DEFAULT
  9
$CELTYPE
  6
BYLAYER
  9
$CECOLOR
 62
   256
  9
$CELTSCALE
 40
1.0
  9
$DELOBJ
 70
     1
  9
$DISPSILH
 70
     0
  9
$DIMSCALE
 40
1.0
  9
$DIMASZ
 40
0.18
  9
$DIMEXO
 40
0.0625
  9
$DIMDLI
 40
0.38
  9
$DIMRND
 40
0.0
  9
$DIMDLE
 40
0.0
  9
$DIMEXE
 40
0.18
  9
$DIMTP
 40
0.0
  9
$DIMTM
 40
0.0
  9
$DIMTXT
 40
0.18
  9
$DIMCEN
 40
0.09
  9
$DIMTSZ
 40
0.0
  9
$DIMTOL
 70
     0
  9
$DIMLIM
 70
     0
  9
$DIMTIH
 70
     1
  9
$DIMTOH
 70
     1
  9
$DIMSE1
 70
     0
  9
$DIMSE2
 70
     0
  9
$DIMTAD
 70
     0
  9
$DIMZIN
 70
     0
  9
$DIMBLK
  1

  9
$DIMASO
 70
     1
  9
$DIMSHO
 70
     1
  9
$DIMPOST
  1

  9
$DIMAPOST
  1

  9
$DIMALT
 70
     0
  9
$DIMALTD
 70
     2
  9
$DIMALTF
 40
25.4
  9
$DIMLFAC
 40
1.0
  9
$DIMTOFL
 70
     0
  9
$DIMTVP
 40
0.0
  9
$DIMTIX
 70
     0
  9
$DIMSOXD
 70
     0
  9
$DIMSAH
 70
     0
  9
$DIMBLK1
  1

  9
$DIMBLK2
  1

  9
$DIMSTYLE
  2
STANDARD
  9
$DIMCLRD
 70
     0
  9
$DIMCLRE
 70
     0
  9
$DIMCLRT
 70
     0
  9
$DIMTFAC
 40
1.0
  9
$DIMGAP
 40
0.09
  9
$DIMJUST
 70
     0
  9
$DIMSD1
 70
     0
  9
$DIMSD2
 70
     0
  9
$DIMTOLJ
 70
     1
  9
$DIMTZIN
 70
     0
  9
$DIMALTZ
 70
     0
  9
$DIMALTTZ
 70
     0
  9
$DIMFIT
 70
     3
  9
$DIMUPT
 70
     0
  9
$DIMUNIT
 70
     2
  9
$DIMDEC
 70
     4
  9
$DIMTDEC
 70
     4
  9
$DIMALTU
 70
     2
  9
$DIMALTTD
 70
     2
  9
$DIMTXSTY
  7
STANDARD
  9
$DIMAUNIT
 70
     0
  9
$LUNITS
 70
     2
  9
$LUPREC
 70
     3
  9
$SKETCHINC
 40
0.1
  9
$FILLETRAD
 40
0.5
  9
$AUNITS
 70
     0
  9
$AUPREC
 70
     0
  9
$MENU
  1
.
  9
$ELEVATION
 40
0.0
  9
$PELEVATION
 40
0.0
  9
$THICKNESS
 40
0.0
  9
$LIMCHECK
 70
     0
  9
$CHAMFERA
 40
0.5
  9
$CHAMFERB
 40
0.5
  9
$CHAMFERC
 40
1.0
  9
$CHAMFERD
 40
0.0
  9
$SKPOLY
 70
     0
  9
$TDCREATE
 40
2458556.305406296
  9
$TDUPDATE
 40
2458556.347072974
  9
$TDINDWG
 40
0.0000000116
  9
$TDUSRTIMER
 40
0.0000000116
  9
$USRTIMER
 70
     1
  9
$ANGBASE
 50
0.0
  9
$ANGDIR
 70
     0
  9
$PDMODE
 70
     0
  9
$PDSIZE
 40
0.0
  9
$PLINEWID
 40
0.0
  9
$COORDS
 70
     1
  9
$SPLFRAME
 70
     0
  9
$SPLINETYPE
 70
     6
  9
$SPLINESEGS
 70
     8
  9
$ATTDIA
 70
     0
  9
$ATTREQ
 70
     1
  9
$HANDLING
 70
     1
  9
$HANDSEED
  5
13F
  9
$SURFTAB1
 70
     6
  9
$SURFTAB2
 70
     6
  9
$SURFTYPE
 70
     6
  9
$SURFU
 70
     6
  9
$SURFV
 70
     6
  9
$UCSNAME
  2

  9
$UCSORG
 10
0.0
 20
0.0
 30
0.0
  9
$UCSXDIR
 10
1.0
 20
0.0
 30
0.0
  9
$UCSYDIR
 10
0.0
 20
1.0
 30
0.0
  9
$PUCSNAME
  2

  9
$PUCSORG
 10
0.0
 20
0.0
 30
0.0
  9
$PUCSXDIR
 10
1.0
 20
0.0
 30
0.0
  9
$PUCSYDIR
 10
0.0
 20
1.0
 30
0.0
  9
$USERI1
 70
     0
  9
$USERI2
 70
     0
  9
$USERI3
 70
     0
  9
$USERI4
 70
     0
  9
$USERI5
 70
     0
  9
$USERR1
 40
0.0
  9
$USERR2
 40
0.0
  9
$USERR3
 40
0.0
  9
$USERR4
 40
0.0
  9
$USERR5
 40
0.0
  9
$WORLDVIEW
 70
     1
  9
$SHADEDGE
 70
     3
  9
$SHADEDIF
 70
    70
  9
$TILEMODE
 70
     1
  9
$MAXACTVP
 70
    64
  9
$PINSBASE
 10
0.0
 20
0.0
 30
0.0
  9
$PLIMCHECK
 70
     0
  9
$PEXTMIN
 10
1.000000000000000E+20
 20
1.000000000000000E+20
 30
1.000000000000000E+20
  9
$PEXTMAX
 10
-1.000000000000000E+20
 20
-1.000000000000000E+20
 30
-1.000000000000000E+20
  9
$PLIMMIN
 10
0.0
 20
0.0
  9
$PLIMMAX
 10
12.0
 20
9.0
  9
$UNITMODE
 70
     0
  9
$VISRETAIN
 70
     1
  9
$PLINEGEN
 70
     0
  9
$PSLTSCALE
 70
     1
  9
$TREEDEPTH
 70
  3020
  9
$PICKSTYLE
 70
     1
  9
$CMLSTYLE
  2
STANDARD
  9
$CMLJUST
 70
     0
  9
$CMLSCALE
 40
1.0
  9
$PROXYGRAPHICS
 70
     1
  9
$MEASUREMENT
 70
     0
  0
ENDSEC
  0
SECTION
  2
CLASSES
  0
CLASS
  1
ACDBDICTIONARYWDFLT
  2
AcDbDictionaryWithDefault
  3
ObjectDBX Classes
 90
        0
280
     0
281
     0
  0
CLASS
  1
XRECORD
  2
AcDbXrecord
  3
AutoCAD 2000
 90
        0
280
     0
281
     0
  0
CLASS
  1
LWPOLYLINE
  2
AcDbPolyline
  3
AutoCAD 2000
 90
        0
280
     0
281
     1
  0
CLASS
  1
HATCH
  2
AcDbHatch
  3
AutoCAD 2000
 90
        0
280
     0
281
     1
  0
CLASS
  1
ACDBPLACEHOLDER
  2
AcDbPlaceHolder
  3
ObjectDBX Classes
 90
        0
280
     0
281
     0
  0
CLASS
  1
LAYOUT
  2
AcDbLayout
  3
ObjectDBX Classes
 90
        0
280
     0
281
     0
  0
ENDSEC
  0
SECTION
  2
TABLES
  0
TABLE
  2
VPORT
  5
8
330
0
100
AcDbSymbolTable
 70
     2
  0
VPORT
  5
29
102
{ACAD_XDICTIONARY
360
13D
102
}
330
8
100
AcDbSymbolTableRecord
100
AcDbViewportTableRecord
  2
*ACTIVE
 70
     0
 10
0.0
 20
0.0
 11
1.0
 21
1.0
 12
1220.0
 22
610.0
 13
0.0
 23
0.0
 14
0.5
 24
0.5
 15
0.5
 25
0.5
 16
0.0
 26
0.0
 36
1.0
 17
0.0
 27
0.0
 37
0.0
 40
1525.01525
 41
1.6
 42
50.0
 43
0.0
 44
0.0
 50
0.0
 51
0.0
 71
     0
 72
   100
 73
     1
 74
     3
 75
     0
 76
     0
 77
     0
 78
     0
  0
ENDTAB
  0
TABLE
  2
LTYPE
  5
5
330
0
100
AcDbSymbolTable
 70
     1
  0
LTYPE
  5
14
330
5
100
AcDbSymbolTableRecord
100
AcDbLinetypeTableRecord
  2
BYBLOCK
 70
     0
  3

 72
    65
 73
     0
 40
0.0
  0
LTYPE
  5
15
330
5
100
AcDbSymbolTableRecord
100
AcDbLinetypeTableRecord
  2
BYLAYER
 70
     0
  3

 72
    65
 73
     0
 40
0.0
  0
LTYPE
  5
16
330
5
100
AcDbSymbolTableRecord
100
AcDbLinetypeTableRecord
  2
CONTINUOUS
 70
     0
  3
Solid line
 72
    65
 73
     0
 40
0.0
  0
ENDTAB
  0
TABLE
  2
LAYER
  5
2
330
0
100
AcDbSymbolTable
 70
     2
  0
LAYER
  5
10
330
2
100
AcDbSymbolTableRecord
100
AcDbLayerTableRecord
  2
0
 70
     0
 62
     7
  6
CONTINUOUS
  0
LAYER
  5
2A
330
2
100
AcDbSymbolTableRecord
100
AcDbLayerTableRecord
  2
DEFAULT
 70
     0
 62
     7
  6
CONTINUOUS
  0
ENDTAB
  0
TABLE
  2
STYLE
  5
3
330
0
100
AcDbSymbolTable
 70
     1
  0
STYLE
  5
11
330
3
100
AcDbSymbolTableRecord
100
AcDbTextStyleTableRecord
  2
STANDARD
 70
     0
 40
0.0
 41
1.0
 50
0.0
 71
     0
 42
0.2
  3
txt
  4

  0
ENDTAB
  0
TABLE
  2
VIEW
  5
6
330
0
100
AcDbSymbolTable
 70
     0
  0
ENDTAB
  0
TABLE
  2
UCS
  5
7
330
0
100
AcDbSymbolTable
 70
     0
  0
ENDTAB
  0
TABLE
  2
APPID
  5
9
330
0
100
AcDbSymbolTable
 70
     1
  0
APPID
  5
12
330
9
100
AcDbSymbolTableRecord
100
AcDbRegAppTableRecord
  2
ACAD
 70
     0
  0
ENDTAB
  0
TABLE
  2
DIMSTYLE
  5
A
330
0
100
AcDbSymbolTable
 70
     1
  0
DIMSTYLE
105
27
330
A
100
AcDbSymbolTableRecord
100
AcDbDimStyleTableRecord
  2
STANDARD
 70
     0
  3

  4

  5

  6

  7

 40
1.0
 41
0.18
 42
0.0625
 43
0.38
 44
0.18
 45
0.0
 46
0.0
 47
0.0
 48
0.0
140
0.18
141
0.09
142
0.0
143
25.4
144
1.0
145
0.0
146
1.0
147
0.09
 71
     0
 72
     0
 73
     1
 74
     1
 75
     0
 76
     0
 77
     0
 78
     0
170
     0
171
     2
172
     0
173
     0
174
     0
175
     0
176
     0
177
     0
178
     0
270
     2
271
     4
272
     4
273
     2
274
     2
340
11
275
     0
280
     0
281
     0
282
     0
283
     1
284
     0
285
     0
286
     0
287
     3
288
     0
  0
ENDTAB
  0
TABLE
  2
BLOCK_RECORD
  5
1
330
0
100
AcDbSymbolTable
 70
     4
  0
BLOCK_RECORD
  5
1F
330
1
100
AcDbSymbolTableRecord
100
AcDbBlockTableRecord
  2
*MODEL_SPACE
  0
BLOCK_RECORD
  5
1B
330
1
100
AcDbSymbolTableRecord
100
AcDbBlockTableRecord
  2
*PAPER_SPACE
  0
BLOCK_RECORD
  5
2F
330
1
100
AcDbSymbolTableRecord
100
AcDbBlockTableRecord
  2
ROCKING_CHAIR_BENT_17
  0
BLOCK_RECORD
  5
5F
330
1
100
AcDbSymbolTableRecord
100
AcDbBlockTableRecord
  2
ROCKING_CHAIR_STRAIGHT_3
  0
BLOCK_RECORD
  5
7D
330
1
100
AcDbSymbolTableRecord
100
AcDbBlockTableRecord
  2
ROCKING_CHAIR_PROFILE_2
  0
ENDTAB
  0
ENDSEC
  0
SECTION
  2
BLOCKS
  0
BLOCK
  5
20
330
1F
100
AcDbEntity
  8
0
100
AcDbBlockBegin
  2
*MODEL_SPACE
 70
     0
 71
     0
 10
0.0
 20
0.0
 30
0.0
  3
*MODEL_SPACE
  1

  0
ENDBLK
  5
21
330
1F
100
AcDbEntity
  8
0
100
AcDbBlockEnd
  0
BLOCK
  5
1C
330
1B
100
AcDbEntity
 67
     1
  8
0
100
AcDbBlockBegin
  2
*PAPER_SPACE
 70
     0
 71
     0
 10
0.0
 20
0.0
 30
0.0
  3
*PAPER_SPACE
  1

  0
ENDBLK
  5
1D
330
1B
100
AcDbEntity
 67
     1
  8
0
100
AcDbBlockEnd
  0
BLOCK
  5
4C
330
2F
100
AcDbEntity
  8
0
100
AcDbBlockBegin
  2
ROCKING_CHAIR_BENT_17
 70
     0
 71
     0
 10
0.0
 20
0.0
 30
0.0
  3
ROCKING_CHAIR_BENT_17
  1

  0
SPLINE
  5
30
330
2F
100
AcDbEntity
  8
0
100
AcDbSpline
210
0.0
220
0.0
230
1.0
 70
    24
 71
     1
 72
     4
 73
     2
 74
     0
 42
0.0000000001
 43
0.0000000001
 40
0.0
 40
0.0
 40
13.59999999998286
 40
13.59999999998286
 10
585.3077456131609
 20
791.7405554782148
 30
0.0
 10
598.9077456131438
 20
791.7405554782154
 30
0.0
  0
SPLINE
  5
31
330
2F
100
AcDbEntity
  8
0
100
AcDbSpline
210
0.0
220
0.0
230
1.0
 70
    12
 71
     2
 72
     6
 73
     3
 74
     0
 42
0.0000000001
 43
0.0000000001
 40
0.0
 40
0.0
 40
0.0
 40
332.2701876743803
 40
332.2701876743803
 40
332.2701876743803
 10
255.3077456131068
 20
791.740555478211
 30
0.0
 41
1.0
 10
420.3077456131211
 20
757.8331029591498
 30
0.0
 41
0.979531005810294
 10
585.3077456131357
 20
791.74055547821
 30
0.0
 41
1.0
  0
SPLINE
  5
32
330
2F
100
AcDbEntity
  8
0
100
AcDbSpline
210
0.0
220
0.0
230
1.0
 70
    24
 71
     1
 72
     4
 73
     2
 74
     0
 42
0.0000000001
 43
0.0000000001
 40
0.0
 40
0.0
 40
13.59999999998459
 40
13.59999999998459
 10
241.7077456131467
 20
791.7405554782023
 30
0.0
 10
255.3077456131313
 20
791.7405554782056
 30
0.0
  0
SPLINE
  5
33
330
2F
100
AcDbEntity
  8
0
100
AcDbSpline
210
0.0
220
0.0
230
1.0
 70
    24
 71
     1
 72
     4
 73
     2
 74
     0
 42
0.0000000001
 43
0.0000000001
 40
0.0
 40
0.0
 40
1.4499999999978
 40
1.4499999999978
 10
240.2577456131489
 20
791.740555478204
 30
0.0
 10
241.7077456131467
 20
791.7405554782023
 30
0.0
  0
SPLINE
  5
34
330
2F
100
AcDbEntity
  8
0
100
AcDbSpline
210
0.0
220
0.0
230
1.0
 70
    24
 71
     1
 72
     4
 73
     2
 74
     0
 42
0.0000000001
 43
0.0000000001
 40
0.0
 40
0.0
 40
19.59926087621784
 40
19.59926087621784
 10
240.2577456131444
 20
811.3398163544218
 30
0.0
 10
240.2577456131489
 20
791.740555478204
 30
0.0
  0
SPLINE
  5
35
330
2F
100
AcDbEntity
  8
0
100
AcDbSpline
210
0.0
220
0.0
230
1.0
 70
    12
 71
     2
 72
     8
 73
     5
 74
     0
 42
0.0000000001
 43
0.0000000001
 40
0.0
 40
0.0
 40
0.0
 40
6.174141221174818
 40
6.174141221174818
 40
12.34828244234964
 40
12.34828244234964
 40
12.34828244234964
 10
240.2577456131443
 20
811.3398163544217
 30
0.0
 41
1.0
 10
242.8072381113783
 20
814.2810725198298
 30
0.0
 41
0.7166790233647411
 10
239.9365679567014
 20
816.9097894487046
 30
0.0
 41
1.0
 10
237.0658978020246
 20
819.5385063775793
 30
0.0
 41
0.7166790233647411
 10
234.3599098874576
 20
816.7405554782027
 30
0.0
 41
1.0
  0
SPLINE
  5
36
330
2F
100
AcDbEntity
  8
0
100
AcDbSpline
210
0.0
220
0.0
230
1.0
 70
    24
 71
     1
 72
     4
 73
     2
 74
     0
 42
0.0000000001
 43
0.0000000001
 40
0.0
 40
0.0
 40
3.688040809396881
 40
3.688040809396881
 10
230.6718690780606
 20
816.7405554782016
 30
0.0
 10
234.3599098874575
 20
816.7405554782026
 30
0.0
  0
SPLINE
  5
37
330
2F
100
AcDbEntity
  8
0
100
AcDbSpline
210
0.0
220
0.0
230
1.0
 70
    12
 71
     2
 72
     8
 73
     5
 74
     0
 42
0.0000000001
 43
0.0000000001
 40
0.0
 40
0.0
 40
0.0
 40
6.174180520453498
 40
6.174180520453498
 40
12.348361040907
 40
12.348361040907
 40
12.348361040907
 10
230.6718690780605
 20
816.7405554782017
 30
0.0
 41
1.0
 10
227.8739198381942
 20
819.4466001375408
 30
0.0
 41
0.7166755975943625
 10
225.092641879102
 20
816.7234235803793
 30
0.0
 41
1.0
 10
222.3113639200099
 20
814.0002470232176
 30
0.0
 41
0.7166755975943625
 10
224.9577456131443
 20
811.145801090738
 30
0.0
 41
1.0
  0
SPLINE
  5
38
330
2F
100
AcDbEntity
  8
0
100
AcDbSpline
210
0.0
220
0.0
230
1.0
 70
    24
 71
     1
 72
     4
 73
     2
 74
     0
 42
0.0000000001
 43
0.0000000001
 40
0.0
 40
0.0
 40
19.40524561253801
 40
19.40524561253801
 10
224.9577456131491
 20
791.7405554782001
 30
0.0
 10
224.9577456131442
 20
811.1458010907381
 30
0.0
  0
SPLINE
  5
39
330
2F
100
AcDbEntity
  8
0
100
AcDbSpline
210
0.0
220
0.0
230
1.0
 70
    24
 71
     1
 72
     4
 73
     2
 74
     0
 42
0.0000000001
 43
0.0000000001
 40
0.0
 40
0.0
 40
1.449999999998397
 40
1.449999999998397
 10
223.5077456131507
 20
791.7405554782017
 30
0.0
 10
224.9577456131491
 20
791.7405554782001
 30
0.0
  0
SPLINE
  5
3A
330
2F
100
AcDbEntity
  8
0
100
AcDbSpline
210
0.0
220
0.0
230
1.0
 70
    24
 71
     1
 72
     4
 73
     2
 74
     0
 42
0.0000000001
 43
0.0000000001
 40
0.0
 40
0.0
 40
8.600000000000875
 40
8.600000000000875
 10
214.9077456131498
 20
791.7405554782015
 30
0.0
 10
223.5077456131507
 20
791.7405554782017
 30
0.0
  0
SPLINE
  5
3B
330
2F
100
AcDbEntity
  8
0
100
AcDbSpline
210
0.0
220
0.0
230
1.0
 70
    12
 71
     2
 72
     6
 73
     3
 74
     0
 42
0.0000000001
 43
0.0000000001
 40
0.0
 40
0.0
 40
0.0
 40
15.7079632679514
 40
15.7079632679514
 40
15.7079632679514
 10
204.9077456131486
 20
801.7405554782038
 30
0.0
 41
1.0
 10
204.9077456131487
 20
791.7405554782026
 30
0.0
 41
0.7071067811865874
 10
214.9077456131498
 20
791.7405554782015
 30
0.0
 41
1.0
  0
SPLINE
  5
3C
330
2F
100
AcDbEntity
  8
0
100
AcDbSpline
210
0.0
220
0.0
230
1.0
 70
    24
 71
     1
 72
     4
 73
     2
 74
     0
 42
0.0000000001
 43
0.0000000001
 40
0.0
 40
0.0
 40
29.99249999999847
 40
29.99249999999847
 10
204.9077456131341
 20
831.7330554782022
 30
0.0
 10
204.9077456131486
 20
801.7405554782038
 30
0.0
  0
SPLINE
  5
3D
330
2F
100
AcDbEntity
  8
0
100
AcDbSpline
210
0.0
220
0.0
230
1.0
 70
    12
 71
     2
 72
     6
 73
     3
 74
     0
 42
0.0000000001
 43
0.0000000001
 40
0.0
 40
0.0
 40
0.0
 40
15.70796326794616
 40
15.70796326794616
 40
15.70796326794616
 10
214.9077456131321
 20
841.7330554782061
 30
0.0
 41
1.0
 10
204.9077456131341
 20
841.7330554782055
 30
0.0
 41
0.7071067811865677
 10
204.9077456131341
 20
831.7330554782076
 30
0.0
 41
1.0
  0
SPLINE
  5
3E
330
2F
100
AcDbEntity
  8
0
100
AcDbSpline
210
0.0
220
0.0
230
1.0
 70
    24
 71
     1
 72
     4
 73
     2
 74
     0
 42
0.0000000001
 43
0.0000000001
 40
0.0
 40
0.0
 40
25.4333237296288
 40
25.4333237296288
 10
240.3410693427609
 20
841.7330554782068
 30
0.0
 10
214.9077456131321
 20
841.7330554782061
 30
0.0
  0
SPLINE
  5
3F
330
2F
100
AcDbEntity
  8
0
100
AcDbSpline
210
0.0
220
0.0
230
1.0
 70
    12
 71
     2
 72
     6
 73
     3
 74
     0
 42
0.0000000001
 43
0.0000000001
 40
0.0
 40
0.0
 40
0.0
 40
362.8895889641764
 40
362.8895889641764
 40
362.8895889641764
 10
240.34106934275
 20
841.7330554782087
 30
0.0
 41
1.0
 10
420.307745613125
 20
801.2328232004376
 30
0.0
 41
0.9756007809758092
 10
600.2744218835001
 20
841.7330554782081
 30
0.0
 41
1.0
  0
SPLINE
  5
40
330
2F
100
AcDbEntity
  8
0
100
AcDbSpline
210
0.0
220
0.0
230
1.0
 70
    24
 71
     1
 72
     4
 73
     2
 74
     0
 42
0.0000000001
 43
0.0000000001
 40
0.0
 40
0.0
 40
25.43332372963391
 40
25.43332372963391
 10
625.707745613144
 20
841.7330554782175
 30
0.0
 10
600.2744218835101
 20
841.7330554782111
 30
0.0
  0
SPLINE
  5
41
330
2F
100
AcDbEntity
  8
0
100
AcDbSpline
210
0.0
220
0.0
230
1.0
 70
    12
 71
     2
 72
     6
 73
     3
 74
     0
 42
0.0000000001
 43
0.0000000001
 40
0.0
 40
0.0
 40
0.0
 40
15.70796326794876
 40
15.70796326794876
 40
15.70796326794876
 10
635.7077456131442
 20
831.7330554782184
 30
0.0
 41
1.0
 10
635.7077456131443
 20
841.7330554782186
 30
0.0
 41
0.7071067811865074
 10
625.707745613144
 20
841.7330554782175
 30
0.0
 41
1.0
  0
SPLINE
  5
42
330
2F
100
AcDbEntity
  8
0
100
AcDbSpline
210
0.0
220
0.0
230
1.0
 70
    24
 71
     1
 72
     4
 73
     2
 74
     0
 42
0.0000000001
 43
0.0000000001
 40
0.0
 40
0.0
 40
29.99249999999847
 40
29.99249999999847
 10
635.7077456131453
 20
801.7405554782199
 30
0.0
 10
635.7077456131442
 20
831.7330554782184
 30
0.0
  0
SPLINE
  5
43
330
2F
100
AcDbEntity
  8
0
100
AcDbSpline
210
0.0
220
0.0
230
1.0
 70
    12
 71
     2
 72
     6
 73
     3
 74
     0
 42
0.0000000001
 43
0.0000000001
 40
0.0
 40
0.0
 40
0.0
 40
15.70796326795489
 40
15.70796326795489
 40
15.70796326795489
 10
625.7077456131412
 20
791.7405554782159
 30
0.0
 41
1.0
 10
635.707745613145
 20
791.740555478216
 30
0.0
 41
0.7071067811865591
 10
635.7077456131452
 20
801.7405554782196
 30
0.0
 41
1.0
  0
SPLINE
  5
44
330
2F
100
AcDbEntity
  8
0
100
AcDbSpline
210
0.0
220
0.0
230
1.0
 70
    24
 71
     1
 72
     4
 73
     2
 74
     0
 42
0.0000000001
 43
0.0000000001
 40
0.0
 40
0.0
 40
8.599999999984902
 40
8.599999999984902
 10
617.1077456131568
 20
791.7405554782165
 30
0.0
 10
625.7077456131417
 20
791.7405554782159
 30
0.0
  0
SPLINE
  5
45
330
2F
100
AcDbEntity
  8
0
100
AcDbSpline
210
0.0
220
0.0
230
1.0
 70
    24
 71
     1
 72
     4
 73
     2
 74
     0
 42
0.0000000001
 43
0.0000000001
 40
0.0
 40
0.0
 40
1.450000000005957
 40
1.450000000005957
 10
615.6577456131508
 20
791.7405554782155
 30
0.0
 10
617.1077456131568
 20
791.7405554782165
 30
0.0
  0
SPLINE
  5
46
330
2F
100
AcDbEntity
  8
0
100
AcDbSpline
210
0.0
220
0.0
230
1.0
 70
    24
 71
     1
 72
     4
 73
     2
 74
     0
 42
0.0000000001
 43
0.0000000001
 40
0.0
 40
0.0
 40
19.6576560012013
 40
19.6576560012013
 10
615.6577456131529
 20
811.3982114794168
 30
0.0
 10
615.6577456131508
 20
791.7405554782155
 30
0.0
  0
SPLINE
  5
47
330
2F
100
AcDbEntity
  8
0
100
AcDbSpline
210
0.0
220
0.0
230
1.0
 70
    12
 71
     2
 72
     8
 73
     5
 74
     0
 42
0.0000000001
 43
0.0000000001
 40
0.0
 40
0.0
 40
0.0
 40
6.174121347364205
 40
6.174121347364205
 40
12.34824269472841
 40
12.34824269472841
 40
12.34824269472841
 10
615.6577456131527
 20
811.3982114794168
 30
0.0
 41
1.0
 10
618.1780964928694
 20
814.3644516355635
 30
0.0
 41
0.7166807558697983
 10
615.2816702179174
 20
816.9647331692813
 30
0.0
 41
1.0
 10
612.3852439429652
 20
819.5650147029991
 30
0.0
 41
0.7166807558697983
 10
609.7069647737291
 20
816.7405554782157
 30
0.0
 41
1.0
  0
SPLINE
  5
48
330
2F
100
AcDbEntity
  8
0
100
AcDbSpline
210
0.0
220
0.0
230
1.0
 70
    24
 71
     1
 72
     4
 73
     2
 74
     0
 42
0.0000000001
 43
0.0000000001
 40
0.0
 40
0.0
 40
3.690557044996012
 40
3.690557044996012
 10
606.0164077287332
 20
816.740555478216
 30
0.0
 10
609.7069647737292
 20
816.7405554782157
 30
0.0
  0
SPLINE
  5
49
330
2F
100
AcDbEntity
  8
0
100
AcDbSpline
210
0.0
220
0.0
230
1.0
 70
    12
 71
     2
 72
     8
 73
     5
 74
     0
 42
0.0000000001
 43
0.0000000001
 40
0.0
 40
0.0
 40
0.0
 40
6.174195765991276
 40
6.174195765991276
 40
12.34839153198255
 40
12.34839153198255
 40
12.34839153198255
 10
606.0164077287334
 20
816.7405554782159
 30
0.0
 41
1.0
 10
603.1919029113108
 20
819.4188918501028
 30
0.0
 41
0.7166742685505849
 10
600.4376098532687
 20
816.668404086989
 30
0.0
 41
1.0
 10
597.6833167952268
 20
813.9179163238754
 30
0.0
 41
0.7166742685505849
 10
600.3577456131516
 20
811.0897112955103
 30
0.0
 41
1.0
  0
SPLINE
  5
4A
330
2F
100
AcDbEntity
  8
0
100
AcDbSpline
210
0.0
220
0.0
230
1.0
 70
    24
 71
     1
 72
     4
 73
     2
 74
     0
 42
0.0000000001
 43
0.0000000001
 40
0.0
 40
0.0
 40
19.34915581729354
 40
19.34915581729354
 10
600.3577456131511
 20
791.7405554782166
 30
0.0
 10
600.3577456131516
 20
811.0897112955101
 30
0.0
  0
SPLINE
  5
4B
330
2F
100
AcDbEntity
  8
0
100
AcDbSpline
210
0.0
220
0.0
230
1.0
 70
    24
 71
     1
 72
     4
 73
     2
 74
     0
 42
0.0000000001
 43
0.0000000001
 40
0.0
 40
0.0
 40
1.450000000007321
 40
1.450000000007321
 10
598.9077456131438
 20
791.7405554782154
 30
0.0
 10
600.3577456131511
 20
791.7405554782166
 30
0.0
  0
ENDBLK
  5
4D
330
2F
100
AcDbEntity
  8
0
100
AcDbBlockEnd
  0
BLOCK
  5
78
330
5F
100
AcDbEntity
  8
0
100
AcDbBlockBegin
  2
ROCKING_CHAIR_STRAIGHT_3
 70
     0
 71
     0
 10
0.0
 20
0.0
 30
0.0
  3
ROCKING_CHAIR_STRAIGHT_3
  1

  0
SPLINE
  5
60
330
5F
100
AcDbEntity
  8
0
100
AcDbSpline
210
0.0
220
0.0
230
1.0
 70
    24
 71
     1
 72
     4
 73
     2
 74
     0
 42
0.0000000001
 43
0.0000000001
 40
0.0
 40
0.0
 40
19.57538899217104
 40
19.57538899217104
 10
613.8680883946133
 20
1023.963230480875
 30
0.0
 10
613.8680883946167
 20
1004.387841488704
 30
0.0
  0
SPLINE
  5
61
330
5F
100
AcDbEntity
  8
0
100
AcDbSpline
210
0.0
220
0.0
230
1.0
 70
    12
 71
     2
 72
     8
 73
     5
 74
     0
 42
0.0000000001
 43
0.0000000001
 40
0.0
 40
0.0
 40
0.0
 40
6.174154834489185
 40
6.174154834489185
 40
12.34830966897837
 40
12.34830966897837
 40
12.34830966897837
 10
613.8680883946136
 20
1023.963230480875
 30
0.0
 41
1.0
 10
616.4295054507205
 20
1026.894125507902
 30
0.0
 41
0.7166778366175474
 10
613.569508634042
 20
1029.53447041025
 30
0.0
 41
1.0
 10
610.7095118173637
 20
1032.174815312598
 30
0.0
 41
0.7166778366175474
 10
607.9922006648285
 20
1029.387841488703
 30
0.0
 41
1.0
  0
SPLINE
  5
62
330
5F
100
AcDbEntity
  8
0
100
AcDbSpline
210
0.0
220
0.0
230
1.0
 70
    24
 71
     1
 72
     4
 73
     2
 74
     0
 42
0.0000000001
 43
0.0000000001
 40
0.0
 40
0.0
 40
3.687299126280209
 40
3.687299126280209
 10
604.3049015385484
 20
1029.387841488704
 30
0.0
 10
607.9922006648286
 20
1029.387841488704
 30
0.0
  0
SPLINE
  5
63
330
5F
100
AcDbEntity
  8
0
100
AcDbSpline
210
0.0
220
0.0
230
1.0
 70
    12
 71
     2
 72
     8
 73
     5
 74
     0
 42
0.0000000001
 43
0.0000000001
 40
0.0
 40
0.0
 40
0.0
 40
6.174171019626763
 40
6.174171019626763
 40
12.34834203925353
 40
12.34834203925353
 40
12.34834203925353
 10
604.3049015385484
 20
1029.387841488704
 30
0.0
 41
1.0
 10
601.5179730137496
 20
1032.105221668924
 30
0.0
 41
0.7166764258363897
 10
598.7256575918619
 20
1029.39337723554
 30
0.0
 41
1.0
 10
595.933342169974
 20
1026.681532802156
 30
0.0
 41
0.7166764258363897
 10
598.5680883946178
 20
1023.816356022634
 30
0.0
 41
1.0
  0
SPLINE
  5
64
330
5F
100
AcDbEntity
  8
0
100
AcDbSpline
210
0.0
220
0.0
230
1.0
 70
    24
 71
     1
 72
     4
 73
     2
 74
     0
 42
0.0000000001
 43
0.0000000001
 40
0.0
 40
0.0
 40
19.42851453392802
 40
19.42851453392802
 10
598.568088394617
 20
1004.387841488705
 30
0.0
 10
598.5680883946179
 20
1023.816356022633
 30
0.0
  0
SPLINE
  5
65
330
5F
100
AcDbEntity
  8
0
100
AcDbSpline
210
0.0
220
0.0
230
1.0
 70
    24
 71
     1
 72
     4
 73
     2
 74
     0
 42
0.0000000001
 43
0.0000000001
 40
0.0
 40
0.0
 40
1.449999999997772
 40
1.449999999997772
 10
597.1180883946192
 20
1004.387841488705
 30
0.0
 10
598.568088394617
 20
1004.387841488705
 30
0.0
  0
SPLINE
  5
66
330
5F
100
AcDbEntity
  8
0
100
AcDbSpline
210
0.0
220
0.0
230
1.0
 70
    24
 71
     1
 72
     4
 73
     2
 74
     0
 42
0.0000000001
 43
0.0000000001
 40
0.0
 40
0.0
 40
367.2000000000028
 40
367.2000000000028
 10
229.9180883946164
 20
1004.387841488705
 30
0.0
 10
597.1180883946192
 20
1004.387841488705
 30
0.0
  0
SPLINE
  5
67
330
5F
100
AcDbEntity
  8
0
100
AcDbSpline
210
0.0
220
0.0
230
1.0
 70
    24
 71
     1
 72
     4
 73
     2
 74
     0
 42
0.0000000001
 43
0.0000000001
 40
0.0
 40
0.0
 40
1.449999999999193
 40
1.449999999999193
 10
228.4680883946172
 20
1004.387841488705
 30
0.0
 10
229.9180883946164
 20
1004.387841488705
 30
0.0
  0
SPLINE
  5
68
330
5F
100
AcDbEntity
  8
0
100
AcDbSpline
210
0.0
220
0.0
230
1.0
 70
    24
 71
     1
 72
     4
 73
     2
 74
     0
 42
0.0000000001
 43
0.0000000001
 40
0.0
 40
0.0
 40
19.64371277563794
 40
19.64371277563794
 10
228.4680883946176
 20
1024.031554264343
 30
0.0
 10
228.4680883946172
 20
1004.387841488705
 30
0.0
  0
SPLINE
  5
69
330
5F
100
AcDbEntity
  8
0
100
AcDbSpline
210
0.0
220
0.0
230
1.0
 70
    12
 71
     2
 72
     8
 73
     5
 74
     0
 42
0.0000000001
 43
0.0000000001
 40
0.0
 40
0.0
 40
0.0
 40
6.174093966621782
 40
6.174093966621782
 40
12.34818793324356
 40
12.34818793324356
 40
12.34818793324356
 10
228.4680883946176
 20
1024.031554264343
 30
0.0
 41
1.0
 10
230.9953527679649
 20
1026.991871225908
 30
0.0
 41
0.7166831427866404
 10
228.1050538115493
 20
1029.598921986492
 30
0.0
 41
1.0
 10
225.2147548551338
 20
1032.205972747077
 30
0.0
 41
0.7166831427866404
 10
222.5298567311235
 20
1029.387841488706
 30
0.0
 41
1.0
  0
SPLINE
  5
6A
330
5F
100
AcDbEntity
  8
0
100
AcDbSpline
210
0.0
220
0.0
230
1.0
 70
    24
 71
     1
 72
     4
 73
     2
 74
     0
 42
0.0000000001
 43
0.0000000001
 40
0.0
 40
0.0
 40
3.689869020473992
 40
3.689869020473992
 10
218.8399877106496
 20
1029.387841488705
 30
0.0
 10
222.5298567311236
 20
1029.387841488706
 30
0.0
  0
SPLINE
  5
6B
330
5F
100
AcDbEntity
  8
0
100
AcDbSpline
210
0.0
220
0.0
230
1.0
 70
    12
 71
     2
 72
     8
 73
     5
 74
     0
 42
0.0000000001
 43
0.0000000001
 40
0.0
 40
0.0
 40
0.0
 40
6.174209080089915
 40
6.174209080089915
 40
12.34841816017983
 40
12.34841816017983
 40
12.34841816017983
 10
218.8399877106494
 20
1029.387841488705
 30
0.0
 41
1.0
 10
216.0217713943889
 20
1032.072812788403
 30
0.0
 41
0.7166731078795845
 10
213.2610263289076
 20
1029.328782765087
 30
0.0
 41
1.0
 10
210.5002812634263
 20
1026.584752741771
 30
0.0
 41
0.7166731078795845
 10
213.1680883946176
 20
1023.750282915471
 30
0.0
 41
1.0
  0
SPLINE
  5
6C
330
5F
100
AcDbEntity
  8
0
100
AcDbSpline
210
0.0
220
0.0
230
1.0
 70
    24
 71
     1
 72
     4
 73
     2
 74
     0
 42
0.0000000001
 43
0.0000000001
 40
0.0
 40
0.0
 40
19.36244142676594
 40
19.36244142676594
 10
213.1680883946174
 20
1004.387841488705
 30
0.0
 10
213.1680883946175
 20
1023.750282915471
 30
0.0
  0
SPLINE
  5
6D
330
5F
100
AcDbEntity
  8
0
100
AcDbSpline
210
0.0
220
0.0
230
1.0
 70
    24
 71
     1
 72
     4
 73
     2
 74
     0
 42
0.0000000001
 43
0.0000000001
 40
0.0
 40
0.0
 40
1.44999999999871
 40
1.44999999999871
 10
211.7180883946187
 20
1004.387841488706
 30
0.0
 10
213.1680883946174
 20
1004.387841488705
 30
0.0
  0
SPLINE
  5
6E
330
5F
100
AcDbEntity
  8
0
100
AcDbSpline
210
0.0
220
0.0
230
1.0
 70
    24
 71
     1
 72
     4
 73
     2
 74
     0
 42
0.0000000001
 43
0.0000000001
 40
0.0
 40
0.0
 40
5.700000000003598
 40
5.700000000003598
 10
206.0180883946151
 20
1004.387841488705
 30
0.0
 10
211.7180883946187
 20
1004.387841488706
 30
0.0
  0
SPLINE
  5
6F
330
5F
100
AcDbEntity
  8
0
100
AcDbSpline
210
0.0
220
0.0
230
1.0
 70
    12
 71
     2
 72
     6
 73
     3
 74
     0
 42
0.0000000001
 43
0.0000000001
 40
0.0
 40
0.0
 40
0.0
 40
15.70796326794658
 40
15.70796326794658
 40
15.70796326794658
 10
196.018088394615
 20
1014.387841488701
 30
0.0
 41
1.0
 10
196.018088394615
 20
1004.387841488701
 30
0.0
 41
0.707106781186387
 10
206.0180883946152
 20
1004.387841488706
 30
0.0
 41
1.0
  0
SPLINE
  5
70
330
5F
100
AcDbEntity
  8
0
100
AcDbSpline
210
0.0
220
0.0
230
1.0
 70
    24
 71
     1
 72
     4
 73
     2
 74
     0
 42
0.0000000001
 43
0.0000000001
 40
0.0
 40
0.0
 40
30.00000000000205
 40
30.00000000000205
 10
196.0180883946157
 20
1044.387841488703
 30
0.0
 10
196.018088394615
 20
1014.387841488701
 30
0.0
  0
SPLINE
  5
71
330
5F
100
AcDbEntity
  8
0
100
AcDbSpline
210
0.0
220
0.0
230
1.0
 70
    12
 71
     2
 72
     6
 73
     3
 74
     0
 42
0.0000000001
 43
0.0000000001
 40
0.0
 40
0.0
 40
0.0
 40
15.7079632679513
 40
15.7079632679513
 40
15.7079632679513
 10
206.0180883946171
 20
1054.387841488705
 30
0.0
 41
1.0
 10
196.0180883946159
 20
1054.387841488704
 30
0.0
 41
0.7071067811865757
 10
196.0180883946157
 20
1044.387841488703
 30
0.0
 41
1.0
  0
SPLINE
  5
72
330
5F
100
AcDbEntity
  8
0
100
AcDbSpline
210
0.0
220
0.0
230
1.0
 70
    24
 71
     1
 72
     4
 73
     2
 74
     0
 42
0.0000000001
 43
0.0000000001
 40
0.0
 40
0.0
 40
414.9999999999977
 40
414.9999999999977
 10
621.0180883946148
 20
1054.387841488706
 30
0.0
 10
206.0180883946171
 20
1054.387841488705
 30
0.0
  0
SPLINE
  5
73
330
5F
100
AcDbEntity
  8
0
100
AcDbSpline
210
0.0
220
0.0
230
1.0
 70
    12
 71
     2
 72
     6
 73
     3
 74
     0
 42
0.0000000001
 43
0.0000000001
 40
0.0
 40
0.0
 40
0.0
 40
15.70796326794888
 40
15.70796326794888
 40
15.70796326794888
 10
631.0180883946131
 20
1044.387841488703
 30
0.0
 41
1.0
 10
631.018088394613
 20
1054.387841488702
 30
0.0
 41
0.7071067811867083
 10
621.0180883946148
 20
1054.387841488706
 30
0.0
 41
1.0
  0
SPLINE
  5
74
330
5F
100
AcDbEntity
  8
0
100
AcDbSpline
210
0.0
220
0.0
230
1.0
 70
    24
 71
     1
 72
     4
 73
     2
 74
     0
 42
0.0000000001
 43
0.0000000001
 40
0.0
 40
0.0
 40
29.99999999999807
 40
29.99999999999807
 10
631.0180883946094
 20
1014.3878414887
 30
0.0
 10
631.0180883946129
 20
1044.387841488698
 30
0.0
  0
SPLINE
  5
75
330
5F
100
AcDbEntity
  8
0
100
AcDbSpline
210
0.0
220
0.0
230
1.0
 70
    12
 71
     2
 72
     6
 73
     3
 74
     0
 42
0.0000000001
 43
0.0000000001
 40
0.0
 40
0.0
 40
0.0
 40
15.70796326794952
 40
15.70796326794952
 40
15.70796326794952
 10
621.0180883946083
 20
1004.3878414887
 30
0.0
 41
1.0
 10
631.0180883946089
 20
1004.387841488699
 30
0.0
 41
0.707106781186528
 10
631.0180883946094
 20
1014.3878414887
 30
0.0
 41
1.0
  0
SPLINE
  5
76
330
5F
100
AcDbEntity
  8
0
100
AcDbSpline
210
0.0
220
0.0
230
1.0
 70
    24
 71
     1
 72
     4
 73
     2
 74
     0
 42
0.0000000001
 43
0.0000000001
 40
0.0
 40
0.0
 40
5.699999999993679
 40
5.699999999993679
 10
615.3180883946152
 20
1004.387841488704
 30
0.0
 10
621.0180883946089
 20
1004.3878414887
 30
0.0
  0
SPLINE
  5
77
330
5F
100
AcDbEntity
  8
0
100
AcDbSpline
210
0.0
220
0.0
230
1.0
 70
    24
 71
     1
 72
     4
 73
     2
 74
     0
 42
0.0000000001
 43
0.0000000001
 40
0.0
 40
0.0
 40
1.449999999998454
 40
1.449999999998454
 10
613.8680883946167
 20
1004.387841488704
 30
0.0
 10
615.3180883946152
 20
1004.387841488704
 30
0.0
  0
ENDBLK
  5
79
330
5F
100
AcDbEntity
  8
0
100
AcDbBlockEnd
  0
BLOCK
  5
119
330
7D
100
AcDbEntity
  8
0
100
AcDbBlockBegin
  2
ROCKING_CHAIR_PROFILE_2
 70
     0
 71
     0
 10
0.0
 20
0.0
 30
0.0
  3
ROCKING_CHAIR_PROFILE_2
  1

  0
SPLINE
  5
7E
330
7D
100
AcDbEntity
  8
0
100
AcDbSpline
210
0.0
220
0.0
230
1.0
 70
    24
 71
     1
 72
     4
 73
     2
 74
     0
 42
0.0000000001
 43
0.0000000001
 40
0.0
 40
0.0
 40
3.686291501015327
 40
3.686291501015327
 10
-1372.858726600811
 20
-413.5475228395382
 30
0.0
 10
-1373.703978365329
 20
-409.9594461283966
 30
0.0
  0
SPLINE
  5
7F
330
7D
100
AcDbEntity
  8
0
100
AcDbSpline
210
0.0
220
0.0
230
1.0
 70
    12
 71
     2
 72
     8
 73
     5
 74
     0
 42
0.0000000001
 43
0.0000000001
 40
3.686291501015327
 40
3.686291501015327
 40
3.686291501015327
 40
9.860484368915358
 40
9.860484368915358
 40
16.03467723681539
 40
16.03467723681539
 40
16.03467723681539
 10
-1373.703978365329
 20
-409.9594461283963
 30
0.0
 41
1.0
 10
-1371.655951334518
 20
-406.6493288340089
 30
0.0
 41
0.7166745211945617
 10
-1374.90904192967
 20
-404.5118787641211
 30
0.0
 41
1.0
 10
-1378.162132524823
 20
-402.3744286942333
 30
0.0
 41
0.7166745211945617
 10
-1380.387418761831
 20
-405.5680774515194
 30
0.0
 41
1.0
  0
SPLINE
  5
80
330
7D
100
AcDbEntity
  8
0
100
AcDbSpline
210
0.0
220
0.0
230
1.0
 70
    24
 71
     1
 72
     4
 73
     2
 74
     0
 42
0.0000000001
 43
0.0000000001
 40
16.03467723681539
 40
16.03467723681539
 40
35.53622853609997
 40
35.53622853609997
 10
-1380.387418761831
 20
-405.5680774515193
 30
0.0
 10
-1399.369385334151
 20
-410.0397044625731
 30
0.0
  0
SPLINE
  5
81
330
7D
100
AcDbEntity
  8
0
100
AcDbSpline
210
0.0
220
0.0
230
1.0
 70
    24
 71
     1
 72
     4
 73
     2
 74
     0
 42
0.0000000001
 43
0.0000000001
 40
35.53622853609997
 40
35.53622853609997
 40
112.705824584566
 40
112.705824584566
 10
-1399.369385334151
 20
-410.0397044625731
 30
0.0
 10
-1417.064062276836
 20
-334.9261573343924
 30
0.0
  0
SPLINE
  5
82
330
7D
100
AcDbEntity
  8
0
100
AcDbSpline
210
0.0
220
0.0
230
1.0
 70
    24
 71
     1
 72
     4
 73
     2
 74
     0
 42
0.0000000001
 43
0.0000000001
 40
112.705824584566
 40
112.705824584566
 40
144.1665471269239
 40
144.1665471269239
 10
-1417.064062276836
 20
-334.9261573343924
 30
0.0
 10
-1445.905971930363
 20
-347.4928319313182
 30
0.0
  0
SPLINE
  5
83
330
7D
100
AcDbEntity
  8
0
100
AcDbSpline
210
0.0
220
0.0
230
1.0
 70
    12
 71
     2
 72
     6
 73
     3
 74
     0
 42
0.0000000001
 43
0.0000000001
 40
144.1665471269239
 40
144.1665471269239
 40
144.1665471269239
 40
300.1933161323645
 40
300.1933161323645
 40
300.1933161323645
 10
-1445.905971930361
 20
-347.4928319313178
 30
0.0
 41
1.0
 10
-1517.647432609297
 20
-378.7512195448631
 30
0.0
 41
0.9953655045047468
 10
-1582.078032761594
 20
-423.1654260621555
 30
0.0
 41
1.0
  0
SPLINE
  5
84
330
7D
100
AcDbEntity
  8
0
100
AcDbSpline
210
0.0
220
0.0
230
1.0
 70
    12
 71
     2
 72
     6
 73
     3
 74
     0
 42
0.0000000001
 43
0.0000000001
 40
300.1933161323645
 40
300.1933161323645
 40
300.1933161323645
 40
315.7796526970897
 40
315.7796526970897
 40
315.7796526970897
 10
-1582.078032761594
 20
-423.1654260621557
 30
0.0
 41
1.0
 10
-1590.211860500478
 20
-428.7723504756644
 30
0.0
 41
0.7113938327160223
 10
-1595.917296827554
 20
-420.7073178419852
 30
0.0
 41
1.0
  0
SPLINE
  5
85
330
7D
100
AcDbEntity
  8
0
100
AcDbSpline
210
0.0
220
0.0
230
1.0
 70
    24
 71
     1
 72
     4
 73
     2
 74
     0
 42
0.0000000001
 43
0.0000000001
 40
315.7796526970897
 40
315.7796526970897
 40
365.7831386104086
 40
365.7831386104086
 10
-1595.917296827554
 20
-420.7073178419852
 30
0.0
 10
-1624.795585633162
 20
-379.8858401722173
 30
0.0
  0
SPLINE
  5
86
330
7D
100
AcDbEntity
  8
0
100
AcDbSpline
210
0.0
220
0.0
230
1.0
 70
    12
 71
     2
 72
     8
 73
     5
 74
     0
 42
0.0000000001
 43
0.0000000001
 40
365.7831386104086
 40
365.7831386104086
 40
365.7831386104086
 40
373.6944384180088
 40
373.6944384180088
 40
381.6057382256091
 40
381.6057382256091
 40
381.6057382256091
 10
-1624.795585633162
 20
-379.8858401722176
 30
0.0
 41
1.0
 10
-1627.207188847056
 20
-376.4768706378076
 30
0.0
 41
0.92277900413304
 10
-1626.478365250929
 20
-372.3652140965187
 30
0.0
 41
1.0
 10
-1625.749541654802
 20
-368.2535575552298
 30
0.0
 41
0.92277900413304
 10
-1622.313150979829
 20
-365.8811911255322
 30
0.0
 41
1.0
  0
SPLINE
  5
87
330
7D
100
AcDbEntity
  8
0
100
AcDbSpline
210
0.0
220
0.0
230
1.0
 70
    12
 71
     2
 72
     6
 73
     3
 74
     0
 42
0.0000000001
 43
0.0000000001
 40
381.6057382256091
 40
381.6057382256091
 40
381.6057382256091
 40
857.6447428713384
 40
857.6447428713384
 40
857.6447428713384
 10
-1622.31315097983
 20
-365.8811911255321
 30
0.0
 41
1.0
 10
-1421.516882818455
 20
-227.2583246208782
 30
0.0
 41
0.9636436340699739
 10
-1178.006354316555
 20
-211.8290364251383
 30
0.0
 41
1.0
  0
SPLINE
  5
88
330
7D
100
AcDbEntity
  8
0
100
AcDbSpline
210
0.0
220
0.0
230
1.0
 70
    24
 71
     1
 72
     4
 73
     2
 74
     0
 42
0.0000000001
 43
0.0000000001
 40
857.6447428713384
 40
857.6447428713384
 40
877.5045968810812
 40
877.5045968810812
 10
-1178.006354316553
 20
-211.8290364251385
 30
0.0
 10
-1175.69683475619
 20
-231.5541453142828
 30
0.0
  0
SPLINE
  5
89
330
7D
100
AcDbEntity
  8
0
100
AcDbSpline
210
0.0
220
0.0
230
1.0
 70
    12
 71
     2
 72
     8
 73
     5
 74
     0
 42
0.0000000001
 43
0.0000000001
 40
877.5045968810812
 40
877.5045968810812
 40
877.5045968810812
 40
883.7352396408827
 40
883.7352396408827
 40
889.9658824006842
 40
889.9658824006842
 40
889.9658824006842
 10
-1175.69683475619
 20
-231.5541453142828
 30
0.0
 41
1.0
 10
-1178.062542765991
 20
-234.7146115553707
 30
0.0
 41
0.7117356458335483
 10
-1174.9334233699
 20
-237.1216290155695
 30
0.0
 41
1.0
 10
-1171.804303973809
 20
-239.5286464757681
 30
0.0
 41
0.7117356458335483
 10
-1169.356392375961
 20
-236.4314138306771
 30
0.0
 41
1.0
  0
SPLINE
  5
8A
330
7D
100
AcDbEntity
  8
0
100
AcDbSpline
210
0.0
220
0.0
230
1.0
 70
    24
 71
     1
 72
     4
 73
     2
 74
     0
 42
0.0000000001
 43
0.0000000001
 40
889.9658824006842
 40
889.9658824006842
 40
893.7198923912589
 40
893.7198923912589
 10
-1169.356392375961
 20
-236.431413830677
 30
0.0
 10
-1165.627852589179
 20
-235.994856769443
 30
0.0
  0
SPLINE
  5
8B
330
7D
100
AcDbEntity
  8
0
100
AcDbSpline
210
0.0
220
0.0
230
1.0
 70
    12
 71
     2
 72
     8
 73
     5
 74
     0
 42
0.0000000001
 43
0.0000000001
 40
893.7198923912589
 40
893.7198923912589
 40
893.7198923912589
 40
899.8996692189803
 40
899.8996692189803
 40
906.0794460467016
 40
906.0794460467016
 40
906.0794460467016
 10
-1165.627852589179
 20
-235.9948567694431
 30
0.0
 41
1.0
 10
-1162.577058555714
 20
-238.4210313622958
 30
0.0
 41
0.7161875595160534
 10
-1160.072833953284
 20
-235.4339715151855
 30
0.0
 41
1.0
 10
-1157.568609350855
 20
-232.4469116680751
 30
0.0
 41
0.7161875595160534
 10
-1160.489938774733
 20
-229.866310616612
 30
0.0
 41
1.0
  0
SPLINE
  5
8C
330
7D
100
AcDbEntity
  8
0
100
AcDbSpline
210
0.0
220
0.0
230
1.0
 70
    24
 71
     1
 72
     4
 73
     2
 74
     0
 42
0.0000000001
 43
0.0000000001
 40
906.0794460467016
 40
906.0794460467016
 40
925.0817177683548
 40
925.0817177683548
 10
-1160.489938774733
 20
-229.8663106166121
 30
0.0
 10
-1162.699729350784
 20
-210.9929654919783
 30
0.0
  0
SPLINE
  5
8D
330
7D
100
AcDbEntity
  8
0
100
AcDbSpline
210
0.0
220
0.0
230
1.0
 70
    12
 71
     2
 72
     6
 73
     3
 74
     0
 42
0.0000000001
 43
0.0000000001
 40
925.0817177683548
 40
925.0817177683548
 40
925.0817177683548
 40
1401.116578815506
 40
1401.116578815506
 40
1401.116578815506
 10
-1162.699729350871
 20
-210.9929654919824
 30
0.0
 41
1.0
 10
-918.9596110016835
 20
-199.8078692759684
 30
0.0
 41
0.9636442631193096
 10
-704.2608177520037
 20
-315.7336207178663
 30
0.0
 41
1.0
  0
SPLINE
  5
8E
330
7D
100
AcDbEntity
  8
0
100
AcDbSpline
210
0.0
220
0.0
230
1.0
 70
    12
 71
     2
 72
     8
 73
     5
 74
     0
 42
0.0000000001
 43
0.0000000001
 40
1401.116578815506
 40
1401.116578815506
 40
1401.116578815506
 40
1409.028005547756
 40
1409.028005547756
 40
1416.939432280006
 40
1416.939432280006
 40
1416.939432280006
 10
-704.2608177520037
 20
-315.7336207178663
 30
0.0
 41
1.0
 10
-700.5864026238565
 20
-317.7176064142581
 30
0.0
 41
0.9227765587232014
 10
-699.4140924268697
 20
-321.7255004472241
 30
0.0
 41
1.0
 10
-698.241782229883
 20
-325.7333944801903
 30
0.0
 41
0.9227765587232014
 10
-700.2678514859794
 20
-329.3847735548612
 30
0.0
 41
1.0
  0
SPLINE
  5
8F
330
7D
100
AcDbEntity
  8
0
100
AcDbSpline
210
0.0
220
0.0
230
1.0
 70
    24
 71
     1
 72
     4
 73
     2
 74
     0
 42
0.0000000001
 43
0.0000000001
 40
1416.939432280006
 40
1416.939432280006
 40
1434.291182964992
 40
1434.291182964992
 10
-700.2678514859794
 20
-329.3847735548613
 30
0.0
 10
-708.6867476715518
 20
-344.5572960495049
 30
0.0
  0
SPLINE
  5
90
330
7D
100
AcDbEntity
  8
0
100
AcDbSpline
210
0.0
220
0.0
230
1.0
 70
    24
 71
     1
 72
     4
 73
     2
 74
     0
 42
0.0000000001
 43
0.0000000001
 40
1434.291182964992
 40
1434.291182964992
 40
1453.792741363001
 40
1453.792741363001
 10
-708.6867476715518
 20
-344.5572960495049
 30
0.0
 10
-725.7390808249106
 20
-335.0953346261092
 30
0.0
  0
SPLINE
  5
91
330
7D
100
AcDbEntity
  8
0
100
AcDbSpline
210
0.0
220
0.0
230
1.0
 70
    12
 71
     2
 72
     8
 73
     5
 74
     0
 42
0.0000000001
 43
0.0000000001
 40
1453.792741363001
 40
1453.792741363001
 40
1453.792741363001
 40
1459.96684473686
 40
1459.96684473686
 40
1466.140948110719
 40
1466.140948110719
 40
1466.140948110719
 10
-725.7390808249106
 20
-335.0953346261093
 30
0.0
 41
1.0
 10
-727.0127512036646
 20
-331.4172404482707
 30
0.0
 41
0.7166823227114477
 10
-730.7242071069612
 20
-332.5901462810842
 30
0.0
 41
1.0
 10
-734.4356630102579
 20
-333.7630521138979
 30
0.0
 41
0.7166823227114477
 10
-733.3643939350718
 20
-337.5051097809193
 30
0.0
 41
1.0
  0
SPLINE
  5
92
330
7D
100
AcDbEntity
  8
0
100
AcDbSpline
210
0.0
220
0.0
230
1.0
 70
    24
 71
     1
 72
     4
 73
     2
 74
     0
 42
0.0000000001
 43
0.0000000001
 40
1466.140948110719
 40
1466.140948110719
 40
1469.827239611733
 40
1469.827239611733
 10
-733.3643939350718
 20
-337.5051097809194
 30
0.0
 10
-735.1529457659628
 20
-340.7284352963881
 30
0.0
  0
SPLINE
  5
93
330
7D
100
AcDbEntity
  8
0
100
AcDbSpline
210
0.0
220
0.0
230
1.0
 70
    12
 71
     2
 72
     8
 73
     5
 74
     0
 42
0.0000000001
 43
0.0000000001
 40
1469.827239611733
 40
1469.827239611733
 40
1469.827239611733
 40
1476.001432479633
 40
1476.001432479633
 40
1482.175625347533
 40
1482.175625347533
 40
1482.175625347533
 10
-735.1529457659627
 20
-340.7284352963881
 30
0.0
 41
1.0
 10
-738.8951171517844
 20
-341.7996236741592
 30
0.0
 41
0.7166745211945862
 10
-737.9262808878356
 20
-345.5695901879616
 30
0.0
 41
1.0
 10
-736.9574446238869
 20
-349.3395567017639
 30
0.0
 41
0.7166745211945862
 10
-733.1624818564362
 20
-348.4737918288361
 30
0.0
 41
1.0
  0
SPLINE
  5
94
330
7D
100
AcDbEntity
  8
0
100
AcDbSpline
210
0.0
220
0.0
230
1.0
 70
    24
 71
     1
 72
     4
 73
     2
 74
     0
 42
0.0000000001
 43
0.0000000001
 40
1482.175625347533
 40
1482.175625347533
 40
1501.677176646818
 40
1501.677176646818
 10
-733.1624818564362
 20
-348.4737918288361
 30
0.0
 10
-716.1101549102641
 20
-357.9357498080015
 30
0.0
  0
SPLINE
  5
95
330
7D
100
AcDbEntity
  8
0
100
AcDbSpline
210
0.0
220
0.0
230
1.0
 70
    24
 71
     1
 72
     4
 73
     2
 74
     0
 42
0.0000000001
 43
0.0000000001
 40
1501.677176646818
 40
1501.677176646818
 40
1519.028927331804
 40
1519.028927331804
 10
-716.1101549102641
 20
-357.9357498080015
 30
0.0
 10
-724.5290510958448
 20
-373.1082723026407
 30
0.0
  0
SPLINE
  5
96
330
7D
100
AcDbEntity
  8
0
100
AcDbSpline
210
0.0
220
0.0
230
1.0
 70
    12
 71
     2
 72
     6
 73
     3
 74
     0
 42
0.0000000001
 43
0.0000000001
 40
1519.028927331804
 40
1519.028927331804
 40
1519.028927331804
 40
1534.6149945664
 40
1534.6149945664
 40
1534.6149945664
 10
-724.529051095845
 20
-373.1082723026406
 30
0.0
 41
1.0
 10
-729.3221660696925
 20
-381.7464171564179
 30
0.0
 41
0.7114032968259652
 10
-738.0180938992604
 20
-377.058951225843
 30
0.0
 41
1.0
  0
SPLINE
  5
97
330
7D
100
AcDbEntity
  8
0
100
AcDbSpline
210
0.0
220
0.0
230
1.0
 70
    12
 71
     2
 72
     6
 73
     3
 74
     0
 42
0.0000000001
 43
0.0000000001
 40
1534.6149945664
 40
1534.6149945664
 40
1534.6149945664
 40
1585.454731954342
 40
1585.454731954342
 40
1585.454731954342
 10
-738.0180938992603
 20
-377.0589512258429
 30
0.0
 41
1.0
 10
-760.4014830212037
 20
-364.9933757086287
 30
0.0
 41
0.9995076080676081
 10
-783.4975974194506
 20
-354.3555319022445
 30
0.0
 41
1.0
  0
SPLINE
  5
98
330
7D
100
AcDbEntity
  8
0
100
AcDbSpline
210
0.0
220
0.0
230
1.0
 70
    24
 71
     1
 72
     4
 73
     2
 74
     0
 42
0.0000000001
 43
0.0000000001
 40
1585.454731954342
 40
1585.454731954342
 40
1598.318998305758
 40
1598.318998305758
 10
-783.4975974194506
 20
-354.3555319022446
 30
0.0
 10
-795.1820410040089
 20
-348.9737917673557
 30
0.0
  0
SPLINE
  5
99
330
7D
100
AcDbEntity
  8
0
100
AcDbSpline
210
0.0
220
0.0
230
1.0
 70
    24
 71
     1
 72
     4
 73
     2
 74
     0
 42
0.0000000001
 43
0.0000000001
 40
1598.318998305758
 40
1598.318998305758
 40
2013.66878490561
 40
2013.66878490561
 10
-795.1820410040089
 20
-348.9737917673557
 30
0.0
 10
-832.4725580877923
 20
-762.646201488099
 30
0.0
  0
SPLINE
  5
9A
330
7D
100
AcDbEntity
  8
0
100
AcDbSpline
210
0.0
220
0.0
230
1.0
 70
    12
 71
     2
 72
     8
 73
     5
 74
     0
 42
0.0000000001
 43
0.0000000001
 40
2013.66878490561
 40
2013.66878490561
 40
2013.66878490561
 40
2078.888410555741
 40
2078.888410555741
 40
2144.108036205872
 40
2144.108036205872
 40
2144.108036205872
 10
-832.4725580877922
 20
-762.6462014880991
 30
0.0
 41
1.0
 10
-835.574007991063
 20
-797.05130915209
 30
0.0
 41
0.9180658600340608
 10
-862.7439064390898
 20
-818.3850158904232
 30
0.0
 41
1.0
 10
-889.9138048871165
 20
-839.7187226287568
 30
0.0
 41
0.9180658600340608
 10
-924.0726019883052
 20
-834.5702271715271
 30
0.0
 41
1.0
  0
SPLINE
  5
9B
330
7D
100
AcDbEntity
  8
0
100
AcDbSpline
210
0.0
220
0.0
230
1.0
 70
    24
 71
     1
 72
     4
 73
     2
 74
     0
 42
0.0000000001
 43
0.0000000001
 40
2144.108036205872
 40
2144.108036205872
 40
2452.249301150695
 40
2452.249301150695
 10
-924.0726019883052
 20
-834.5702271715271
 30
0.0
 10
-1228.772334508406
 20
-788.6451559796984
 30
0.0
  0
SPLINE
  5
9C
330
7D
100
AcDbEntity
  8
0
100
AcDbSpline
210
0.0
220
0.0
230
1.0
 70
    12
 71
     2
 72
     6
 73
     3
 74
     0
 42
0.0000000001
 43
0.0000000001
 40
2452.249301150695
 40
2452.249301150695
 40
2452.249301150695
 40
2496.0071002462
 40
2496.0071002462
 40
2496.0071002462
 10
-1228.772334508406
 20
-788.6451559796982
 30
0.0
 41
1.0
 10
-1255.28245755756
 20
-784.6494869376915
 30
0.0
 41
0.7456432596838342
 10
-1262.221279803896
 20
-810.5455241057269
 30
0.0
 41
1.0
  0
SPLINE
  5
9D
330
7D
100
AcDbEntity
  8
0
100
AcDbSpline
210
0.0
220
0.0
230
1.0
 70
    24
 71
     1
 72
     4
 73
     2
 74
     0
 42
0.0000000001
 43
0.0000000001
 40
2496.0071002462
 40
2496.0071002462
 40
2513.627793625946
 40
2513.627793625946
 10
-1262.221279803896
 20
-810.5455241057269
 30
0.0
 10
-1266.781850838483
 20
-827.5658069183453
 30
0.0
  0
SPLINE
  5
9E
330
7D
100
AcDbEntity
  8
0
100
AcDbSpline
210
0.0
220
0.0
230
1.0
 70
    24
 71
     1
 72
     4
 73
     2
 74
     0
 42
0.0000000001
 43
0.0000000001
 40
2513.627793625946
 40
2513.627793625946
 40
2532.487729467403
 40
2532.487729467403
 10
-1266.781850838483
 20
-827.5658069183453
 30
0.0
 10
-1284.999149949901
 20
-822.6844963331653
 30
0.0
  0
SPLINE
  5
9F
330
7D
100
AcDbEntity
  8
0
100
AcDbSpline
210
0.0
220
0.0
230
1.0
 70
    12
 71
     2
 72
     8
 73
     5
 74
     0
 42
0.0000000001
 43
0.0000000001
 40
2532.487729467403
 40
2532.487729467403
 40
2532.487729467403
 40
2538.662166123453
 40
2538.662166123453
 40
2544.836602779503
 40
2544.836602779503
 40
2544.836602779503
 10
-1284.999149949901
 20
-822.6844963331653
 30
0.0
 41
1.0
 10
-1286.73008666467
 20
-819.1978077944909
 30
0.0
 41
0.7166532682237875
 10
-1290.262540165258
 20
-820.8333233530989
 30
0.0
 41
1.0
 10
-1293.794993665845
 20
-822.4688389117072
 30
0.0
 41
0.7166532682237875
 10
-1292.256108066886
 20
-826.0444465509171
 30
0.0
 41
1.0
  0
SPLINE
  5
A0
330
7D
100
AcDbEntity
  8
0
100
AcDbSpline
210
0.0
220
0.0
230
1.0
 70
    24
 71
     1
 72
     4
 73
     2
 74
     0
 42
0.0000000001
 43
0.0000000001
 40
2544.836602779503
 40
2544.836602779503
 40
2548.603250483136
 40
2548.603250483136
 10
-1292.256108066886
 20
-826.0444465509171
 30
0.0
 10
-1293.230988228777
 20
-829.6827488463885
 30
0.0
  0
SPLINE
  5
A1
330
7D
100
AcDbEntity
  8
0
100
AcDbSpline
210
0.0
220
0.0
230
1.0
 70
    12
 71
     2
 72
     8
 73
     5
 74
     0
 42
0.0000000001
 43
0.0000000001
 40
2548.603250483136
 40
2548.603250483136
 40
2548.603250483136
 40
2554.777175649088
 40
2554.777175649088
 40
2560.95110081504
 40
2560.95110081504
 40
2560.95110081504
 10
-1293.230988228777
 20
-829.6827488463887
 30
0.0
 41
1.0
 10
-1296.806013414072
 20
-831.2217282198155
 30
0.0
 41
0.7166978579714129
 10
-1295.365247927948
 20
-834.8374518543482
 30
0.0
 41
1.0
 10
-1293.924482441824
 20
-838.453175488881
 30
0.0
 41
0.7166978579714129
 10
-1290.270757922152
 20
-837.1116987944616
 30
0.0
 41
1.0
  0
SPLINE
  5
A2
330
7D
100
AcDbEntity
  8
0
100
AcDbSpline
210
0.0
220
0.0
230
1.0
 70
    24
 71
     1
 72
     4
 73
     2
 74
     0
 42
0.0000000001
 43
0.0000000001
 40
2560.95110081504
 40
2560.95110081504
 40
2581.168984178431
 40
2581.168984178431
 10
-1290.270757922152
 20
-837.1116987944616
 30
0.0
 10
-1270.741782228551
 20
-842.3444720605681
 30
0.0
  0
SPLINE
  5
A3
330
7D
100
AcDbEntity
  8
0
100
AcDbSpline
210
0.0
220
0.0
230
1.0
 70
    24
 71
     1
 72
     4
 73
     2
 74
     0
 42
0.0000000001
 43
0.0000000001
 40
2581.168984178431
 40
2581.168984178431
 40
2599.793984178432
 40
2599.793984178432
 10
-1270.741782228551
 20
-842.3444720605681
 30
0.0
 10
-1275.562286943583
 20
-860.3348405752035
 30
0.0
  0
SPLINE
  5
A4
330
7D
100
AcDbEntity
  8
0
100
AcDbSpline
210
0.0
220
0.0
230
1.0
 70
    24
 71
     1
 72
     4
 73
     2
 74
     0
 42
0.0000000001
 43
0.0000000001
 40
2599.793984178432
 40
2599.793984178432
 40
2618.666796795397
 40
2618.666796795397
 10
-1275.562286943583
 20
-860.3348405752035
 30
0.0
 10
-1293.792024065024
 20
-855.4501972352812
 30
0.0
  0
SPLINE
  5
A5
330
7D
100
AcDbEntity
  8
0
100
AcDbSpline
210
0.0
220
0.0
230
1.0
 70
    12
 71
     2
 72
     8
 73
     5
 74
     0
 42
0.0000000001
 43
0.0000000001
 40
2618.666796795397
 40
2618.666796795397
 40
2618.666796795397
 40
2624.841228251704
 40
2624.841228251704
 40
2631.015659708011
 40
2631.015659708011
 40
2631.015659708011
 10
-1293.792024065023
 20
-855.4501972352811
 30
0.0
 41
1.0
 10
-1295.531706961594
 20
-851.9678700127309
 30
0.0
 41
0.7166537215305397
 10
-1299.060040649931
 20
-853.6122424916036
 30
0.0
 41
1.0
 10
-1302.588374338269
 20
-855.2566149704761
 30
0.0
 41
0.7166537215305397
 10
-1301.040527742916
 20
-858.8283470968803
 30
0.0
 41
1.0
  0
SPLINE
  5
A6
330
7D
100
AcDbEntity
  8
0
100
AcDbSpline
210
0.0
220
0.0
230
1.0
 70
    24
 71
     1
 72
     4
 73
     2
 74
     0
 42
0.0000000001
 43
0.0000000001
 40
2631.015659708011
 40
2631.015659708011
 40
2634.77891067259
 40
2634.77891067259
 10
-1301.040527742916
 20
-858.8283470968803
 30
0.0
 10
-1302.01452876405
 20
-862.463368394374
 30
0.0
  0
SPLINE
  5
A7
330
7D
100
AcDbEntity
  8
0
100
AcDbSpline
210
0.0
220
0.0
230
1.0
 70
    12
 71
     2
 72
     8
 73
     5
 74
     0
 42
0.0000000001
 43
0.0000000001
 40
2634.77891067259
 40
2634.77891067259
 40
2634.77891067259
 40
2640.952852185598
 40
2640.952852185598
 40
2647.126793698605
 40
2647.126793698605
 40
2647.126793698605
 10
-1302.01452876405
 20
-862.4633683943737
 30
0.0
 41
1.0
 10
-1305.585709806091
 20
-864.0112871331691
 30
0.0
 41
0.7166964329484518
 10
-1304.135888537528
 20
-867.6234062821137
 30
0.0
 41
1.0
 10
-1302.686067268964
 20
-871.2355254310581
 30
0.0
 41
0.7166964329484518
 10
-1299.035704081754
 20
-869.8848829697058
 30
0.0
 41
1.0
  0
SPLINE
  5
A8
330
7D
100
AcDbEntity
  8
0
100
AcDbSpline
210
0.0
220
0.0
230
1.0
 70
    24
 71
     1
 72
     4
 73
     2
 74
     0
 42
0.0000000001
 43
0.0000000001
 40
2647.126793698605
 40
2647.126793698605
 40
2667.328640690386
 40
2667.328640690386
 10
-1299.035704081754
 20
-869.8848829697058
 30
0.0
 10
-1279.522218333653
 20
-875.1135057174261
 30
0.0
  0
SPLINE
  5
A9
330
7D
100
AcDbEntity
  8
0
100
AcDbSpline
210
0.0
220
0.0
230
1.0
 70
    24
 71
     1
 72
     4
 73
     2
 74
     0
 42
0.0000000001
 43
0.0000000001
 40
2667.328640690386
 40
2667.328640690386
 40
2687.028640690386
 40
2687.028640690386
 10
-1279.522218333653
 20
-875.1135057174261
 30
0.0
 10
-1284.620953522168
 20
-894.1422444953221
 30
0.0
  0
SPLINE
  5
AA
330
7D
100
AcDbEntity
  8
0
100
AcDbSpline
210
0.0
220
0.0
230
1.0
 70
    24
 71
     1
 72
     4
 73
     2
 74
     0
 42
0.0000000001
 43
0.0000000001
 40
2687.028640690386
 40
2687.028640690386
 40
2705.912909164473
 40
2705.912909164473
 10
-1284.620953522168
 20
-894.1422444953221
 30
0.0
 10
-1302.861756151862
 20
-889.254636161389
 30
0.0
  0
SPLINE
  5
AB
330
7D
100
AcDbEntity
  8
0
100
AcDbSpline
210
0.0
220
0.0
230
1.0
 70
    12
 71
     2
 72
     8
 73
     5
 74
     0
 42
0.0000000001
 43
0.0000000001
 40
2705.912909164473
 40
2705.912909164473
 40
2705.912909164473
 40
2712.087334693747
 40
2712.087334693747
 40
2718.261760223022
 40
2718.261760223022
 40
2718.261760223022
 10
-1302.861756151863
 20
-889.254636161389
 30
0.0
 41
1.0
 10
-1304.60918950901
 20
-885.7761981204189
 30
0.0
 41
0.7166542382410079
 10
-1308.133848598488
 20
-887.4284187005774
 30
0.0
 41
1.0
 10
-1311.658507687966
 20
-889.0806392807356
 30
0.0
 41
0.7166542382410079
 10
-1310.102721284788
 20
-892.6489138231757
 30
0.0
 41
1.0
  0
SPLINE
  5
AC
330
7D
100
AcDbEntity
  8
0
100
AcDbSpline
210
0.0
220
0.0
230
1.0
 70
    24
 71
     1
 72
     4
 73
     2
 74
     0
 42
0.0000000001
 43
0.0000000001
 40
2718.261760223022
 40
2718.261760223022
 40
2722.022071759751
 40
2722.022071759751
 10
-1310.102721284788
 20
-892.6489138231757
 30
0.0
 10
-1311.075961526014
 20
-896.2810958513949
 30
0.0
  0
SPLINE
  5
AD
330
7D
100
AcDbEntity
  8
0
100
AcDbSpline
210
0.0
220
0.0
230
1.0
 70
    12
 71
     2
 72
     8
 73
     5
 74
     0
 42
0.0000000001
 43
0.0000000001
 40
2722.022071759751
 40
2722.022071759751
 40
2722.022071759751
 40
2728.196059050505
 40
2728.196059050505
 40
2734.370046341258
 40
2734.370046341258
 40
2734.370046341258
 10
-1311.075961526014
 20
-896.2810958513945
 30
0.0
 41
1.0
 10
-1314.643748913632
 20
-897.8369321214959
 30
0.0
 41
0.7166924423459636
 10
-1313.18587909175
 20
-901.4458584057327
 30
0.0
 41
1.0
 10
-1311.728009269868
 20
-905.0547846899696
 30
0.0
 41
0.7166924423459636
 10
-1308.080633521031
 20
-903.6959677451972
 30
0.0
 41
1.0
  0
SPLINE
  5
AE
330
7D
100
AcDbEntity
  8
0
100
AcDbSpline
210
0.0
220
0.0
230
1.0
 70
    24
 71
     1
 72
     4
 73
     2
 74
     0
 42
0.0000000001
 43
0.0000000001
 40
2734.370046341258
 40
2734.370046341258
 40
2754.557671599921
 40
2754.557671599921
 10
-1308.080633521031
 20
-903.6959677451972
 30
0.0
 10
-1288.580884912245
 20
-908.9209096375425
 30
0.0
  0
SPLINE
  5
AF
330
7D
100
AcDbEntity
  8
0
100
AcDbSpline
210
0.0
220
0.0
230
1.0
 70
    24
 71
     1
 72
     4
 73
     2
 74
     0
 42
0.0000000001
 43
0.0000000001
 40
2754.557671599921
 40
2754.557671599921
 40
2774.257671599921
 40
2774.257671599921
 10
-1288.580884912245
 20
-908.9209096375425
 30
0.0
 10
-1293.679620100761
 20
-927.9496484154374
 30
0.0
  0
SPLINE
  5
B0
330
7D
100
AcDbEntity
  8
0
100
AcDbSpline
210
0.0
220
0.0
230
1.0
 70
    24
 71
     1
 72
     4
 73
     2
 74
     0
 42
0.0000000001
 43
0.0000000001
 40
2774.257671599921
 40
2774.257671599921
 40
2793.147089254397
 40
2793.147089254397
 10
-1293.679620100761
 20
-927.9496484154374
 30
0.0
 10
-1311.92539645678
 20
-923.0607073755607
 30
0.0
  0
SPLINE
  5
B1
330
7D
100
AcDbEntity
  8
0
100
AcDbSpline
210
0.0
220
0.0
230
1.0
 70
    12
 71
     2
 72
     8
 73
     5
 74
     0
 42
0.0000000001
 43
0.0000000001
 40
2793.147089254397
 40
2793.147089254397
 40
2793.147089254397
 40
2799.321511707107
 40
2799.321511707107
 40
2805.495934159817
 40
2805.495934159817
 40
2805.495934159817
 10
-1311.92539645678
 20
-923.0607073755608
 30
0.0
 41
1.0
 10
-1313.67630417265
 20
-919.5840202463
 30
0.0
 41
0.7166545064515016
 10
-1317.199308727076
 20
-921.2397587926153
 30
0.0
 41
1.0
 10
-1320.722313281502
 20
-922.89549733893
 30
0.0
 41
0.7166545064515016
 10
-1319.162967974628
 20
-926.4622147987507
 30
0.0
 41
1.0
  0
SPLINE
  5
B2
330
7D
100
AcDbEntity
  8
0
100
AcDbSpline
210
0.0
220
0.0
230
1.0
 70
    24
 71
     1
 72
     4
 73
     2
 74
     0
 42
0.0000000001
 43
0.0000000001
 40
2805.495934159817
 40
2805.495934159817
 40
2809.254944587558
 40
2809.254944587558
 10
-1319.162967974628
 20
-926.4622147987507
 30
0.0
 10
-1320.135871464066
 20
-930.0931400521955
 30
0.0
  0
SPLINE
  5
B3
330
7D
100
AcDbEntity
  8
0
100
AcDbSpline
210
0.0
220
0.0
230
1.0
 70
    12
 71
     2
 72
     8
 73
     5
 74
     0
 42
0.0000000001
 43
0.0000000001
 40
2809.254944587558
 40
2809.254944587558
 40
2809.254944587558
 40
2815.428958079749
 40
2815.428958079749
 40
2821.602971571939
 40
2821.602971571939
 40
2821.602971571939
 10
-1320.135871464066
 20
-930.0931400521959
 30
0.0
 41
1.0
 10
-1323.702138198271
 20
-931.6525224526235
 30
0.0
 41
0.7166901582666436
 10
-1322.240658429043
 20
-935.2600158724925
 30
0.0
 41
1.0
 10
-1320.779178659815
 20
-938.8675092923616
 30
0.0
 41
0.7166901582666436
 10
-1317.133145628626
 20
-937.505020750855
 30
0.0
 41
1.0
  0
SPLINE
  5
B4
330
7D
100
AcDbEntity
  8
0
100
AcDbSpline
210
0.0
220
0.0
230
1.0
 70
    24
 71
     1
 72
     4
 73
     2
 74
     0
 42
0.0000000001
 43
0.0000000001
 40
2821.602971571939
 40
2821.602971571939
 40
2841.78422525338
 40
2841.78422525338
 10
-1317.133145628626
 20
-937.505020750855
 30
0.0
 10
-1297.639551490831
 20
-942.7283135576597
 30
0.0
  0
SPLINE
  5
B5
330
7D
100
AcDbEntity
  8
0
100
AcDbSpline
210
0.0
220
0.0
230
1.0
 70
    24
 71
     1
 72
     4
 73
     2
 74
     0
 42
0.0000000001
 43
0.0000000001
 40
2841.78422525338
 40
2841.78422525338
 40
2861.484225253379
 40
2861.484225253379
 10
-1297.639551490831
 20
-942.7283135576597
 30
0.0
 10
-1302.738286679351
 20
-961.7570523355529
 30
0.0
  0
SPLINE
  5
B6
330
7D
100
AcDbEntity
  8
0
100
AcDbSpline
210
0.0
220
0.0
230
1.0
 70
    24
 71
     1
 72
     4
 73
     2
 74
     0
 42
0.0000000001
 43
0.0000000001
 40
2861.484225253379
 40
2861.484225253379
 40
2880.385241014632
 40
2880.385241014632
 10
-1302.738286679351
 20
-961.7570523355529
 30
0.0
 10
-1320.995265946243
 20
-956.8651094847576
 30
0.0
  0
SPLINE
  5
B7
330
7D
100
AcDbEntity
  8
0
100
AcDbSpline
210
0.0
220
0.0
230
1.0
 70
    12
 71
     2
 72
     8
 73
     5
 74
     0
 42
0.0000000001
 43
0.0000000001
 40
2880.385241014632
 40
2880.385241014632
 40
2880.385241014632
 40
2886.559656387326
 40
2886.559656387326
 40
2892.734071760019
 40
2892.734071760019
 40
2892.734071760019
 10
-1320.995265946243
 20
-956.8651094847575
 30
0.0
 41
1.0
 10
-1322.753978016974
 20
-953.3923714562086
 30
0.0
 41
0.7166551236767225
 10
-1326.27325005494
 20
-955.0560126090584
 30
0.0
 41
1.0
 10
-1329.792522092906
 20
-956.7196537619079
 30
0.0
 41
0.7166551236767225
 10
-1328.225181930255
 20
-960.2828577102116
 30
0.0
 41
1.0
  0
SPLINE
  5
B8
330
7D
100
AcDbEntity
  8
0
100
AcDbSpline
210
0.0
220
0.0
230
1.0
 70
    24
 71
     1
 72
     4
 73
     2
 74
     0
 42
0.0000000001
 43
0.0000000001
 40
2892.734071760019
 40
2892.734071760019
 40
2896.490192169756
 40
2896.490192169756
 10
-1328.225181930255
 20
-960.2828577102115
 30
0.0
 10
-1329.197337427993
 20
-963.9109914206273
 30
0.0
  0
SPLINE
  5
B9
330
7D
100
AcDbEntity
  8
0
100
AcDbSpline
210
0.0
220
0.0
230
1.0
 70
    12
 71
     2
 72
     8
 73
     5
 74
     0
 42
0.0000000001
 43
0.0000000001
 40
2896.490192169756
 40
2896.490192169756
 40
2896.490192169756
 40
2902.664231331959
 40
2902.664231331959
 40
2908.838270494162
 40
2908.838270494162
 40
2908.838270494162
 10
-1329.197337427993
 20
-963.9109914206275
 30
0.0
 41
1.0
 10
-1332.760132824926
 20
-965.4783507836969
 30
0.0
 41
0.71668792050618
 10
-1331.290561202427
 20
-969.0825824160645
 30
0.0
 41
1.0
 10
-1329.820989579928
 20
-972.6868140484319
 30
0.0
 41
0.71668792050618
 10
-1326.178005094622
 20
-971.3161242756428
 30
0.0
 41
1.0
  0
SPLINE
  5
BA
330
7D
100
AcDbEntity
  8
0
100
AcDbSpline
210
0.0
220
0.0
230
1.0
 70
    24
 71
     1
 72
     4
 73
     2
 74
     0
 42
0.0000000001
 43
0.0000000001
 40
2908.838270494162
 40
2908.838270494162
 40
2929.005230000816
 40
2929.005230000816
 10
-1326.178005094622
 20
-971.3161242756428
 30
0.0
 10
-1306.698218069419
 20
-976.5357174777757
 30
0.0
  0
SPLINE
  5
BB
330
7D
100
AcDbEntity
  8
0
100
AcDbSpline
210
0.0
220
0.0
230
1.0
 70
    24
 71
     1
 72
     4
 73
     2
 74
     0
 42
0.0000000001
 43
0.0000000001
 40
2929.005230000816
 40
2929.005230000816
 40
2948.705230000815
 40
2948.705230000815
 10
-1306.698218069419
 20
-976.5357174777757
 30
0.0
 10
-1311.796953257934
 20
-995.5644562556712
 30
0.0
  0
SPLINE
  5
BC
330
7D
100
AcDbEntity
  8
0
100
AcDbSpline
210
0.0
220
0.0
230
1.0
 70
    24
 71
     1
 72
     4
 73
     2
 74
     0
 42
0.0000000001
 43
0.0000000001
 40
2948.705230000815
 40
2948.705230000815
 40
2967.611782767937
 40
2967.611782767937
 10
-1311.796953257934
 20
-995.5644562556712
 30
0.0
 10
-1330.059280861792
 20
-990.6710803222975
 30
0.0
  0
SPLINE
  5
BD
330
7D
100
AcDbEntity
  8
0
100
AcDbSpline
210
0.0
220
0.0
230
1.0
 70
    12
 71
     2
 72
     8
 73
     5
 74
     0
 42
0.0000000001
 43
0.0000000001
 40
2967.611782767937
 40
2967.611782767937
 40
2967.611782767937
 40
2973.786193987472
 40
2973.786193987472
 40
2979.960605207007
 40
2979.960605207007
 40
2979.960605207007
 10
-1330.059280861792
 20
-990.6710803222976
 30
0.0
 41
1.0
 10
-1331.821708680163
 20
-987.2002311078066
 30
0.0
 41
0.7166554857425954
 10
-1335.339195361556
 20
-988.8676343376579
 30
0.0
 41
1.0
 10
-1338.85668204295
 20
-990.5350375675093
 30
0.0
 41
0.7166554857425954
 10
-1337.285536349706
 20
-994.0965607381907
 30
0.0
 41
1.0
  0
SPLINE
  5
BE
330
7D
100
AcDbEntity
  8
0
100
AcDbSpline
210
0.0
220
0.0
230
1.0
 70
    24
 71
     1
 72
     4
 73
     2
 74
     0
 42
0.0000000001
 43
0.0000000001
 40
2979.960605207007
 40
2979.960605207007
 40
2983.715366205311
 40
2983.715366205311
 10
-1337.285536349706
 20
-994.0965607381907
 30
0.0
 10
-1338.257340005876
 20
-997.7233813579949
 30
0.0
  0
SPLINE
  5
BF
330
7D
100
AcDbEntity
  8
0
100
AcDbSpline
210
0.0
220
0.0
230
1.0
 70
    12
 71
     2
 72
     8
 73
     5
 74
     0
 42
0.0000000001
 43
0.0000000001
 40
2983.715366205311
 40
2983.715366205311
 40
2983.715366205311
 40
2989.889421855655
 40
2989.889421855655
 40
2996.063477506
 40
2996.063477506
 40
2996.063477506
 10
-1338.257340005876
 20
-997.7233813579946
 30
0.0
 41
1.0
 10
-1341.818481468493
 20
-999.2945347058153
 30
0.0
 41
0.7166864831632503
 10
-1340.345057298663
 20
-1002.897210457934
 30
0.0
 41
1.0
 10
-1338.871633128832
 20
-1006.499886210052
 30
0.0
 41
0.7166864831632503
 10
-1335.230104501073
 20
-1005.125287864222
 30
0.0
 41
1.0
  0
SPLINE
  5
C0
330
7D
100
AcDbEntity
  8
0
100
AcDbSpline
210
0.0
220
0.0
230
1.0
 70
    24
 71
     1
 72
     4
 73
     2
 74
     0
 42
0.0000000001
 43
0.0000000001
 40
2996.063477506
 40
2996.063477506
 40
3016.223638175769
 40
3016.223638175769
 10
-1335.230104501073
 20
-1005.125287864222
 30
0.0
 10
-1315.756884648008
 20
-1010.343121397892
 30
0.0
  0
SPLINE
  5
C1
330
7D
100
AcDbEntity
  8
0
100
AcDbSpline
210
0.0
220
0.0
230
1.0
 70
    24
 71
     1
 72
     4
 73
     2
 74
     0
 42
0.0000000001
 43
0.0000000001
 40
3016.223638175769
 40
3016.223638175769
 40
3031.073638175761
 40
3031.073638175761
 10
-1315.756884648008
 20
-1010.343121397892
 30
0.0
 10
-1319.600347467776
 20
-1024.687119918277
 30
0.0
  0
SPLINE
  5
C2
330
7D
100
AcDbEntity
  8
0
100
AcDbSpline
210
0.0
220
0.0
230
1.0
 70
    12
 71
     2
 72
     6
 73
     3
 74
     0
 42
0.0000000001
 43
0.0000000001
 40
3031.073638175761
 40
3031.073638175761
 40
3031.073638175761
 40
3046.781601443714
 40
3046.781601443714
 40
3046.781601443714
 10
-1319.600347467776
 20
-1024.687119918277
 30
0.0
 41
1.0
 10
-1322.188537918796
 20
-1034.346378181175
 30
0.0
 41
0.7071067811863381
 10
-1331.847796181692
 20
-1031.758187730149
 30
0.0
 41
1.0
  0
SPLINE
  5
C3
330
7D
100
AcDbEntity
  8
0
100
AcDbSpline
210
0.0
220
0.0
230
1.0
 70
    24
 71
     1
 72
     4
 73
     2
 74
     0
 42
0.0000000001
 43
0.0000000001
 40
3046.781601443714
 40
3046.781601443714
 40
3076.781601443709
 40
3076.781601443709
 10
-1331.847796181692
 20
-1031.758187730149
 30
0.0
 10
-1360.82557097036
 20
-1023.993616377077
 30
0.0
  0
SPLINE
  5
C4
330
7D
100
AcDbEntity
  8
0
100
AcDbSpline
210
0.0
220
0.0
230
1.0
 70
    12
 71
     2
 72
     6
 73
     3
 74
     0
 42
0.0000000001
 43
0.0000000001
 40
3076.781601443709
 40
3076.781601443709
 40
3076.781601443709
 40
3092.489564711659
 40
3092.489564711659
 40
3092.489564711659
 10
-1360.82557097036
 20
-1023.993616377077
 30
0.0
 41
1.0
 10
-1370.484829233252
 20
-1021.405425926053
 30
0.0
 41
0.707106781186494
 10
-1367.896638782227
 20
-1011.746167663161
 30
0.0
 41
1.0
  0
SPLINE
  5
C5
330
7D
100
AcDbEntity
  8
0
100
AcDbSpline
210
0.0
220
0.0
230
1.0
 70
    24
 71
     1
 72
     4
 73
     2
 74
     0
 42
0.0000000001
 43
0.0000000001
 40
3092.489564711659
 40
3092.489564711659
 40
3306.633095996008
 40
3306.633095996008
 10
-1367.896638782227
 20
-1011.746167663161
 30
0.0
 10
-1312.472214500333
 20
-804.8994002628659
 30
0.0
  0
SPLINE
  5
C6
330
7D
100
AcDbEntity
  8
0
100
AcDbSpline
210
0.0
220
0.0
230
1.0
 70
    12
 71
     2
 72
     6
 73
     3
 74
     0
 42
0.0000000001
 43
0.0000000001
 40
3306.633095996008
 40
3306.633095996008
 40
3306.633095996008
 40
3331.290781098272
 40
3331.290781098272
 40
3331.290781098272
 10
-1312.472214500333
 20
-804.8994002628658
 30
0.0
 41
1.0
 10
-1309.214992931559
 20
-792.7432838766941
 30
0.0
 41
0.969753643839181
 10
-1312.100668366858
 20
-780.4936497913694
 30
0.0
 41
1.0
  0
SPLINE
  5
C7
330
7D
100
AcDbEntity
  8
0
100
AcDbSpline
210
0.0
220
0.0
230
1.0
 70
    24
 71
     1
 72
     4
 73
     2
 74
     0
 42
0.0000000001
 43
0.0000000001
 40
3331.290781098272
 40
3331.290781098272
 40
3696.584993575009
 40
3696.584993575009
 10
-1312.100668366858
 20
-780.4936497913694
 30
0.0
 10
-1395.861157079938
 20
-424.9320627216383
 30
0.0
  0
SPLINE
  5
C8
330
7D
100
AcDbEntity
  8
0
100
AcDbSpline
210
0.0
220
0.0
230
1.0
 70
    24
 71
     1
 72
     4
 73
     2
 74
     0
 42
0.0000000001
 43
0.0000000001
 40
3696.584993575009
 40
3696.584993575009
 40
3716.086551973019
 40
3716.086551973019
 10
-1395.861157079938
 20
-424.9320627216383
 30
0.0
 10
-1376.879183598027
 20
-420.4604340828755
 30
0.0
  0
SPLINE
  5
C9
330
7D
100
AcDbEntity
  8
0
100
AcDbSpline
210
0.0
220
0.0
230
1.0
 70
    12
 71
     2
 72
     8
 73
     5
 74
     0
 42
0.0000000001
 43
0.0000000001
 40
3716.086551973019
 40
3716.086551973019
 40
3716.086551973019
 40
3722.260655346877
 40
3722.260655346877
 40
3728.434758720735
 40
3728.434758720735
 40
3728.434758720735
 10
-1376.879183598028
 20
-420.4604340828759
 30
0.0
 41
1.0
 10
-1373.462366734249
 20
-422.3248309113869
 30
0.0
 41
0.7166823227114727
 10
-1371.505496420768
 20
-418.9601211778467
 30
0.0
 41
1.0
 10
-1369.548626107287
 20
-415.5954114443066
 30
0.0
 41
0.7166823227114727
 10
-1372.858726600811
 20
-413.5475228395382
 30
0.0
 41
1.0
  0
SPLINE
  5
CA
330
7D
100
AcDbEntity
  8
0
100
AcDbSpline
210
0.0
220
0.0
230
1.0
 70
    12
 71
     2
 72
     8
 73
     5
 74
     0
 42
0.0000000001
 43
0.0000000001
 40
0.0
 40
0.0
 40
0.0
 40
6.174266011738501
 40
6.174266011738501
 40
12.348532023477
 40
12.348532023477
 40
12.348532023477
 10
-865.488535332199
 20
-634.2865877694624
 30
0.0
 41
1.0
 10
-868.0212013360113
 20
-631.3306701359652
 30
0.0
 41
0.7166681253968039
 10
-865.1353348702157
 20
-628.7184640023528
 30
0.0
 41
1.0
 10
-862.2494684044204
 20
-626.1062578687405
 30
0.0
 41
0.7166681253968039
 10
-859.559658868497
 20
-628.9199335436078
 30
0.0
 41
1.0
  0
SPLINE
  5
CB
330
7D
100
AcDbEntity
  8
0
100
AcDbSpline
210
0.0
220
0.0
230
1.0
 70
    24
 71
     1
 72
     4
 73
     2
 74
     0
 42
0.0000000001
 43
0.0000000001
 40
12.348532023477
 40
12.348532023477
 40
16.03468296339832
 40
16.03468296339832
 10
-859.559658868497
 20
-628.9199335436078
 30
0.0
 10
-855.8747999813757
 20
-629.0175231633726
 30
0.0
  0
SPLINE
  5
CC
330
7D
100
AcDbEntity
  8
0
100
AcDbSpline
210
0.0
220
0.0
230
1.0
 70
    12
 71
     2
 72
     8
 73
     5
 74
     0
 42
0.0000000001
 43
0.0000000001
 40
16.03468296339832
 40
16.03468296339832
 40
16.03468296339832
 40
22.20809911993394
 40
22.20809911993394
 40
28.38151527646956
 40
28.38151527646956
 40
28.38151527646956
 10
-855.8747999813755
 20
-629.0175231633727
 30
0.0
 41
1.0
 10
-853.0615120522365
 20
-626.3285052930262
 30
0.0
 41
0.7167422282180823
 10
-850.2963132730092
 20
-629.0669504340948
 30
0.0
 41
1.0
 10
-847.5311144937821
 20
-631.8053955751636
 30
0.0
 41
0.7167422282180823
 10
-850.1926547102529
 20
-634.6446929804013
 30
0.0
 41
1.0
  0
SPLINE
  5
CD
330
7D
100
AcDbEntity
  8
0
100
AcDbSpline
210
0.0
220
0.0
230
1.0
 70
    24
 71
     1
 72
     4
 73
     2
 74
     0
 42
0.0000000001
 43
0.0000000001
 40
28.38151527646956
 40
28.38151527646956
 40
67.40164309318473
 40
67.40164309318473
 10
-850.1926547102529
 20
-634.6446929804013
 30
0.0
 10
-851.2257009443364
 20
-673.6511436047664
 30
0.0
  0
SPLINE
  5
CE
330
7D
100
AcDbEntity
  8
0
100
AcDbSpline
210
0.0
220
0.0
230
1.0
 70
    12
 71
     2
 72
     8
 73
     5
 74
     0
 42
0.0000000001
 43
0.0000000001
 40
67.40164309318473
 40
67.40164309318473
 40
67.40164309318473
 40
73.68482840036427
 40
73.68482840036427
 40
79.9680137075438
 40
79.9680137075438
 40
79.9680137075438
 10
-851.2257009443363
 20
-673.6511436047663
 30
0.0
 41
1.0
 10
-848.5509497565161
 20
-676.6253167811722
 30
0.0
 41
0.7071067811865692
 10
-851.5251229329218
 20
-679.3000679689926
 30
0.0
 41
1.0
 10
-854.4992961093274
 20
-681.9748191568131
 30
0.0
 41
0.7071067811865692
 10
-857.1740472971482
 20
-679.0006459804075
 30
0.0
 41
1.0
  0
SPLINE
  5
CF
330
7D
100
AcDbEntity
  8
0
100
AcDbSpline
210
0.0
220
0.0
230
1.0
 70
    24
 71
     1
 72
     4
 73
     2
 74
     0
 42
0.0000000001
 43
0.0000000001
 40
79.9680137075438
 40
79.9680137075438
 40
83.95827088073025
 40
83.95827088073025
 10
-857.1740472971482
 20
-679.0006459804075
 30
0.0
 10
-861.1629058215851
 20
-678.8950051729919
 30
0.0
  0
SPLINE
  5
D0
330
7D
100
AcDbEntity
  8
0
100
AcDbSpline
210
0.0
220
0.0
230
1.0
 70
    12
 71
     2
 72
     8
 73
     5
 74
     0
 42
0.0000000001
 43
0.0000000001
 40
83.95827088073025
 40
83.95827088073025
 40
83.95827088073025
 40
90.24145618791006
 40
90.24145618791006
 40
96.52464149508987
 40
96.52464149508987
 40
96.52464149508987
 10
-861.1629058215851
 20
-678.8950051729919
 30
0.0
 41
1.0
 10
-864.137079029812
 20
-681.5697563254295
 30
0.0
 41
0.7071067811865476
 10
-866.8118301822497
 20
-678.5955831172025
 30
0.0
 41
1.0
 10
-869.4865813346872
 20
-675.6214099089757
 30
0.0
 41
0.7071067811865476
 10
-866.5124081264603
 20
-672.946658756538
 30
0.0
 41
1.0
  0
SPLINE
  5
D1
330
7D
100
AcDbEntity
  8
0
100
AcDbSpline
210
0.0
220
0.0
230
1.0
 70
    24
 71
     1
 72
     4
 73
     2
 74
     0
 42
0.0000000001
 43
0.0000000001
 40
96.52464149508987
 40
96.52464149508987
 40
135.1982682221576
 40
135.1982682221576
 10
-866.5124081264603
 20
-672.946658756538
 30
0.0
 10
-865.488535332199
 20
-634.2865877694622
 30
0.0
  0
SPLINE
  5
D2
330
7D
100
AcDbEntity
  8
0
100
AcDbSpline
210
0.0
220
0.0
230
1.0
 70
    24
 71
     1
 72
     4
 73
     2
 74
     0
 42
0.0000000001
 43
0.0000000001
 40
0.0
 40
0.0
 40
279.4307968381347
 40
279.4307968381347
 10
-881.3853754268827
 20
-603.3138545074202
 30
0.0
 10
-856.2978004734247
 20
-325.0115300389574
 30
0.0
  0
SPLINE
  5
D3
330
7D
100
AcDbEntity
  8
0
100
AcDbSpline
210
0.0
220
0.0
230
1.0
 70
    12
 71
     2
 72
     6
 73
     3
 74
     0
 42
0.0000000001
 43
0.0000000001
 40
279.4307968381347
 40
279.4307968381347
 40
279.4307968381347
 40
792.838651957793
 40
792.838651957793
 40
792.838651957793
 10
-856.297800473399
 20
-325.0115300389666
 30
0.0
 41
1.0
 10
-1107.215540728504
 20
-237.7505101846879
 30
0.0
 41
0.9502002687076777
 10
-1361.074822999902
 20
-316.0426730452701
 30
0.0
 41
1.0
  0
SPLINE
  5
D4
330
7D
100
AcDbEntity
  8
0
100
AcDbSpline
210
0.0
220
0.0
230
1.0
 70
    24
 71
     1
 72
     4
 73
     2
 74
     0
 42
0.0000000001
 43
0.0000000001
 40
792.838651957793
 40
792.838651957793
 40
1062.989820394551
 40
1062.989820394551
 10
-1361.074822999928
 20
-316.042673045278
 30
0.0
 10
-1278.448277029258
 20
-573.2478590519025
 30
0.0
  0
SPLINE
  5
D5
330
7D
100
AcDbEntity
  8
0
100
AcDbSpline
210
0.0
220
0.0
230
1.0
 70
    12
 71
     2
 72
     6
 73
     3
 74
     0
 42
0.0000000001
 43
0.0000000001
 40
1062.989820394551
 40
1062.989820394551
 40
1062.989820394551
 40
1100.688932237629
 40
1100.688932237629
 40
1100.688932237629
 10
-1278.448277029258
 20
-573.2478590519024
 30
0.0
 41
1.0
 10
-1272.256696644566
 20
-594.171664803558
 30
0.0
 41
0.8081128387335728
 10
-1250.44200020815
 20
-594.6818943403066
 30
0.0
 41
1.0
  0
SPLINE
  5
D6
330
7D
100
AcDbEntity
  8
0
100
AcDbSpline
210
0.0
220
0.0
230
1.0
 70
    24
 71
     1
 72
     4
 73
     2
 74
     0
 42
0.0000000001
 43
0.0000000001
 40
1100.688932237629
 40
1100.688932237629
 40
1469.846490783121
 40
1469.846490783121
 10
-1250.44200020815
 20
-594.6818943403066
 30
0.0
 10
-881.3853754268827
 20
-603.3138545074202
 30
0.0
  0
SPLINE
  5
D7
330
7D
100
AcDbEntity
  8
0
100
AcDbSpline
210
0.0
220
0.0
230
1.0
 70
    24
 71
     1
 72
     4
 73
     2
 74
     0
 42
0.0000000001
 43
0.0000000001
 40
0.0
 40
0.0
 40
30.63920024190867
 40
30.63920024190867
 10
-1215.891417283915
 20
-645.0344442517544
 30
0.0
 10
-1246.521103219071
 20
-644.2709450851077
 30
0.0
  0
SPLINE
  5
D8
330
7D
100
AcDbEntity
  8
0
100
AcDbSpline
210
0.0
220
0.0
230
1.0
 70
    12
 71
     2
 72
     8
 73
     5
 74
     0
 42
0.0000000001
 43
0.0000000001
 40
30.63920024190867
 40
30.63920024190867
 40
30.63920024190867
 40
56.99690128045059
 40
56.99690128045059
 40
83.35460231899251
 40
83.35460231899251
 40
83.35460231899251
 10
-1246.521103219072
 20
-644.270945085108
 30
0.0
 41
1.0
 10
-1260.614312989026
 20
-643.9196468727293
 30
0.0
 41
0.9050517183143111
 10
-1269.879567421772
 20
-654.5449483908242
 30
0.0
 41
1.0
 10
-1279.144821854518
 20
-665.170249908919
 30
0.0
 41
0.9050517183143111
 10
-1276.87847265271
 20
-679.0844740464488
 30
0.0
 41
1.0
  0
SPLINE
  5
D9
330
7D
100
AcDbEntity
  8
0
100
AcDbSpline
210
0.0
220
0.0
230
1.0
 70
    24
 71
     1
 72
     4
 73
     2
 74
     0
 42
0.0000000001
 43
0.0000000001
 40
83.35460231899251
 40
83.35460231899251
 40
114.3830143834902
 40
114.3830143834902
 10
-1276.87847265271
 20
-679.0844740464488
 30
0.0
 10
-1271.890298815183
 20
-709.7093083645456
 30
0.0
  0
SPLINE
  5
DA
330
7D
100
AcDbEntity
  8
0
100
AcDbSpline
210
0.0
220
0.0
230
1.0
 70
    12
 71
     2
 72
     6
 73
     3
 74
     0
 42
0.0000000001
 43
0.0000000001
 40
114.3830143834902
 40
114.3830143834902
 40
114.3830143834902
 40
153.2714332178455
 40
153.2714332178455
 40
153.2714332178455
 10
-1271.890298815183
 20
-709.7093083645455
 30
0.0
 41
1.0
 10
-1268.238083280364
 20
-732.1320424734507
 30
0.0
 41
0.7972078780427799
 10
-1245.664887166222
 20
-734.6949510601784
 30
0.0
 41
1.0
  0
SPLINE
  5
DB
330
7D
100
AcDbEntity
  8
0
100
AcDbSpline
210
0.0
220
0.0
230
1.0
 70
    24
 71
     1
 72
     4
 73
     2
 74
     0
 42
0.0000000001
 43
0.0000000001
 40
153.2714332178455
 40
153.2714332178455
 40
486.3796563612802
 40
486.3796563612802
 10
-1245.664887166222
 20
-734.6949510601783
 30
0.0
 10
-914.6831439239877
 20
-772.2738542654066
 30
0.0
  0
SPLINE
  5
DC
330
7D
100
AcDbEntity
  8
0
100
AcDbSpline
210
0.0
220
0.0
230
1.0
 70
    12
 71
     2
 72
     8
 73
     5
 74
     0
 42
0.0000000001
 43
0.0000000001
 40
486.3796563612802
 40
486.3796563612802
 40
486.3796563612802
 40
500.2388268119331
 40
500.2388268119331
 40
514.0979972625859
 40
514.0979972625859
 40
514.0979972625859
 10
-914.6831439239878
 20
-772.2738542654067
 30
0.0
 41
1.0
 10
-907.4277951693603
 20
-773.3550645328919
 30
0.0
 41
0.9183950805927956
 10
-901.6583303781446
 20
-768.8249014876237
 30
0.0
 41
1.0
 10
-895.8888655869288
 20
-764.2947384423557
 30
0.0
 41
0.9183950805927956
 10
-895.2181345951286
 20
-756.9899988076782
 30
0.0
 41
1.0
  0
SPLINE
  5
DD
330
7D
100
AcDbEntity
  8
0
100
AcDbSpline
210
0.0
220
0.0
230
1.0
 70
    24
 71
     1
 72
     4
 73
     2
 74
     0
 42
0.0000000001
 43
0.0000000001
 40
514.0979972625859
 40
514.0979972625859
 40
618.2591383642807
 40
618.2591383642807
 10
-895.2181345951287
 20
-756.9899988076782
 30
0.0
 10
-885.693984436328
 20
-653.2652000401713
 30
0.0
  0
SPLINE
  5
DE
330
7D
100
AcDbEntity
  8
0
100
AcDbSpline
210
0.0
220
0.0
230
1.0
 70
    24
 71
     1
 72
     4
 73
     2
 74
     0
 42
0.0000000001
 43
0.0000000001
 40
618.2591383642807
 40
618.2591383642807
 40
637.7575487060901
 40
637.7575487060901
 10
-885.693984436328
 20
-653.2652000401713
 30
0.0
 10
-885.2081029534799
 20
-633.7728444862059
 30
0.0
  0
SPLINE
  5
DF
330
7D
100
AcDbEntity
  8
0
100
AcDbSpline
210
0.0
220
0.0
230
1.0
 70
    12
 71
     2
 72
     8
 73
     5
 74
     0
 42
0.0000000001
 43
0.0000000001
 40
637.7575487060901
 40
637.7575487060901
 40
637.7575487060901
 40
643.9309206601399
 40
643.9309206601399
 40
650.1042926141898
 40
650.1042926141898
 40
650.1042926141898
 10
-885.2081029534799
 20
-633.7728444862059
 30
0.0
 41
1.0
 10
-882.5379589343803
 20
-630.9416959309684
 30
0.0
 41
0.7167460812174239
 10
-885.2947454991265
 20
-628.1948433573868
 30
0.0
 41
1.0
 10
-888.0515320638727
 20
-625.4479907838054
 30
0.0
 41
0.7167460812174239
 10
-890.873023058228
 20
-628.1283377377142
 30
0.0
 41
1.0
  0
SPLINE
  5
E0
330
7D
100
AcDbEntity
  8
0
100
AcDbSpline
210
0.0
220
0.0
230
1.0
 70
    24
 71
     1
 72
     4
 73
     2
 74
     0
 42
0.0000000001
 43
0.0000000001
 40
650.1042926141898
 40
650.1042926141898
 40
653.7903531969989
 40
653.7903531969989
 10
-890.873023058228
 20
-628.1283377377142
 30
0.0
 10
-894.5579390187619
 20
-628.0364846814675
 30
0.0
  0
SPLINE
  5
E1
330
7D
100
AcDbEntity
  8
0
100
AcDbSpline
210
0.0
220
0.0
230
1.0
 70
    12
 71
     2
 72
     8
 73
     5
 74
     0
 42
0.0000000001
 43
0.0000000001
 40
653.7903531969989
 40
653.7903531969989
 40
653.7903531969989
 40
659.9646236852839
 40
659.9646236852839
 40
666.1388941735689
 40
666.1388941735689
 40
666.1388941735689
 10
-894.5579390187619
 20
-628.0364846814675
 30
0.0
 41
1.0
 10
-897.2391378650051
 20
-625.21459662157
 30
0.0
 41
0.716667754528148
 10
-900.1329764644958
 20
-627.8179747415875
 30
0.0
 41
1.0
 10
-903.0268150639865
 20
-630.4213528616048
 30
0.0
 41
0.716667754528148
 10
-900.5031877016994
 20
-633.384996634396
 30
0.0
 41
1.0
  0
SPLINE
  5
E2
330
7D
100
AcDbEntity
  8
0
100
AcDbSpline
210
0.0
220
0.0
230
1.0
 70
    24
 71
     1
 72
     4
 73
     2
 74
     0
 42
0.0000000001
 43
0.0000000001
 40
666.1388941735689
 40
666.1388941735689
 40
685.6438932458606
 40
685.6438932458606
 10
-900.5031877016994
 20
-633.384996634396
 30
0.0
 10
-900.9892333693238
 20
-652.8839388728632
 30
0.0
  0
SPLINE
  5
E3
330
7D
100
AcDbEntity
  8
0
100
AcDbSpline
210
0.0
220
0.0
230
1.0
 70
    24
 71
     1
 72
     4
 73
     2
 74
     0
 42
0.0000000001
 43
0.0000000001
 40
685.6438932458606
 40
685.6438932458606
 40
705.3438932458563
 40
705.3438932458563
 10
-900.9892333693238
 20
-652.8839388728632
 30
0.0
 10
-920.6831159823921
 20
-652.3930339711585
 30
0.0
  0
SPLINE
  5
E4
330
7D
100
AcDbEntity
  8
0
100
AcDbSpline
210
0.0
220
0.0
230
1.0
 70
    24
 71
     1
 72
     4
 73
     2
 74
     0
 42
0.0000000001
 43
0.0000000001
 40
705.3438932458563
 40
705.3438932458563
 40
724.7528538302737
 40
724.7528538302737
 10
-920.6831159823921
 20
-652.3930339711585
 30
0.0
 10
-920.1994635007833
 20
-632.9901003979974
 30
0.0
  0
SPLINE
  5
E5
330
7D
100
AcDbEntity
  8
0
100
AcDbSpline
210
0.0
220
0.0
230
1.0
 70
    12
 71
     2
 72
     8
 73
     5
 74
     0
 42
0.0000000001
 43
0.0000000001
 40
724.7528538302737
 40
724.7528538302737
 40
724.7528538302737
 40
730.926643143363
 40
730.926643143363
 40
737.1004324564522
 40
737.1004324564522
 40
737.1004324564522
 10
-920.1994635007832
 20
-632.9901003979976
 30
0.0
 41
1.0
 10
-917.4851170004425
 20
-630.2007355448958
 30
0.0
 41
0.716709700398009
 10
-920.1992133365427
 20
-627.4111272774148
 30
0.0
 41
1.0
 10
-922.9133096726429
 20
-624.621519009934
 30
0.0
 41
0.716709700398009
 10
-925.7760933003801
 20
-627.2583168991151
 30
0.0
 41
1.0
  0
SPLINE
  5
E6
330
7D
100
AcDbEntity
  8
0
100
AcDbSpline
210
0.0
220
0.0
230
1.0
 70
    24
 71
     1
 72
     4
 73
     2
 74
     0
 42
0.0000000001
 43
0.0000000001
 40
737.1004324564522
 40
737.1004324564522
 40
740.7883028201184
 40
740.7883028201184
 10
-925.7760933003801
 20
-627.2583168991151
 30
0.0
 10
-929.4628184797848
 20
-627.1664187448848
 30
0.0
  0
SPLINE
  5
E7
330
7D
100
AcDbEntity
  8
0
100
AcDbSpline
210
0.0
220
0.0
230
1.0
 70
    12
 71
     2
 72
     8
 73
     5
 74
     0
 42
0.0000000001
 43
0.0000000001
 40
740.7883028201184
 40
740.7883028201184
 40
740.7883028201184
 40
746.962530335187
 40
746.962530335187
 40
753.1367578502557
 40
753.1367578502557
 40
753.1367578502557
 10
-929.4628184797847
 20
-627.1664187448847
 30
0.0
 41
1.0
 10
-932.100061443707
 20
-624.3034651397488
 30
0.0
 41
0.7166715007871927
 10
-935.0337811371014
 20
-626.8617541297789
 30
0.0
 41
1.0
 10
-937.9675008304957
 20
-629.4200431198091
 30
0.0
 41
0.7166715007871927
 10
-935.4900639155832
 20
-632.422352252551
 30
0.0
 41
1.0
  0
SPLINE
  5
E8
330
7D
100
AcDbEntity
  8
0
100
AcDbSpline
210
0.0
220
0.0
230
1.0
 70
    24
 71
     1
 72
     4
 73
     2
 74
     0
 42
0.0000000001
 43
0.0000000001
 40
753.1367578502557
 40
753.1367578502557
 40
772.7322633400912
 40
772.7322633400912
 10
-935.4900639155832
 20
-632.422352252551
 30
0.0
 10
-935.9783649153878
 20
-652.0117728038529
 30
0.0
  0
SPLINE
  5
E9
330
7D
100
AcDbEntity
  8
0
100
AcDbSpline
210
0.0
220
0.0
230
1.0
 70
    24
 71
     1
 72
     4
 73
     2
 74
     0
 42
0.0000000001
 43
0.0000000001
 40
772.7322633400912
 40
772.7322633400912
 40
792.4322633400886
 40
792.4322633400886
 10
-935.9783649153878
 20
-652.0117728038529
 30
0.0
 10
-955.6722475284578
 20
-651.5208679021466
 30
0.0
  0
SPLINE
  5
EA
330
7D
100
AcDbEntity
  8
0
100
AcDbSpline
210
0.0
220
0.0
230
1.0
 70
    24
 71
     1
 72
     4
 73
     2
 74
     0
 42
0.0000000001
 43
0.0000000001
 40
792.4322633400886
 40
792.4322633400886
 40
811.8846955915726
 40
811.8846955915726
 10
-955.6722475284578
 20
-651.5208679021466
 30
0.0
 10
-955.1875117750487
 20
-632.0744761610564
 30
0.0
  0
SPLINE
  5
EB
330
7D
100
AcDbEntity
  8
0
100
AcDbSpline
210
0.0
220
0.0
230
1.0
 70
    12
 71
     2
 72
     8
 73
     5
 74
     0
 42
0.0000000001
 43
0.0000000001
 40
811.8846955915726
 40
811.8846955915726
 40
811.8846955915726
 40
818.0583586996115
 40
818.0583586996115
 40
824.2320218076503
 40
824.2320218076503
 40
824.2320218076503
 10
-955.1875117750489
 20
-632.0744761610563
 30
0.0
 41
1.0
 10
-952.4945436456039
 20
-629.2646363717045
 30
0.0
 41
0.7167207017867261
 10
-955.2296045048582
 20
-626.4957522852527
 30
0.0
 41
1.0
 10
-957.9646653641125
 20
-623.726868198801
 30
0.0
 41
0.7167207017867261
 10
-960.8073897200646
 20
-626.3850997959547
 30
0.0
 41
1.0
  0
SPLINE
  5
EC
330
7D
100
AcDbEntity
  8
0
100
AcDbSpline
210
0.0
220
0.0
230
1.0
 70
    24
 71
     1
 72
     4
 73
     2
 74
     0
 42
0.0000000001
 43
0.0000000001
 40
824.2320218076503
 40
824.2320218076503
 40
827.9187108713576
 40
827.9187108713576
 10
-960.8073897200646
 20
-626.3850997959547
 30
0.0
 10
-964.4929339663361
 20
-626.2932310785739
 30
0.0
  0
SPLINE
  5
ED
330
7D
100
AcDbEntity
  8
0
100
AcDbSpline
210
0.0
220
0.0
230
1.0
 70
    12
 71
     2
 72
     8
 73
     5
 74
     0
 42
0.0000000001
 43
0.0000000001
 40
827.9187108713576
 40
827.9187108713576
 40
827.9187108713576
 40
834.0929618955404
 40
834.0929618955404
 40
840.2672129197231
 40
840.2672129197231
 40
840.2672129197231
 10
-964.4929339663361
 20
-626.2932310785739
 30
0.0
 41
1.0
 10
-967.1517293833344
 20
-623.4502504431501
 30
0.0
 41
0.7166694513451212
 10
-970.0660553550972
 20
-626.0306450046766
 30
0.0
 41
1.0
 10
-972.9803813268601
 20
-628.6110395662029
 30
0.0
 41
0.7166694513451212
 10
-970.4803012970563
 20
-631.5945495473194
 30
0.0
 41
1.0
  0
SPLINE
  5
EE
330
7D
100
AcDbEntity
  8
0
100
AcDbSpline
210
0.0
220
0.0
230
1.0
 70
    24
 71
     1
 72
     4
 73
     2
 74
     0
 42
0.0000000001
 43
0.0000000001
 40
840.2672129197231
 40
840.2672129197231
 40
859.8183412654641
 40
859.8183412654641
 10
-970.4803012970563
 20
-631.5945495473194
 30
0.0
 10
-970.9674964614534
 20
-651.1396067348394
 30
0.0
  0
SPLINE
  5
EF
330
7D
100
AcDbEntity
  8
0
100
AcDbSpline
210
0.0
220
0.0
230
1.0
 70
    24
 71
     1
 72
     4
 73
     2
 74
     0
 42
0.0000000001
 43
0.0000000001
 40
859.8183412654641
 40
859.8183412654641
 40
879.5183412654664
 40
879.5183412654664
 10
-970.9674964614534
 20
-651.1396067348394
 30
0.0
 10
-990.6613790745282
 20
-650.6487018331364
 30
0.0
  0
SPLINE
  5
F0
330
7D
100
AcDbEntity
  8
0
100
AcDbSpline
210
0.0
220
0.0
230
1.0
 70
    24
 71
     1
 72
     4
 73
     2
 74
     0
 42
0.0000000001
 43
0.0000000001
 40
879.5183412654664
 40
879.5183412654664
 40
898.9553200559838
 40
898.9553200559838
 10
-990.6613790745282
 20
-650.6487018331364
 30
0.0
 10
-990.1770284063803
 20
-631.2177587542922
 30
0.0
  0
SPLINE
  5
F1
330
7D
100
AcDbEntity
  8
0
100
AcDbSpline
210
0.0
220
0.0
230
1.0
 70
    12
 71
     2
 72
     8
 73
     5
 74
     0
 42
0.0000000001
 43
0.0000000001
 40
898.9553200559838
 40
898.9553200559838
 40
898.9553200559838
 40
905.1290530237559
 40
905.1290530237559
 40
911.3027859915281
 40
911.3027859915281
 40
911.3027859915281
 10
-990.1770284063802
 20
-631.2177587542922
 30
0.0
 41
1.0
 10
-987.4764267763447
 20
-628.4151604734539
 30
0.0
 41
0.7167146120835112
 10
-990.2040883458134
 20
-625.6388916373447
 30
0.0
 41
1.0
 10
-992.931749915282
 20
-622.8626228012353
 30
0.0
 41
0.7167146120835112
 10
-995.7816073880407
 20
-625.5133054817667
 30
0.0
 41
1.0
  0
SPLINE
  5
F2
330
7D
100
AcDbEntity
  8
0
100
AcDbSpline
210
0.0
220
0.0
230
1.0
 70
    24
 71
     1
 72
     4
 73
     2
 74
     0
 42
0.0000000001
 43
0.0000000001
 40
911.3027859915281
 40
911.3027859915281
 40
914.9898337683092
 40
914.9898337683092
 10
-995.7816073880407
 20
-625.5133054817667
 30
0.0
 10
-999.4675102359959
 20
-625.421427825603
 30
0.0
  0
SPLINE
  5
F3
330
7D
100
AcDbEntity
  8
0
100
AcDbSpline
210
0.0
220
0.0
230
1.0
 70
    12
 71
     2
 72
     8
 73
     5
 74
     0
 42
0.0000000001
 43
0.0000000001
 40
914.9898337683092
 40
914.9898337683092
 40
914.9898337683092
 40
921.1640805921402
 40
921.1640805921402
 40
927.3383274159711
 40
927.3383274159711
 40
927.3383274159711
 10
-999.4675102359959
 20
-625.421427825603
 30
0.0
 41
1.0
 10
-1002.118688659655
 20
-622.571348336238
 30
0.0
 41
0.7166698175174916
 10
-1005.039906142178
 20
-625.1439323581066
 30
0.0
 41
1.0
 10
-1007.961123624702
 20
-627.7165163799754
 30
0.0
 41
0.7166698175174916
 10
-1005.469042035534
 20
-630.7067052507164
 30
0.0
 41
1.0
  0
SPLINE
  5
F4
330
7D
100
AcDbEntity
  8
0
100
AcDbSpline
210
0.0
220
0.0
230
1.0
 70
    24
 71
     1
 72
     4
 73
     2
 74
     0
 42
0.0000000001
 43
0.0000000001
 40
927.3383274159711
 40
927.3383274159711
 40
946.9051388593318
 40
946.9051388593318
 10
-1005.469042035534
 20
-630.7067052507163
 30
0.0
 10
-1005.956628007525
 20
-650.2674406658266
 30
0.0
  0
SPLINE
  5
F5
330
7D
100
AcDbEntity
  8
0
100
AcDbSpline
210
0.0
220
0.0
230
1.0
 70
    24
 71
     1
 72
     4
 73
     2
 74
     0
 42
0.0000000001
 43
0.0000000001
 40
946.9051388593318
 40
946.9051388593318
 40
966.6051388593182
 40
966.6051388593182
 10
-1005.956628007525
 20
-650.2674406658266
 30
0.0
 10
-1025.650510620584
 20
-649.7765357641235
 30
0.0
  0
SPLINE
  5
F6
330
7D
100
AcDbEntity
  8
0
100
AcDbSpline
210
0.0
220
0.0
230
1.0
 70
    24
 71
     1
 72
     4
 73
     2
 74
     0
 42
0.0000000001
 43
0.0000000001
 40
966.6051388593182
 40
966.6051388593182
 40
986.2544978774575
 40
986.2544978774575
 10
-1025.650510620584
 20
-649.7765357641235
 30
0.0
 10
-1025.16086764306
 20
-630.1332784075064
 30
0.0
  0
SPLINE
  5
F7
330
7D
100
AcDbEntity
  8
0
100
AcDbSpline
210
0.0
220
0.0
230
1.0
 70
    12
 71
     2
 72
     8
 73
     5
 74
     0
 42
0.0000000001
 43
0.0000000001
 40
986.2544978774575
 40
986.2544978774575
 40
986.2544978774575
 40
992.4285402576054
 40
992.4285402576054
 40
998.6025826377531
 40
998.6025826377531
 40
998.6025826377531
 10
-1025.16086764306
 20
-630.1332784075065
 30
0.0
 41
1.0
 10
-1022.563443798848
 20
-627.2343923839929
 30
0.0
 41
0.716687639815669
 10
-1025.390386946455
 20
-624.5588469734267
 30
0.0
 41
1.0
 10
-1028.217330094062
 20
-621.8833015628605
 30
0.0
 41
0.716687639815669
 10
-1030.969005221155
 20
-624.6361972744236
 30
0.0
 41
1.0
  0
SPLINE
  5
F8
330
7D
100
AcDbEntity
  8
0
100
AcDbSpline
210
0.0
220
0.0
230
1.0
 70
    24
 71
     1
 72
     4
 73
     2
 74
     0
 42
0.0000000001
 43
0.0000000001
 40
998.6025826377531
 40
998.6025826377531
 40
1002.292461134336
 40
1002.292461134336
 10
-1030.969005221155
 20
-624.6361972744236
 30
0.0
 10
-1034.657737909896
 20
-624.544249079467
 30
0.0
  0
SPLINE
  5
F9
330
7D
100
AcDbEntity
  8
0
100
AcDbSpline
210
0.0
220
0.0
230
1.0
 70
    12
 71
     2
 72
     8
 73
     5
 74
     0
 42
0.0000000001
 43
0.0000000001
 40
1002.292461134336
 40
1002.292461134336
 40
1002.292461134336
 40
1008.466656847507
 40
1008.466656847507
 40
1014.640852560679
 40
1014.640852560679
 40
1014.640852560679
 10
-1034.657737909896
 20
-624.5442490794669
 30
0.0
 41
1.0
 10
-1037.410658369261
 20
-621.7923875770049
 30
0.0
 41
0.7166742731552315
 10
-1040.236499056369
 20
-624.4693143962152
 30
0.0
 41
1.0
 10
-1043.062339743477
 20
-627.1462412154259
 30
0.0
 41
0.7166742731552315
 10
-1040.463393847487
 20
-630.043963254207
 30
0.0
 41
1.0
  0
SPLINE
  5
FA
330
7D
100
AcDbEntity
  8
0
100
AcDbSpline
210
0.0
220
0.0
230
1.0
 70
    24
 71
     1
 72
     4
 73
     2
 74
     0
 42
0.0000000001
 43
0.0000000001
 40
1014.640852560679
 40
1014.640852560679
 40
1033.998174879455
 40
1033.998174879455
 10
-1040.463393847487
 20
-630.0439632542069
 30
0.0
 10
-1040.94575955358
 20
-649.3952745968153
 30
0.0
  0
SPLINE
  5
FB
330
7D
100
AcDbEntity
  8
0
100
AcDbSpline
210
0.0
220
0.0
230
1.0
 70
    24
 71
     1
 72
     4
 73
     2
 74
     0
 42
0.0000000001
 43
0.0000000001
 40
1033.998174879455
 40
1033.998174879455
 40
1053.698174879459
 40
1053.698174879459
 10
-1040.94575955358
 20
-649.3952745968153
 30
0.0
 10
-1060.639642166657
 20
-648.904369695112
 30
0.0
  0
SPLINE
  5
FC
330
7D
100
AcDbEntity
  8
0
100
AcDbSpline
210
0.0
220
0.0
230
1.0
 70
    24
 71
     1
 72
     4
 73
     2
 74
     0
 42
0.0000000001
 43
0.0000000001
 40
1053.698174879459
 40
1053.698174879459
 40
1073.10802290231
 40
1073.10802290231
 10
-1060.639642166657
 20
-648.904369695112
 30
0.0
 10
-1060.155967570938
 20
-629.5005489590922
 30
0.0
  0
SPLINE
  5
FD
330
7D
100
AcDbEntity
  8
0
100
AcDbSpline
210
0.0
220
0.0
230
1.0
 70
    12
 71
     2
 72
     8
 73
     5
 74
     0
 42
0.0000000001
 43
0.0000000001
 40
1073.10802290231
 40
1073.10802290231
 40
1073.10802290231
 40
1079.281881576183
 40
1079.281881576183
 40
1085.455740250058
 40
1085.455740250058
 40
1085.455740250058
 10
-1060.155967570939
 20
-629.500548959092
 30
0.0
 41
1.0
 10
-1057.441959842323
 20
-626.7107602916784
 30
0.0
 41
0.7167036540905478
 10
-1060.156537464432
 20
-623.9215261506711
 30
0.0
 41
1.0
 10
-1062.871115086542
 20
-621.1322920096637
 30
0.0
 41
0.7167036540905478
 10
-1065.733492157221
 20
-623.7696308701578
 30
0.0
 41
1.0
  0
SPLINE
  5
FE
330
7D
100
AcDbEntity
  8
0
100
AcDbSpline
210
0.0
220
0.0
230
1.0
 70
    24
 71
     1
 72
     4
 73
     2
 74
     0
 42
0.0000000001
 43
0.0000000001
 40
1085.455740250058
 40
1085.455740250058
 40
1089.143624892928
 40
1089.143624892928
 10
-1065.733492157221
 20
-623.769630870158
 30
0.0
 10
-1069.420231611396
 20
-623.6777323601028
 30
0.0
  0
SPLINE
  5
FF
330
7D
100
AcDbEntity
  8
0
100
AcDbSpline
210
0.0
220
0.0
230
1.0
 70
    12
 71
     2
 72
     8
 73
     5
 74
     0
 42
0.0000000001
 43
0.0000000001
 40
1089.143624892928
 40
1089.143624892928
 40
1089.143624892928
 40
1095.317859783746
 40
1095.317859783746
 40
1101.492094674564
 40
1101.492094674564
 40
1101.492094674564
 10
-1069.420231611396
 20
-623.6777323601029
 30
0.0
 41
1.0
 10
-1072.057944235387
 20
-620.8152016952838
 30
0.0
 41
0.7166708577958593
 10
-1074.991249218846
 20
-623.3739770992236
 30
0.0
 41
1.0
 10
-1077.924554202304
 20
-625.9327525031632
 30
0.0
 41
0.7166708577958593
 10
-1075.446614223529
 20
-628.9346557586621
 30
0.0
 41
1.0
  0
SPLINE
  5
100
330
7D
100
AcDbEntity
  8
0
100
AcDbSpline
210
0.0
220
0.0
230
1.0
 70
    24
 71
     1
 72
     4
 73
     2
 74
     0
 42
0.0000000001
 43
0.0000000001
 40
1101.492094674564
 40
1101.492094674564
 40
1121.086632081623
 40
1121.086632081623
 10
-1075.446614223529
 20
-628.9346557586621
 30
0.0
 10
-1075.934891099653
 20
-648.5231085278026
 30
0.0
  0
SPLINE
  5
101
330
7D
100
AcDbEntity
  8
0
100
AcDbSpline
210
0.0
220
0.0
230
1.0
 70
    24
 71
     1
 72
     4
 73
     2
 74
     0
 42
0.0000000001
 43
0.0000000001
 40
1121.086632081623
 40
1121.086632081623
 40
1140.786632081621
 40
1140.786632081621
 10
-1075.934891099653
 20
-648.5231085278026
 30
0.0
 10
-1095.628773712723
 20
-648.0322036260981
 30
0.0
  0
SPLINE
  5
102
330
7D
100
AcDbEntity
  8
0
100
AcDbSpline
210
0.0
220
0.0
230
1.0
 70
    24
 71
     1
 72
     4
 73
     2
 74
     0
 42
0.0000000001
 43
0.0000000001
 40
1140.786632081621
 40
1140.786632081621
 40
1160.184601491215
 40
1160.184601491215
 10
-1095.628773712723
 20
-648.0322036260981
 30
0.0
 10
-1095.145395120535
 20
-628.6402578147007
 30
0.0
  0
SPLINE
  5
103
330
7D
100
AcDbEntity
  8
0
100
AcDbSpline
210
0.0
220
0.0
230
1.0
 70
    12
 71
     2
 72
     8
 73
     5
 74
     0
 42
0.0000000001
 43
0.0000000001
 40
1160.184601491215
 40
1160.184601491215
 40
1160.184601491215
 40
1166.358516819087
 40
1166.358516819087
 40
1172.532432146959
 40
1172.532432146959
 40
1172.532432146959
 10
-1095.145395120535
 20
-628.6402578147009
 30
0.0
 41
1.0
 10
-1092.42551553459
 20
-625.8561164599945
 30
0.0
 41
0.716698715417152
 10
-1095.134327071564
 20
-623.0612053518934
 30
0.0
 41
1.0
 10
-1097.843138608537
 20
-620.2662942437923
 30
0.0
 41
0.716698715417152
 10
-1100.710995678591
 20
-622.8977546502537
 30
0.0
 41
1.0
  0
SPLINE
  5
104
330
7D
100
AcDbEntity
  8
0
100
AcDbSpline
210
0.0
220
0.0
230
1.0
 70
    24
 71
     1
 72
     4
 73
     2
 74
     0
 42
0.0000000001
 43
0.0000000001
 40
1172.532432146959
 40
1172.532432146959
 40
1176.22076511669
 40
1176.22076511669
 10
-1100.710995678591
 20
-622.8977546502537
 30
0.0
 10
-1104.398183320408
 20
-622.8058449683286
 30
0.0
  0
SPLINE
  5
105
330
7D
100
AcDbEntity
  8
0
100
AcDbSpline
210
0.0
220
0.0
230
1.0
 70
    12
 71
     2
 72
     8
 73
     5
 74
     0
 42
0.0000000001
 43
0.0000000001
 40
1176.22076511669
 40
1176.22076511669
 40
1176.22076511669
 40
1182.394992688989
 40
1182.394992688989
 40
1188.569220261289
 40
1188.569220261289
 40
1188.569220261289
 10
-1104.398183320407
 20
-622.8058449683285
 30
0.0
 41
1.0
 10
-1107.029961603593
 20
-619.9378670573609
 30
0.0
 41
0.7166714957980173
 10
-1109.968554865943
 20
-622.49055659354
 30
0.0
 41
1.0
 10
-1112.907148128293
 20
-625.043246129719
 30
0.0
 41
0.7166714957980173
 10
-1110.435441283888
 20
-628.0502744809268
 30
0.0
 41
1.0
  0
SPLINE
  5
106
330
7D
100
AcDbEntity
  8
0
100
AcDbSpline
210
0.0
220
0.0
230
1.0
 70
    24
 71
     1
 72
     4
 73
     2
 74
     0
 42
0.0000000001
 43
0.0000000001
 40
1188.569220261289
 40
1188.569220261289
 40
1208.175976671405
 40
1208.175976671405
 10
-1110.435441283888
 20
-628.0502744809268
 30
0.0
 10
-1110.924022645719
 20
-647.6509424587919
 30
0.0
  0
SPLINE
  5
107
330
7D
100
AcDbEntity
  8
0
100
AcDbSpline
210
0.0
220
0.0
230
1.0
 70
    24
 71
     1
 72
     4
 73
     2
 74
     0
 42
0.0000000001
 43
0.0000000001
 40
1208.175976671405
 40
1208.175976671405
 40
1227.875976671407
 40
1227.875976671407
 10
-1110.924022645719
 20
-647.6509424587919
 30
0.0
 10
-1130.617905258793
 20
-647.160037557089
 30
0.0
  0
SPLINE
  5
108
330
7D
100
AcDbEntity
  8
0
100
AcDbSpline
210
0.0
220
0.0
230
1.0
 70
    24
 71
     1
 72
     4
 73
     2
 74
     0
 42
0.0000000001
 43
0.0000000001
 40
1227.875976671407
 40
1227.875976671407
 40
1247.263071324916
 40
1247.263071324916
 10
-1130.617905258793
 20
-647.160037557089
 30
0.0
 10
-1130.134797654981
 20
-627.7789631248688
 30
0.0
  0
SPLINE
  5
109
330
7D
100
AcDbEntity
  8
0
100
AcDbSpline
210
0.0
220
0.0
230
1.0
 70
    12
 71
     2
 72
     8
 73
     5
 74
     0
 42
0.0000000001
 43
0.0000000001
 40
1247.263071324916
 40
1247.263071324916
 40
1247.263071324916
 40
1253.437039406258
 40
1253.437039406258
 40
1259.611007487599
 40
1259.611007487599
 40
1259.611007487599
 10
-1130.134797654981
 20
-627.7789631248688
 30
0.0
 41
1.0
 10
-1127.40954118507
 20
-625.0000127908941
 30
0.0
 41
0.7166941167303234
 10
-1130.113053702443
 20
-622.1999042476593
 30
0.0
 41
1.0
 10
-1132.816566219817
 20
-619.3997957044247
 30
0.0
 41
0.7166941167303234
 10
-1135.68943941472
 20
-622.0258549938349
 30
0.0
 41
1.0
  0
SPLINE
  5
10A
330
7D
100
AcDbEntity
  8
0
100
AcDbSpline
210
0.0
220
0.0
230
1.0
 70
    24
 71
     1
 72
     4
 73
     2
 74
     0
 42
0.0000000001
 43
0.0000000001
 40
1259.611007487599
 40
1259.611007487599
 40
1263.299794898072
 40
1263.299794898072
 10
-1135.68943941472
 20
-622.0258549938349
 30
0.0
 10
-1139.377081356163
 20
-621.9339339876864
 30
0.0
  0
SPLINE
  5
10B
330
7D
100
AcDbEntity
  8
0
100
AcDbSpline
210
0.0
220
0.0
230
1.0
 70
    12
 71
     2
 72
     8
 73
     5
 74
     0
 42
0.0000000001
 43
0.0000000001
 40
1263.299794898072
 40
1263.299794898072
 40
1263.299794898072
 40
1269.474014493057
 40
1269.474014493057
 40
1275.648234088043
 40
1275.648234088043
 40
1275.648234088043
 10
-1139.377081356163
 20
-621.9339339876863
 30
0.0
 41
1.0
 10
-1142.003405950969
 20
-619.060971597451
 30
0.0
 41
0.7166721912308676
 10
-1144.946838386228
 20
-621.608067840636
 30
0.0
 41
1.0
 10
-1147.890270821488
 20
-624.155164083821
 30
0.0
 41
0.7166721912308676
 10
-1145.424293001513
 20
-627.1668823914284
 30
0.0
 41
1.0
  0
SPLINE
  5
10C
330
7D
100
AcDbEntity
  8
0
100
AcDbSpline
210
0.0
220
0.0
230
1.0
 70
    24
 71
     1
 72
     4
 73
     2
 74
     0
 42
0.0000000001
 43
0.0000000001
 40
1275.648234088043
 40
1275.648234088043
 40
1295.266220005715
 40
1295.266220005715
 10
-1145.424293001513
 20
-627.1668823914284
 30
0.0
 10
-1145.913154191788
 20
-646.7787763897804
 30
0.0
  0
SPLINE
  5
10D
330
7D
100
AcDbEntity
  8
0
100
AcDbSpline
210
0.0
220
0.0
230
1.0
 70
    24
 71
     1
 72
     4
 73
     2
 74
     0
 42
0.0000000001
 43
0.0000000001
 40
1295.266220005715
 40
1295.266220005715
 40
1314.966220005705
 40
1314.966220005705
 10
-1145.913154191788
 20
-646.7787763897804
 30
0.0
 10
-1165.607036804851
 20
-646.2878714880749
 30
0.0
  0
SPLINE
  5
10E
330
7D
100
AcDbEntity
  8
0
100
AcDbSpline
210
0.0
220
0.0
230
1.0
 70
    24
 71
     1
 72
     4
 73
     2
 74
     0
 42
0.0000000001
 43
0.0000000001
 40
1314.966220005705
 40
1314.966220005705
 40
1334.343363613942
 40
1334.343363613942
 10
-1165.607036804851
 20
-646.2878714880749
 30
0.0
 10
-1165.124177171442
 20
-626.9167450110557
 30
0.0
  0
SPLINE
  5
10F
330
7D
100
AcDbEntity
  8
0
100
AcDbSpline
210
0.0
220
0.0
230
1.0
 70
    12
 71
     2
 72
     8
 73
     5
 74
     0
 42
0.0000000001
 43
0.0000000001
 40
1334.343363613942
 40
1334.343363613942
 40
1334.343363613942
 40
1340.517380255922
 40
1340.517380255922
 40
1346.691396897901
 40
1346.691396897901
 40
1346.691396897901
 10
-1165.124177171442
 20
-626.9167450110556
 30
0.0
 41
1.0
 10
-1162.394000101542
 20
-624.142562441204
 30
0.0
 41
0.7166898835185194
 10
-1165.092646346748
 20
-621.3376980581886
 30
0.0
 41
1.0
 10
-1167.791292591955
 20
-618.5328336751734
 30
0.0
 41
0.7166898835185194
 10
-1170.668755179913
 20
-621.1539336005426
 30
0.0
 41
1.0
  0
SPLINE
  5
110
330
7D
100
AcDbEntity
  8
0
100
AcDbSpline
210
0.0
220
0.0
230
1.0
 70
    24
 71
     1
 72
     4
 73
     2
 74
     0
 42
0.0000000001
 43
0.0000000001
 40
1346.691396897901
 40
1346.691396897901
 40
1350.380638801048
 40
1350.380638801048
 10
-1170.668755179913
 20
-621.1539336005425
 30
0.0
 10
-1174.356851472899
 20
-621.0620012688776
 30
0.0
  0
SPLINE
  5
111
330
7D
100
AcDbEntity
  8
0
100
AcDbSpline
210
0.0
220
0.0
230
1.0
 70
    12
 71
     2
 72
     8
 73
     5
 74
     0
 42
0.0000000001
 43
0.0000000001
 40
1350.380638801048
 40
1350.380638801048
 40
1350.380638801048
 40
1356.554849923872
 40
1356.554849923872
 40
1362.729061046697
 40
1362.729061046697
 40
1362.729061046697
 10
-1174.356851472898
 20
-621.0620012688773
 30
0.0
 41
1.0
 10
-1176.978168895088
 20
-618.1844807149151
 30
0.0
 41
0.7166729298019139
 10
-1179.9260268012
 20
-620.7264412440591
 30
0.0
 41
1.0
 10
-1182.873884707312
 20
-623.2684017732029
 30
0.0
 41
0.7166729298019139
 10
-1180.413167625158
 20
-626.2844092347236
 30
0.0
 41
1.0
  0
SPLINE
  5
112
330
7D
100
AcDbEntity
  8
0
100
AcDbSpline
210
0.0
220
0.0
230
1.0
 70
    24
 71
     1
 72
     4
 73
     2
 74
     0
 42
0.0000000001
 43
0.0000000001
 40
1362.729061046697
 40
1362.729061046697
 40
1382.357357253685
 40
1382.357357253685
 10
-1180.413167625158
 20
-626.2844092347236
 30
0.0
 10
-1180.902285737847
 20
-645.906610320767
 30
0.0
  0
SPLINE
  5
113
330
7D
100
AcDbEntity
  8
0
100
AcDbSpline
210
0.0
220
0.0
230
1.0
 70
    24
 71
     1
 72
     4
 73
     2
 74
     0
 42
0.0000000001
 43
0.0000000001
 40
1382.357357253685
 40
1382.357357253685
 40
1402.057357253686
 40
1402.057357253686
 10
-1180.902285737847
 20
-645.906610320767
 30
0.0
 10
-1200.59616835092
 20
-645.4157054190646
 30
0.0
  0
SPLINE
  5
114
330
7D
100
AcDbEntity
  8
0
100
AcDbSpline
210
0.0
220
0.0
230
1.0
 70
    24
 71
     1
 72
     4
 73
     2
 74
     0
 42
0.0000000001
 43
0.0000000001
 40
1402.057357253686
 40
1402.057357253686
 40
1421.706436539158
 40
1421.706436539158
 10
-1200.59616835092
 20
-645.4157054190646
 30
0.0
 10
-1200.10653234406
 20
-625.7727277082497
 30
0.0
  0
SPLINE
  5
115
330
7D
100
AcDbEntity
  8
0
100
AcDbSpline
210
0.0
220
0.0
230
1.0
 70
    12
 71
     2
 72
     8
 73
     5
 74
     0
 42
0.0000000001
 43
0.0000000001
 40
1421.706436539158
 40
1421.706436539158
 40
1421.706436539158
 40
1427.880484320242
 40
1427.880484320242
 40
1434.054532101326
 40
1434.054532101326
 40
1434.054532101326
 10
-1200.10653234406
 20
-625.77272770825
 30
0.0
 41
1.0
 10
-1197.508964732185
 20
-622.8739634485482
 30
0.0
 41
0.7166871689929369
 10
-1200.335785851784
 20
-620.1982814627027
 30
0.0
 41
1.0
 10
-1203.162606971383
 20
-617.5225994768574
 30
0.0
 41
0.7166871689929369
 10
-1205.914411576823
 20
-620.2753731953221
 30
0.0
 41
1.0
  0
SPLINE
  5
116
330
7D
100
AcDbEntity
  8
0
100
AcDbSpline
210
0.0
220
0.0
230
1.0
 70
    24
 71
     1
 72
     4
 73
     2
 74
     0
 42
0.0000000001
 43
0.0000000001
 40
1434.054532101326
 40
1434.054532101326
 40
1437.7444055343
 40
1437.7444055343
 10
-1205.914411576823
 20
-620.2753731953222
 30
0.0
 10
-1209.603139203528
 20
-620.1834251265457
 30
0.0
  0
SPLINE
  5
117
330
7D
100
AcDbEntity
  8
0
100
AcDbSpline
210
0.0
220
0.0
230
1.0
 70
    12
 71
     2
 72
     8
 73
     5
 74
     0
 42
0.0000000001
 43
0.0000000001
 40
1437.7444055343
 40
1437.7444055343
 40
1437.7444055343
 40
1443.918601059175
 40
1443.918601059175
 40
1450.092796584049
 40
1450.092796584049
 40
1450.092796584049
 10
-1209.603139203528
 20
-620.1834251265458
 30
0.0
 41
1.0
 10
-1212.355934553825
 20
-617.431438731831
 30
0.0
 41
0.7166742895703702
 10
-1215.181896804362
 20
-620.1082369528139
 30
0.0
 41
1.0
 10
-1218.007859054899
 20
-622.7850351737968
 30
0.0
 41
0.7166742895703702
 10
-1215.409045157694
 20
-625.6828753496887
 30
0.0
 41
1.0
  0
SPLINE
  5
118
330
7D
100
AcDbEntity
  8
0
100
AcDbSpline
210
0.0
220
0.0
230
1.0
 70
    24
 71
     1
 72
     4
 73
     2
 74
     0
 42
0.0000000001
 43
0.0000000001
 40
1450.092796584049
 40
1450.092796584049
 40
1469.450376542286
 40
1469.450376542286
 10
-1215.409045157694
 20
-625.6828753496887
 30
0.0
 10
-1215.891417283915
 20
-645.0344442517544
 30
0.0
  0
ENDBLK
  5
11A
330
7D
100
AcDbEntity
  8
0
100
AcDbBlockEnd
  0
ENDSEC
  0
SECTION
  2
ENTITIES
  0
SPLINE
  5
2B
330
1F
100
AcDbEntity
  8
DEFAULT
100
AcDbSpline
210
0.0
220
0.0
230
1.0
 70
    24
 71
     1
 72
     4
 73
     2
 74
     0
 42
0.0000000001
 43
0.0000000001
 40
0.0
 40
0.0
 40
1220.0
 40
1220.0
 10
0.0
 20
0.0
 30
0.0
 10
0.0
 20
1220.0
 30
0.0
  0
SPLINE
  5
2C
330
1F
100
AcDbEntity
  8
DEFAULT
100
AcDbSpline
210
0.0
220
0.0
230
1.0
 70
    24
 71
     1
 72
     4
 73
     2
 74
     0
 42
0.0000000001
 43
0.0000000001
 40
1220.0
 40
1220.0
 40
3660.0
 40
3660.0
 10
0.0
 20
1220.0
 30
0.0
 10
2440.0
 20
1220.0
 30
0.0
  0
SPLINE
  5
2D
330
1F
100
AcDbEntity
  8
DEFAULT
100
AcDbSpline
210
0.0
220
0.0
230
1.0
 70
    24
 71
     1
 72
     4
 73
     2
 74
     0
 42
0.0000000001
 43
0.0000000001
 40
3660.0
 40
3660.0
 40
4880.0
 40
4880.0
 10
2440.0
 20
1220.0
 30
0.0
 10
2440.0
 20
0.0
 30
0.0
  0
SPLINE
  5
2E
330
1F
100
AcDbEntity
  8
DEFAULT
100
AcDbSpline
210
0.0
220
0.0
230
1.0
 70
    24
 71
     1
 72
     4
 73
     2
 74
     0
 42
0.0000000001
 43
0.0000000001
 40
4880.0
 40
4880.0
 40
7320.0
 40
7320.0
 10
2440.0
 20
0.0
 30
0.0
 10
0.0
 20
0.0
 30
0.0
  0
INSERT
  5
4E
330
1F
100
AcDbEntity
  8
DEFAULT
100
AcDbBlockReference
  2
ROCKING_CHAIR_BENT_17
 10
611.167911
 20
948.907746
 30
0.0
 50
-90.00000000000003
  0
INSERT
  5
4F
330
1F
100
AcDbEntity
  8
DEFAULT
100
AcDbBlockReference
  2
ROCKING_CHAIR_BENT_17
 10
603.167911
 20
1408.907746
 30
0.0
 50
-90.00000000000003
  0
INSERT
  5
50
330
1F
100
AcDbEntity
  8
DEFAULT
100
AcDbBlockReference
  2
ROCKING_CHAIR_BENT_17
 10
541.167911
 20
952.907746
 30
0.0
 50
-90.00000000000003
  0
INSERT
  5
51
330
1F
100
AcDbEntity
  8
DEFAULT
100
AcDbBlockReference
  2
ROCKING_CHAIR_BENT_17
 10
533.167911
 20
1412.907746
 30
0.0
 50
-90.00000000000003
  0
INSERT
  5
52
330
1F
100
AcDbEntity
  8
DEFAULT
100
AcDbBlockReference
  2
ROCKING_CHAIR_BENT_17
 10
873.092254
 20
-579.733055
 30
0.0
  0
INSERT
  5
53
330
1F
100
AcDbEntity
  8
DEFAULT
100
AcDbBlockReference
  2
ROCKING_CHAIR_BENT_17
 10
469.167911
 20
978.907746
 30
0.0
 50
-90.00000000000003
  0
INSERT
  5
54
330
1F
100
AcDbEntity
  8
DEFAULT
100
AcDbBlockReference
  2
ROCKING_CHAIR_BENT_17
 10
801.092254
 20
-723.733055
 30
0.0
  0
INSERT
  5
55
330
1F
100
AcDbEntity
  8
DEFAULT
100
AcDbBlockReference
  2
ROCKING_CHAIR_BENT_17
 10
399.167911
 20
982.907746
 30
0.0
 50
-90.00000000000003
  0
INSERT
  5
56
330
1F
100
AcDbEntity
  8
DEFAULT
100
AcDbBlockReference
  2
ROCKING_CHAIR_BENT_17
 10
1487.707746
 20
1112.832089
 30
0.0
 50
-180.0
  0
INSERT
  5
57
330
1F
100
AcDbEntity
  8
DEFAULT
100
AcDbBlockReference
  2
ROCKING_CHAIR_BENT_17
 10
1353.707746
 20
1282.832089
 30
0.0
 50
-180.0
  0
INSERT
  5
58
330
1F
100
AcDbEntity
  8
DEFAULT
100
AcDbBlockReference
  2
ROCKING_CHAIR_BENT_17
 10
495.092254
 20
-419.733055
 30
0.0
  0
INSERT
  5
59
330
1F
100
AcDbEntity
  8
DEFAULT
100
AcDbBlockReference
  2
ROCKING_CHAIR_BENT_17
 10
467.092254
 20
240.266945
 30
0.0
  0
INSERT
  5
5A
330
1F
100
AcDbEntity
  8
DEFAULT
100
AcDbBlockReference
  2
ROCKING_CHAIR_BENT_17
 10
465.092254
 20
-647.733055
 30
0.0
  0
INSERT
  5
5B
330
1F
100
AcDbEntity
  8
DEFAULT
100
AcDbBlockReference
  2
ROCKING_CHAIR_BENT_17
 10
423.092254
 20
-573.733055
 30
0.0
  0
INSERT
  5
5C
330
1F
100
AcDbEntity
  8
DEFAULT
100
AcDbBlockReference
  2
ROCKING_CHAIR_BENT_17
 10
1197.707746
 20
854.832089
 30
0.0
 50
-180.0
  0
INSERT
  5
5D
330
1F
100
AcDbEntity
  8
DEFAULT
100
AcDbBlockReference
  2
ROCKING_CHAIR_BENT_17
 10
21.092254
 20
-703.733055
 30
0.0
  0
INSERT
  5
5E
330
1F
100
AcDbEntity
  8
DEFAULT
100
AcDbBlockReference
  2
ROCKING_CHAIR_BENT_17
 10
-20.907746
 20
-629.733055
 30
0.0
  0
INSERT
  5
7A
330
1F
100
AcDbEntity
  8
DEFAULT
100
AcDbBlockReference
  2
ROCKING_CHAIR_STRAIGHT_3
 10
1277.633741
 20
1476.140505
 30
0.0
 50
135.0
  0
INSERT
  5
7B
330
1F
100
AcDbEntity
  8
DEFAULT
100
AcDbBlockReference
  2
ROCKING_CHAIR_STRAIGHT_3
 10
1199.633741
 20
1452.140505
 30
0.0
 50
135.0
  0
INSERT
  5
7C
330
1F
100
AcDbEntity
  8
DEFAULT
100
AcDbBlockReference
  2
ROCKING_CHAIR_STRAIGHT_3
 10
1192.387841
 20
124.981912
 30
0.0
 50
90.00000000000003
  0
INSERT
  5
11B
330
1F
100
AcDbEntity
  8
DEFAULT
100
AcDbBlockReference
  2
ROCKING_CHAIR_PROFILE_2
 10
1992.643829
 20
1416.992965
 30
0.0
  0
INSERT
  5
11C
330
1F
100
AcDbEntity
  8
DEFAULT
100
AcDbBlockReference
  2
ROCKING_CHAIR_PROFILE_2
 10
-198.992965
 20
1639.005201
 30
0.0
 50
90.00000000000003
  0
ENDSEC
  0
SECTION
  2
OBJECTS
  0
DICTIONARY
  5
C
330
0
100
AcDbDictionary
  3
ACAD_GROUP
350
D
  3
ACAD_LAYOUT
350
1A
  3
ACAD_MLINESTYLE
350
17
  3
ACAD_PLOTSETTINGS
350
19
  3
ACDBHEADERROUNDTRIPXREC
350
11D
  0
DICTIONARY
  5
13D
330
29
100
AcDbDictionary
280
     1
  3
ACAD_XREC_ROUNDTRIP
360
13E
  0
DICTIONARY
  5
D
102
{ACAD_REACTORS
330
C
102
}
330
C
100
AcDbDictionary
  0
DICTIONARY
  5
1A
102
{ACAD_REACTORS
330
C
102
}
330
C
100
AcDbDictionary
  0
DICTIONARY
  5
17
102
{ACAD_REACTORS
330
C
102
}
330
C
100
AcDbDictionary
  3
STANDARD
350
18
  0
DICTIONARY
  5
19
102
{ACAD_REACTORS
330
C
102
}
330
C
100
AcDbDictionary
  0
DICTIONARY
  5
11D
102
{ACAD_REACTORS
330
C
102
}
330
C
100
AcDbDictionary
  3
CEPSNTYPE
350
126
  3
DIMSTYLEDATA
350
13C
  3
FINGERPRINTGUID
350
127
  3
HYPERLINKBASE
350
120
  3
INSUNITS
350
125
  3
LAYOUTDICT
350
122
  3
LWETCUNION
350
124
  3
PLOTSETDICT
350
123
  3
PSVPSCALE
350
129
  3
PUCSBASE
350
12C
  3
PUCSORGBACK
350
132
  3
PUCSORGBOTTOM
350
12E
  3
PUCSORGFRONT
350
131
  3
PUCSORGLEFT
350
12F
  3
PUCSORGRIGHT
350
130
  3
PUCSORGTOP
350
12D
  3
PUCSORTHOREF
350
12A
  3
PUCSORTHOVIEW
350
12B
  3
STYLESHEET
350
121
  3
TSTACKALIGN
350
11E
  3
TSTACKSIZE
350
11F
  3
UCSBASE
350
135
  3
UCSORGBACK
350
13B
  3
UCSORGBOTTOM
350
137
  3
UCSORGFRONT
350
13A
  3
UCSORGLEFT
350
138
  3
UCSORGRIGHT
350
139
  3
UCSORGTOP
350
136
  3
UCSORTHOREF
350
133
  3
UCSORTHOVIEW
350
134
  3
VERSIONGUID
350
128
  0
XRECORD
  5
13E
102
{ACAD_REACTORS
330
13D
102
}
330
13D
100
AcDbXrecord
102
UCS
 74
     0
 71
     1
 10
0.0
 20
0.0
 30
0.0
 10
1.0
 20
0.0
 30
0.0
 10
0.0
 20
1.0
 30
0.0
146
0.0
 79
     0
102
VIEW
281
     0
  0
MLINESTYLE
  5
18
102
{ACAD_REACTORS
330
17
102
}
330
17
100
AcDbMlineStyle
  2
Standard
 70
     0
  3

 62
   256
 51
90.0
 52
90.0
 71
     2
 49
0.5
 62
   256
  6
BYLAYER
 49
-0.5
 62
   256
  6
BYLAYER
  0
XRECORD
  5
126
102
{ACAD_REACTORS
330
11D
102
}
330
11D
100
AcDbXrecord
 90
        0
  0
XRECORD
  5
13C
102
{ACAD_REACTORS
330
11D
102
}
330
11D
100
AcDbXrecord
1000
DSTYLE
1002
{
1070
   340
340
11
1002
}
  0
XRECORD
  5
127
102
{ACAD_REACTORS
330
11D
102
}
330
11D
100
AcDbXrecord
  1
{FAEB1C30-E019-11D5-929B-00C0DF256EC4}
  0
XRECORD
  5
120
102
{ACAD_REACTORS
330
11D
102
}
330
11D
100
AcDbXrecord
  1

  0
XRECORD
  5
125
102
{ACAD_REACTORS
330
11D
102
}
330
11D
100
AcDbXrecord
 90
        4
  0
XRECORD
  5
122
102
{ACAD_REACTORS
330
11D
102
}
330
11D
100
AcDbXrecord
340
1A
  0
XRECORD
  5
124
102
{ACAD_REACTORS
330
11D
102
}
330
11D
100
AcDbXrecord
 90
     2560
  0
XRECORD
  5
123
102
{ACAD_REACTORS
330
11D
102
}
330
11D
100
AcDbXrecord
340
19
  0
XRECORD
  5
129
102
{ACAD_REACTORS
330
11D
102
}
330
11D
100
AcDbXrecord
 40
0.0
  0
XRECORD
  5
12C
102
{ACAD_REACTORS
330
11D
102
}
330
11D
100
AcDbXrecord
340
0
  0
XRECORD
  5
132
102
{ACAD_REACTORS
330
11D
102
}
330
11D
100
AcDbXrecord
 10
0.0
 20
0.0
 30
0.0
  0
XRECORD
  5
12E
102
{ACAD_REACTORS
330
11D
102
}
330
11D
100
AcDbXrecord
 10
0.0
 20
0.0
 30
0.0
  0
XRECORD
  5
131
102
{ACAD_REACTORS
330
11D
102
}
330
11D
100
AcDbXrecord
 10
0.0
 20
0.0
 30
0.0
  0
XRECORD
  5
12F
102
{ACAD_REACTORS
330
11D
102
}
330
11D
100
AcDbXrecord
 10
0.0
 20
0.0
 30
0.0
  0
XRECORD
  5
130
102
{ACAD_REACTORS
330
11D
102
}
330
11D
100
AcDbXrecord
 10
0.0
 20
0.0
 30
0.0
  0
XRECORD
  5
12D
102
{ACAD_REACTORS
330
11D
102
}
330
11D
100
AcDbXrecord
 10
0.0
 20
0.0
 30
0.0
  0
XRECORD
  5
12A
102
{ACAD_REACTORS
330
11D
102
}
330
11D
100
AcDbXrecord
340
0
  0
XRECORD
  5
12B
102
{ACAD_REACTORS
330
11D
102
}
330
11D
100
AcDbXrecord
 70
     0
  0
XRECORD
  5
121
102
{ACAD_REACTORS
330
11D
102
}
330
11D
100
AcDbXrecord
  1

  0
XRECORD
  5
11E
102
{ACAD_REACTORS
330
11D
102
}
330
11D
100
AcDbXrecord
 90
        1
  0
XRECORD
  5
11F
102
{ACAD_REACTORS
330
11D
102
}
330
11D
100
AcDbXrecord
 90
       70
  0
XRECORD
  5
135
102
{ACAD_REACTORS
330
11D
102
}
330
11D
100
AcDbXrecord
340
0
  0
XRECORD
  5
13B
102
{ACAD_REACTORS
330
11D
102
}
330
11D
100
AcDbXrecord
 10
0.0
 20
0.0
 30
0.0
  0
XRECORD
  5
137
102
{ACAD_REACTORS
330
11D
102
}
330
11D
100
AcDbXrecord
 10
0.0
 20
0.0
 30
0.0
  0
XRECORD
  5
13A
102
{ACAD_REACTORS
330
11D
102
}
330
11D
100
AcDbXrecord
 10
0.0
 20
0.0
 30
0.0
  0
XRECORD
  5
138
102
{ACAD_REACTORS
330
11D
102
}
330
11D
100
AcDbXrecord
 10
0.0
 20
0.0
 30
0.0
  0
XRECORD
  5
139
102
{ACAD_REACTORS
330
11D
102
}
330
11D
100
AcDbXrecord
 10
0.0
 20
0.0
 30
0.0
  0
XRECORD
  5
136
102
{ACAD_REACTORS
330
11D
102
}
330
11D
100
AcDbXrecord
 10
0.0
 20
0.0
 30
0.0
  0
XRECORD
  5
133
102
{ACAD_REACTORS
330
11D
102
}
330
11D
100
AcDbXrecord
340
0
  0
XRECORD
  5
134
102
{ACAD_REACTORS
330
11D
102
}
330
11D
100
AcDbXrecord
 70
     0
  0
XRECORD
  5
128
102
{ACAD_REACTORS
330
11D
102
}
330
11D
100
AcDbXrecord
  1
{FAEB1C32-E019-11D5-929B-00C0DF256EC4}
  0
ENDSEC
  0
EOF
