0
SECTION
2
HEADER
9
$INSUNITS
70
4
9
$ACADVER
1
AC1014
9
$HANDSEED
5
FFFF
0
ENDSEC
0
SECTION
2
TABLES
0
TABLE
2
VPORT
5
8
100
AcDbSymbolTable
0
ENDTAB
0
TABLE
2
LTYPE
5
5
100
AcDbSymbolTable
0
LTYPE
5
14
100
AcDbSymbolTableRecord
100
AcDbLinetypeTableRecord
2
BYBLOCK
70
0
0
LTYPE
5
15
100
AcDbSymbolTableRecord
100
AcDbLinetypeTableRecord
2
BYLAYER
70
0
0
ENDTAB
0
TABLE
2
LAYER
5
2
100
AcDbSymbolTable
70
2
0
LAYER
5
50
100
AcDbSymbolTableRecord
100
AcDbLayerTableRecord
2
0
70
0
6
CONTINUOUS
0
ENDTAB
0
TABLE
2
STYLE
5
3
100
AcDbSymbolTable
70
1
0
STYLE
5
11
100
AcDbSymbolTableRecord
100
AcDbTextStyleTableRecord
2
STANDARD
70
0
0
ENDTAB
0
TABLE
2
VIEW
5
6
100
AcDbSymbolTable
70
0
0
ENDTAB
0
TABLE
2
UCS
5
7
100
AcDbSymbolTable
70
0
0
ENDTAB
0
TABLE
2
APPID
5
9
100
AcDbSymbolTable
70
2
0
APPID
5
12
100
AcDbSymbolTableRecord
100
AcDbRegAppTableRecord
2
ACAD
70
0
0
ENDTAB
0
TABLE
2
DIMSTYLE
5
A
100
AcDbSymbolTable
70
1
0
ENDTAB
0
TABLE
2
BLOCK_RECORD
5
1
100
AcDbSymbolTable
70
1
0
BLOCK_RECORD
5
1F
100
AcDbSymbolTableRecord
100
AcDbBlockTableRecord
2
*MODEL_SPACE
0
BLOCK_RECORD
5
1B
100
AcDbSymbolTableRecord
100
AcDbBlockTableRecord
2
*PAPER_SPACE
0
ENDTAB
0
ENDSEC
0
SECTION
2
BLOCKS
0
BLOCK
5
20
100
AcDbEntity
100
AcDbBlockBegin
2
*MODEL_SPACE
0
ENDBLK
5
21
100
AcDbEntity
100
AcDbBlockEnd
0
BLOCK
5
1C
100
AcDbEntity
100
AcDbBlockBegin
2
*PAPER_SPACE
0
ENDBLK
5
1D
100
AcDbEntity
100
AcDbBlockEnd
0
ENDSEC
0
SECTION
2
ENTITIES
0
LINE
5
100
100
AcDbEntity
8
0
100
AcDbLine
10
0
20
180.00000000000003
30
0
11
2.2204460492503131e-15
21
20
31
0
0
LINE
5
101
100
AcDbEntity
8
0
100
AcDbLine
10
40
20
0
30
0
11
40
21
-10.000000000000009
31
0
0
LINE
5
102
100
AcDbEntity
8
0
100
AcDbLine
10
40
20
-10.000000000000009
30
0
11
20
21
-10
31
0
0
LINE
5
103
100
AcDbEntity
8
0
100
AcDbLine
10
20
20
-10
30
0
11
20
21
0
31
0
0
LINE
5
104
100
AcDbEntity
8
0
100
AcDbLine
10
230
20
0
30
0
11
230
21
-9.9999999999999982
31
0
0
LINE
5
105
100
AcDbEntity
8
0
100
AcDbLine
10
230
20
-9.9999999999999982
30
0
11
210
21
-10
31
0
0
LINE
5
106
100
AcDbEntity
8
0
100
AcDbLine
10
210
20
-10
30
0
11
210
21
0
31
0
0
LINE
5
107
100
AcDbEntity
8
0
100
AcDbLine
10
20
20
0
30
0
11
20
21
0
31
0
0
LINE
5
108
100
AcDbEntity
8
0
100
AcDbLine
10
40
20
0
30
0
11
210
21
0
31
0
0
LINE
5
109
100
AcDbEntity
8
0
100
AcDbLine
10
230
20
0
30
0
11
245
21
0
31
0
0
LINE
5
110
100
AcDbEntity
8
0
100
AcDbLine
10
80
20
200
30
0
11
80
21
210
31
0
0
LINE
5
111
100
AcDbEntity
8
0
100
AcDbLine
10
80
20
210
30
0
11
60
21
210
31
0
0
LINE
5
112
100
AcDbEntity
8
0
100
AcDbLine
10
60
20
210
30
0
11
60
21
200
31
0
0
LINE
5
113
100
AcDbEntity
8
0
100
AcDbLine
10
190
20
200
30
0
11
190
21
209.99999999999994
31
0
0
LINE
5
114
100
AcDbEntity
8
0
100
AcDbLine
10
190
20
209.99999999999994
30
0
11
170
21
210
31
0
0
LINE
5
115
100
AcDbEntity
8
0
100
AcDbLine
10
170
20
210
30
0
11
169.99999999999997
21
200
31
0
0
LINE
5
116
100
AcDbEntity
8
0
100
AcDbLine
10
60
20
200
30
0
11
19.999999999999972
21
200
31
0
0
LINE
5
117
100
AcDbEntity
8
0
100
AcDbLine
10
230
20
200
30
0
11
190
21
200
31
0
0
LINE
5
118
100
AcDbEntity
8
0
100
AcDbLine
10
169.99999999999997
20
200
30
0
11
80
21
200
31
0
0
LWPOLYLINE
5
119
100
AcDbEntity
8
0
100
AcDbPolyline
90
8
70
1
43
0.0
10
125.00000000000001
20
186.38273950021627
10
64.801119289842177
20
186.38273950021627
42
0.16959256910377249
10
49.860301971642627
20
181.16496455115706
10
45.598061541125212
20
177.77445275258739
42
1.0004669929146759
10
54.407103742193868
20
166.71113904803798
10
57.477109012050377
20
169.15794001138966
42
-0.16983273473459967
10
66.291316183070435
20
172.24073950021622
10
125.00000000000001
20
172.24073950021622
0
LWPOLYLINE
5
120
100
AcDbEntity
8
0
100
AcDbPolyline
90
8
70
1
43
0.0
10
230
20
-80.060033630190333
10
19.999999999999996
20
-80.060033630190361
42
0.41421356237309537
10
1.1102230246251565e-14
20
-100.06003363019036
10
-3.1086244689504383e-14
20
-360.06003363019028
42
0.41421356237309392
10
20.000000000000107
20
-380.06003363019033
10
230
20
-380.06003363019033
42
0.41421356237309453
10
249.99999999999997
20
-360.06003363019033
10
250
20
-100.06003363019036
42
0.41421356237309553
0
LWPOLYLINE
5
121
100
AcDbEntity
8
0
100
AcDbPolyline
90
4
70
1
43
0.0
10
40.000000000000007
20
-90.060033630190361
10
20.000000000000004
20
-90.060033630190361
10
20.000000000000004
20
-100.06003363019036
10
40.000000000000007
20
-100.06003363019036
0
LWPOLYLINE
5
122
100
AcDbEntity
8
0
100
AcDbPolyline
90
4
70
1
43
0.0
10
80
20
-90.060033630190347
10
60.000000000000007
20
-90.060033630190347
10
60.000000000000007
20
-100.06003363019035
10
80
20
-100.06003363019035
0
LWPOLYLINE
5
123
100
AcDbEntity
8
0
100
AcDbPolyline
90
4
70
1
43
0.0
10
190
20
-90.060033630190347
10
170
20
-90.060033630190347
10
170
20
-100.06003363019035
10
190
20
-100.06003363019035
0
LWPOLYLINE
5
124
100
AcDbEntity
8
0
100
AcDbPolyline
90
4
70
1
43
0.0
10
230
20
-90.060033630190347
10
210
20
-90.060033630190347
10
210
20
-100.06003363019035
10
230
20
-100.06003363019035
0
LWPOLYLINE
5
125
100
AcDbEntity
8
0
100
AcDbPolyline
90
4
70
1
43
0.0
10
230.00000000000003
20
-360.06003363019033
10
210.00000000000003
20
-360.06003363019033
10
210.00000000000003
20
-370.06003363019033
10
230.00000000000003
20
-370.06003363019033
0
LWPOLYLINE
5
126
100
AcDbEntity
8
0
100
AcDbPolyline
90
4
70
1
43
0.0
10
80
20
-370.06003363019033
10
80
20
-360.06003363019033
10
60.000000000000007
20
-360.06003363019033
10
60.000000000000007
20
-370.06003363019033
0
LWPOLYLINE
5
127
100
AcDbEntity
8
0
100
AcDbPolyline
90
4
70
1
43
0.0
10
20.000000000000014
20
-360.06003363019033
10
20.000000000000014
20
-370.06003363019033
10
40.000000000000014
20
-370.06003363019033
10
40.000000000000014
20
-360.06003363019033
0
LWPOLYLINE
5
128
100
AcDbEntity
8
0
100
AcDbPolyline
90
4
70
1
43
0.0
10
190.00000000000003
20
-370.06003363019033
10
190.00000000000003
20
-360.06003363019033
10
170.00000000000003
20
-360.06003363019033
10
170.00000000000003
20
-370.06003363019033
0
LINE
5
129
100
AcDbEntity
8
0
100
AcDbLine
10
43.245829260566815
20
260.14475771137944
30
0
11
53.245829260566815
21
260.14475771137944
31
0
0
LINE
5
130
100
AcDbEntity
8
0
100
AcDbLine
10
53.245829260566815
20
260.14475771137944
30
0
11
53.245829260566815
21
250.14475771137941
31
0
0
LINE
5
131
100
AcDbEntity
8
0
100
AcDbLine
10
53.245829260566815
20
250.14475771137941
30
0
11
43.245829260566815
21
250.14475771137941
31
0
0
LINE
5
132
100
AcDbEntity
8
0
100
AcDbLine
10
43.245829260566815
20
250.14475771137941
30
0
11
43.245829260566815
21
260.14475771137944
31
0
0
CIRCLE
5
133
100
AcDbEntity
8
0
100
AcDbCircle
10
48.245829260566815
20
255.14475771137941
30
0
40
7.0710678118654755
0
LINE
5
134
100
AcDbEntity
8
0
100
AcDbLine
10
250
20
17.690928958874743
30
0
11
250
21
14.142000000000001
31
0
0
LWPOLYLINE
5
135
100
AcDbEntity
8
0
100
AcDbPolyline
90
16
70
1
43
0.0
10
529.39291865378186
20
174.65131977274808
10
271.39291865378198
20
174.65131977274808
10
260.39291865378186
20
174.65131977274808
10
260.39291865378186
20
164.65131977274808
10
271.39291865378198
20
164.65131977274808
10
271.39291865378192
20
13.800311642784502
10
260.39291865378186
20
13.800311642784502
10
260.39291865378186
20
3.8003116427845018
10
271.39291865378192
20
3.8003116427845018
10
529.39291865378186
20
3.8003116427837735
10
540.39291865378186
20
3.8003116427837735
10
540.39291865378186
20
13.800311642783774
10
529.39291865378186
20
13.800311642783782
10
529.39291865378186
20
164.65131977274808
10
540.39291865378198
20
164.65131977274808
10
540.39291865378198
20
174.65131977274808
0
LINE
5
136
100
AcDbEntity
8
0
100
AcDbLine
10
43.245829260566815
20
250.14475771137941
30
0
11
53.245829260566815
21
260.14475771137944
31
0
0
LINE
5
137
100
AcDbEntity
8
0
100
AcDbLine
10
125.00000000000001
20
172.24073950021622
30
0
11
183.70868381692969
21
172.24073950021622
31
0
0
LINE
5
138
100
AcDbEntity
8
0
100
AcDbLine
10
185.19888071015771
20
186.38273950021627
30
0
11
125.00000000000001
21
186.38273950021627
31
0
0
ARC
5
139
100
AcDbEntity
8
0
100
AcDbCircle
10
185.19888071015771
20
162.38273950021636
30
0
40
23.999999999999897
100
AcDbArc
50
51.498578347438333
51
90
0
ARC
5
140
100
AcDbEntity
8
0
100
AcDbCircle
10
183.70868381692969
20
158.09873950021625
30
0
40
14.141999999999967
100
AcDbArc
50
51.445077394545926
51
90
0
LINE
5
141
100
AcDbEntity
8
0
100
AcDbLine
10
204.40193845887478
20
177.77445275258739
30
0
11
200.13969802835726
21
181.16496455115706
31
0
0
ARC
5
142
100
AcDbEntity
8
0
100
AcDbCircle
10
200
20
172.24073950021622
30
0
40
7.0710002513922143
100
AcDbArc
50
-128.55492260545381
51
51.498578347438453
0
LINE
5
143
100
AcDbEntity
8
0
100
AcDbLine
10
195.59289625780616
20
166.71113904803801
30
0
11
192.52289098794972
21
169.15794001138966
31
0
0
LINE
5
144
100
AcDbEntity
8
0
100
AcDbLine
10
250
20
4.9999999999999991
30
0
11
250
21
14.142000000000001
31
0
0
LINE
5
145
100
AcDbEntity
8
0
100
AcDbLine
10
233.69999492931495
20
153.44175830762052
30
0
11
250
21
153.44175830762052
31
0
0
LINE
5
146
100
AcDbEntity
8
0
100
AcDbLine
10
231.94072949617811
20
167.58375830762051
30
0
11
250
21
167.58375830762049
31
0
0
LINE
5
147
100
AcDbEntity
8
0
100
AcDbLine
10
210.43297779351366
20
148.27769930368217
30
0
11
230.41164148536024
21
153.0541356336804
31
0
0
ARC
5
148
100
AcDbEntity
8
0
100
AcDbCircle
10
233.69999492931495
20
139.29975830762049
30
0
40
14.14200000000001
100
AcDbArc
50
90
51
103.44571184392412
0
LINE
5
149
100
AcDbEntity
8
0
100
AcDbLine
10
208.78880107153628
20
155.15488796671212
30
0
11
221.35697316786153
21
155.15488796671212
31
0
0
LINE
5
150
100
AcDbEntity
8
0
100
AcDbLine
10
205.33929911820604
20
161.57291161645088
30
0
11
226.01525988921156
21
166.84077466692412
31
0
0
ARC
5
151
100
AcDbEntity
8
0
100
AcDbCircle
10
231.94072949617811
20
143.58375830762051
30
0
40
24.000000000000004
100
AcDbArc
50
90
51
104.29382443526806
0
ARC
5
152
100
AcDbEntity
8
0
100
AcDbCircle
10
208.78880107153628
20
155.15488796671212
30
0
40
7.0710000000000095
100
AcDbArc
50
104.29382443526863
51
283.44571184392419
0
LINE
5
153
100
AcDbEntity
8
0
100
AcDbLine
10
250
20
37.690737157955091
30
0
11
250
21
153.44175830762052
31
0
0
LINE
5
154
100
AcDbEntity
8
0
100
AcDbLine
10
250
20
167.58375830762049
30
0
11
250
21
180
31
0
0
LINE
5
155
100
AcDbEntity
8
0
100
AcDbLine
10
244.50308276288075
20
12.19401172175553
30
0
11
250
21
17.690928958874743
31
0
0
LINE
5
156
100
AcDbEntity
8
0
100
AcDbLine
10
234.50317866334061
20
22.193915821295693
30
0
11
250
21
37.690737157955091
31
0
0
ARC
5
157
100
AcDbEntity
8
0
100
AcDbCircle
10
239.50313071311069
20
17.193963771525613
30
0
40
7.0710000000000042
100
AcDbArc
50
135.00000000000006
51
314.99999999999983
0
ARC
5
158
100
AcDbEntity
8
0
100
AcDbCircle
10
19.999999999999979
20
19.999999999999979
30
0
40
19.999999999999975
100
AcDbArc
50
180
51
270.00000000000006
0
ARC
5
159
100
AcDbEntity
8
0
100
AcDbCircle
10
19.999999999999957
20
180.00000000000003
30
0
40
19.999999999999964
100
AcDbArc
50
89.999999999999972
51
180
0
ARC
5
160
100
AcDbEntity
8
0
100
AcDbCircle
10
230
20
180
30
0
40
20
100
AcDbArc
50
0
51
90
0
ARC
5
161
100
AcDbEntity
8
0
100
AcDbCircle
10
245
20
5.0000000000000098
30
0
40
5.0000000000000098
100
AcDbArc
50
270
51
360
0
ENDSEC
0
SECTION
2
OBJECTS
0
DICTIONARY
5
C
100
AcDbDictionary
3
ACAD_GROUP
350
D
3
ACAD_MLINESTYLE
350
17
0
DICTIONARY
5
D
100
AcDbDictionary
0
DICTIONARY
5
1A
330
C
100
AcDbDictionary
0
DICTIONARY
5
17
100
AcDbDictionary
0
ENDSEC
0
EOF
