0
SECTION
2
HEADER
9
$INSUNITS
70
4
9
$ACADVER
1
AC1014
9
$HANDSEED
5
FFFF
0
ENDSEC
0
SECTION
2
TABLES
0
TABLE
2
VPORT
5
8
100
AcDbSymbolTable
0
ENDTAB
0
TABLE
2
LTYPE
5
5
100
AcDbSymbolTable
0
LTYPE
5
14
100
AcDbSymbolTableRecord
100
AcDbLinetypeTableRecord
2
BYBLOCK
70
0
0
LTYPE
5
15
100
AcDbSymbolTableRecord
100
AcDbLinetypeTableRecord
2
BYLAYER
70
0
0
ENDTAB
0
TABLE
2
LAYER
5
2
100
AcDbSymbolTable
70
2
0
LAYER
5
50
100
AcDbSymbolTableRecord
100
AcDbLayerTableRecord
2
0
70
0
6
CONTINUOUS
0
ENDTAB
0
TABLE
2
STYLE
5
3
100
AcDbSymbolTable
70
1
0
STYLE
5
11
100
AcDbSymbolTableRecord
100
AcDbTextStyleTableRecord
2
STANDARD
70
0
0
ENDTAB
0
TABLE
2
VIEW
5
6
100
AcDbSymbolTable
70
0
0
ENDTAB
0
TABLE
2
UCS
5
7
100
AcDbSymbolTable
70
0
0
ENDTAB
0
TABLE
2
APPID
5
9
100
AcDbSymbolTable
70
2
0
APPID
5
12
100
AcDbSymbolTableRecord
100
AcDbRegAppTableRecord
2
ACAD
70
0
0
ENDTAB
0
TABLE
2
DIMSTYLE
5
A
100
AcDbSymbolTable
70
1
0
ENDTAB
0
TABLE
2
BLOCK_RECORD
5
1
100
AcDbSymbolTable
70
1
0
BLOCK_RECORD
5
1F
100
AcDbSymbolTableRecord
100
AcDbBlockTableRecord
2
*MODEL_SPACE
0
BLOCK_RECORD
5
1B
100
AcDbSymbolTableRecord
100
AcDbBlockTableRecord
2
*PAPER_SPACE
0
ENDTAB
0
ENDSEC
0
SECTION
2
BLOCKS
0
BLOCK
5
20
100
AcDbEntity
100
AcDbBlockBegin
2
*MODEL_SPACE
0
ENDBLK
5
21
100
AcDbEntity
100
AcDbBlockEnd
0
BLOCK
5
1C
100
AcDbEntity
100
AcDbBlockBegin
2
*PAPER_SPACE
0
ENDBLK
5
1D
100
AcDbEntity
100
AcDbBlockEnd
0
ENDSEC
0
SECTION
2
ENTITIES
0
ARC
5
100
100
AcDbEntity
8
0
100
AcDbCircle
10
-91.873956340714628
20
-38.005394280139654
30
0
40
65.000000000000028
100
AcDbArc
50
90
51
135.0418022619059
0
LINE
5
101
100
AcDbEntity
8
0
100
AcDbLine
10
-69.529209119858535
20
26.994605719860381
30
0
11
-91.873956340714628
21
26.994605719860381
31
0
0
LINE
5
102
100
AcDbEntity
8
0
100
AcDbLine
10
-137.86941812146989
20
7.9230010279384011
30
0
11
-145.78086653722897
21
0
31
0
0
LINE
5
103
100
AcDbEntity
8
0
100
AcDbLine
10
-5.4592068836567798
20
141.26570297987243
30
0
11
16.363301776028951
21
141.26570297987246
31
0
0
LINE
5
104
100
AcDbEntity
8
0
100
AcDbLine
10
-25.45920688365679
20
69.428399486040291
30
0
11
-25.45920688365678
21
121.26570297987243
31
0
0
ARC
5
105
100
AcDbEntity
8
0
100
AcDbCircle
10
-5.4592068836567709
20
121.26570297987243
30
0
40
20.000000000000004
100
AcDbArc
50
90.000000000000014
51
180
0
LINE
5
106
100
AcDbEntity
8
0
100
AcDbLine
10
16.363301776028951
20
141.26570297987246
30
0
11
16.363301776028951
21
0
31
0
0
LINE
5
107
100
AcDbEntity
8
0
100
AcDbLine
10
16.363301776028951
20
0
30
0
11
-145.78086653722897
21
0
31
0
0
ARC
5
108
100
AcDbEntity
8
0
100
AcDbCircle
10
-41.57384374038395
20
42.062854483587131
30
0
40
31.757748256220534
100
AcDbArc
50
-151.67484528287332
51
59.507618725556654
0
LINE
5
109
100
AcDbEntity
8
0
100
AcDbLine
10
-220
20
30
30
0
11
-220
21
130
31
0
0
LINE
5
110
100
AcDbEntity
8
0
100
AcDbLine
10
-220
20
130
30
0
11
-170.77669223666931
21
130
31
0
0
LINE
5
111
100
AcDbEntity
8
0
100
AcDbLine
10
-170.77669223666931
20
130
30
0
11
-170.77669223666925
21
108.17749134031428
31
0
0
ARC
5
112
100
AcDbEntity
8
0
100
AcDbCircle
10
-150.77669223666925
20
108.17749134031429
30
0
40
20
100
AcDbArc
50
180
51
270
0
LINE
5
113
100
AcDbEntity
8
0
100
AcDbLine
10
-98.939388742837124
20
88.17749134031429
30
0
11
-150.77669223666925
21
88.17749134031429
31
0
0
ARC
5
114
100
AcDbEntity
8
0
100
AcDbCircle
10
-71.573843740383936
20
72.062854483587131
30
0
40
31.757748256220548
100
AcDbArc
50
-151.67484528287335
51
149.50761872555668
0
LINE
5
115
100
AcDbEntity
8
0
100
AcDbLine
10
-99.529209119858535
20
56.994605719860381
30
0
11
-121.87395634071464
21
56.994605719860381
31
0
0
ARC
5
116
100
AcDbEntity
8
0
100
AcDbCircle
10
-121.87395634071464
20
-8.0053942801396527
30
0
40
65.000000000000028
100
AcDbArc
50
90
51
135.0418022619059
0
LINE
5
117
100
AcDbEntity
8
0
100
AcDbLine
10
-167.86941812146992
20
37.923001027938398
30
0
11
-175.78086653722897
21
30
31
0
0
LINE
5
118
100
AcDbEntity
8
0
100
AcDbLine
10
-220
20
30
30
0
11
-175.78086653722897
21
30
31
0
0
ENDSEC
0
SECTION
2
OBJECTS
0
DICTIONARY
5
C
100
AcDbDictionary
3
ACAD_GROUP
350
D
3
ACAD_MLINESTYLE
350
17
0
DICTIONARY
5
D
100
AcDbDictionary
0
DICTIONARY
5
1A
330
C
100
AcDbDictionary
0
DICTIONARY
5
17
100
AcDbDictionary
0
ENDSEC
0
EOF
