  0
SECTION
  2
HEADER
  9
$ACADVER
  1
AC1009
  0
ENDSEC
  0
SECTION
  2
BLOCKS
  0
ENDSEC
  0
SECTION
  2
ENTITIES
  0
LINE
  8
CutLine
  6
CONTINUOUS
 62
8
 10
77.668106
 20
195.942285
 11
69.820103
 21
196.895623
  0
LINE
  8
CutLine
  6
CONTINUOUS
 62
8
 10
69.820103
 20
196.895623
 11
3.624015
 21
155.039402
  0
LINE
  8
CutLine
  6
CONTINUOUS
 62
8
 10
3.624015
 20
155.039402
 11
2.070122
 21
148.141184
  0
LINE
  8
CutLine
  6
CONTINUOUS
 62
8
 10
33.785848
 20
472.866473
 11
26.939316
 21
468.913626
  0
LINE
  8
CutLine
  6
CONTINUOUS
 62
8
 10
26.939316
 20
468.913626
 11
-0.832019
 21
395.683728
  0
LINE
  8
CutLine
  6
CONTINUOUS
 62
8
 10
-0.832019
 20
395.683728
 11
2.070122
 21
389.235661
  0
LINE
  8
CutLine
  6
CONTINUOUS
 62
8
 10
75.668106
 20
199.406386
 11
77.022371
 21
196.020726
  0
LINE
  8
CutLine
  6
CONTINUOUS
 62
8
 10
75.668106
 20
337.970458
 11
67.922140
 21
336.389319
  0
LINE
  8
CutLine
  6
CONTINUOUS
 62
8
 10
67.922140
 20
336.389319
 11
18.388858
 21
275.723683
  0
LINE
  8
CutLine
  6
CONTINUOUS
 62
8
 10
18.388858
 20
275.723683
 11
19.099564
 21
268.688422
  0
LINE
  8
CutLine
  6
CONTINUOUS
 62
8
 10
323.668106
 20
337.970458
 11
322.158447
 21
341.744605
  0
LINE
  8
CutLine
  6
CONTINUOUS
 62
8
 10
323.668106
 20
199.406386
 11
331.414073
 21
200.987525
  0
LINE
  8
CutLine
  6
CONTINUOUS
 62
8
 10
331.414073
 20
200.987525
 11
380.947355
 21
261.653161
  0
LINE
  8
CutLine
  6
CONTINUOUS
 62
8
 10
380.947355
 20
261.653161
 11
380.236649
 21
268.688422
  0
LINE
  8
CutLine
  6
CONTINUOUS
 62
8
 10
201.668106
 20
410.716595
 11
196.337979
 21
411.484545
  0
LINE
  8
CutLine
  6
CONTINUOUS
 62
8
 10
196.337979
 20
411.484545
 11
196.835823
 21
410.851866
  0
LINE
  8
CutLine
  6
CONTINUOUS
 62
8
 10
321.668106
 20
195.942285
 11
324.532843
 21
199.582900
  0
LINE
  8
CutLine
  6
CONTINUOUS
 62
8
 10
201.668106
 20
126.660249
 11
206.910397
 21
120.742615
  0
LINE
  8
CutLine
  6
CONTINUOUS
 62
8
 10
206.910397
 20
120.742615
 11
284.215019
 21
108.178353
  0
LINE
  8
CutLine
  6
CONTINUOUS
 62
8
 10
284.215019
 20
108.178353
 11
289.952381
 21
112.311473
  0
LINE
  8
CutLine
  6
CONTINUOUS
 62
8
 10
197.668106
 20
126.660249
 11
202.253340
 21
125.999622
  0
LINE
  8
CutLine
  6
CONTINUOUS
 62
8
 10
77.668106
 20
341.434560
 11
74.803370
 21
337.793944
  0
LINE
  8
CutLine
  6
CONTINUOUS
 62
8
 10
197.082872
 20
411.377223
 11
192.425816
 21
416.634230
  0
LINE
  8
CutLine
  6
CONTINUOUS
 62
8
 10
192.425816
 20
416.634230
 11
115.121194
 21
429.198492
  0
LINE
  8
CutLine
  6
CONTINUOUS
 62
8
 10
115.121194
 20
429.198492
 11
109.383832
 21
425.065372
  0
LINE
  8
CutLine
  6
CONTINUOUS
 62
8
 10
365.550365
 20
64.510371
 11
372.396897
 21
68.463219
  0
LINE
  8
CutLine
  6
CONTINUOUS
 62
8
 10
372.396897
 20
68.463219
 11
400.168232
 21
141.693116
  0
LINE
  8
CutLine
  6
CONTINUOUS
 62
8
 10
400.168232
 20
141.693116
 11
397.266091
 21
148.141184
  0
LINE
  8
CutLine
  6
CONTINUOUS
 62
8
 10
322.313842
 20
341.356119
 11
329.516109
 21
340.481222
  0
LINE
  8
CutLine
  6
CONTINUOUS
 62
8
 10
329.516109
 20
340.481222
 11
395.712198
 21
382.337442
  0
LINE
  8
CutLine
  6
CONTINUOUS
 62
8
 10
395.712198
 20
382.337442
 11
397.266091
 21
389.235661
  0
LINE
  8
CutLine
  6
CONTINUOUS
 62
8
 10
365.550365
 20
472.866473
 11
357.702362
 21
473.819811
  0
LINE
  8
CutLine
  6
CONTINUOUS
 62
8
 10
357.702362
 20
473.819811
 11
291.506274
 21
431.963590
  0
LINE
  8
CutLine
  6
CONTINUOUS
 62
8
 10
291.506274
 20
431.963590
 11
289.952381
 21
425.065372
  0
LINE
  8
CutLine
  6
CONTINUOUS
 62
8
 10
171.338755
 20
47.801101
 11
170.703231
 21
55.681210
  0
LINE
  8
CutLine
  6
CONTINUOUS
 62
8
 10
170.703231
 20
55.681210
 11
116.453457
 21
112.168619
  0
LINE
  8
CutLine
  6
CONTINUOUS
 62
8
 10
116.453457
 20
112.168619
 11
109.383832
 21
112.311473
  0
LINE
  8
CutLine
  6
CONTINUOUS
 62
8
 10
33.785848
 20
64.510371
 11
34.421372
 21
56.630263
  0
LINE
  8
CutLine
  6
CONTINUOUS
 62
8
 10
34.421372
 20
56.630263
 11
88.671146
 21
0.142854
  0
LINE
  8
CutLine
  6
CONTINUOUS
 62
8
 10
88.671146
 20
0.142854
 11
95.740771
 21
-0.000000
  0
LINE
  8
CutLine
  6
CONTINUOUS
 62
8
 10
171.338755
 20
489.575743
 11
168.835077
 21
497.074516
  0
LINE
  8
CutLine
  6
CONTINUOUS
 62
8
 10
168.835077
 20
497.074516
 11
102.638989
 21
538.930737
  0
LINE
  8
CutLine
  6
CONTINUOUS
 62
8
 10
102.638989
 20
538.930737
 11
95.740771
 21
537.376844
  0
LINE
  8
MountainLine
  6
CONTINUOUS
 62
5
 10
77.668106
 20
195.942285
 11
2.070122
 21
148.141184
  0
LINE
  8
CutLine
  6
CONTINUOUS
 62
8
 10
2.070122
 20
148.141184
 11
33.785848
 21
64.510371
  0
LINE
  8
ValleyLine
  6
CONTINUOUS
 62
1
 10
33.785848
 20
64.510371
 11
77.668106
 21
195.942285
  0
LINE
  8
MountainLine
  6
CONTINUOUS
 62
5
 10
33.785848
 20
64.510371
 11
109.383832
 21
112.311473
  0
LINE
  8
MountainLine
  6
CONTINUOUS
 62
5
 10
109.383832
 20
112.311473
 11
77.668106
 21
195.942285
  0
LINE
  8
MountainLine
  6
CONTINUOUS
 62
5
 10
33.785848
 20
472.866473
 11
2.070122
 21
389.235661
  0
LINE
  8
CutLine
  6
CONTINUOUS
 62
8
 10
2.070122
 20
389.235661
 11
77.668106
 21
341.434560
  0
LINE
  8
ValleyLine
  6
CONTINUOUS
 62
1
 10
77.668106
 20
341.434560
 11
33.785848
 21
472.866473
  0
LINE
  8
MountainLine
  6
CONTINUOUS
 62
5
 10
77.668106
 20
341.434560
 11
109.383832
 21
425.065372
  0
LINE
  8
MountainLine
  6
CONTINUOUS
 62
5
 10
109.383832
 20
425.065372
 11
33.785848
 21
472.866473
  0
LINE
  8
MountainLine
  6
CONTINUOUS
 62
5
 10
199.668106
 20
130.124351
 11
319.668106
 21
199.406386
  0
LINE
  8
MountainLine
  6
CONTINUOUS
 62
5
 10
319.668106
 20
337.970458
 11
199.668106
 21
407.252494
  0
LINE
  8
MountainLine
  6
CONTINUOUS
 62
5
 10
319.668106
 20
199.406386
 11
319.668106
 21
337.970458
  0
LINE
  8
MountainLine
  6
CONTINUOUS
 62
5
 10
79.668106
 20
337.970458
 11
79.668106
 21
199.406386
  0
LINE
  8
MountainLine
  6
CONTINUOUS
 62
5
 10
79.668106
 20
199.406386
 11
199.668106
 21
130.124351
  0
LINE
  8
MountainLine
  6
CONTINUOUS
 62
5
 10
199.668106
 20
407.252494
 11
79.668106
 21
337.970458
  0
LINE
  8
MountainLine
  6
CONTINUOUS
 62
5
 10
75.668106
 20
199.406386
 11
79.668106
 21
199.406386
  0
LINE
  8
MountainLine
  6
CONTINUOUS
 62
5
 10
75.668106
 20
337.970458
 11
75.668106
 21
199.406386
  0
LINE
  8
CutLine
  6
CONTINUOUS
 62
8
 10
79.668106
 20
337.970458
 11
75.668106
 21
337.970458
  0
LINE
  8
MountainLine
  6
CONTINUOUS
 62
5
 10
75.668106
 20
337.970458
 11
19.099564
 21
268.688422
  0
LINE
  8
CutLine
  6
CONTINUOUS
 62
8
 10
19.099564
 20
268.688422
 11
75.668106
 21
199.406386
  0
LINE
  8
MountainLine
  6
CONTINUOUS
 62
5
 10
323.668106
 20
199.406386
 11
323.668106
 21
337.970458
  0
LINE
  8
CutLine
  6
CONTINUOUS
 62
8
 10
319.668106
 20
199.406386
 11
323.668106
 21
199.406386
  0
LINE
  8
MountainLine
  6
CONTINUOUS
 62
5
 10
323.668106
 20
337.970458
 11
319.668106
 21
337.970458
  0
LINE
  8
MountainLine
  6
CONTINUOUS
 62
5
 10
323.668106
 20
199.406386
 11
380.236649
 21
268.688422
  0
LINE
  8
CutLine
  6
CONTINUOUS
 62
8
 10
380.236649
 20
268.688422
 11
323.668106
 21
337.970458
  0
LINE
  8
MountainLine
  6
CONTINUOUS
 62
5
 10
201.668106
 20
410.716595
 11
199.668106
 21
407.252494
  0
LINE
  8
MountainLine
  6
CONTINUOUS
 62
5
 10
321.668106
 20
341.434560
 11
201.668106
 21
410.716595
  0
LINE
  8
CutLine
  6
CONTINUOUS
 62
8
 10
319.668106
 20
337.970458
 11
321.668106
 21
341.434560
  0
LINE
  8
MountainLine
  6
CONTINUOUS
 62
5
 10
321.668106
 20
341.434560
 11
289.952381
 21
425.065372
  0
LINE
  8
CutLine
  6
CONTINUOUS
 62
8
 10
289.952381
 20
425.065372
 11
201.668106
 21
410.716595
  0
LINE
  8
MountainLine
  6
CONTINUOUS
 62
5
 10
321.668106
 20
195.942285
 11
319.668106
 21
199.406386
  0
LINE
  8
MountainLine
  6
CONTINUOUS
 62
5
 10
201.668106
 20
126.660249
 11
321.668106
 21
195.942285
  0
LINE
  8
CutLine
  6
CONTINUOUS
 62
8
 10
199.668106
 20
130.124351
 11
201.668106
 21
126.660249
  0
LINE
  8
MountainLine
  6
CONTINUOUS
 62
5
 10
201.668106
 20
126.660249
 11
289.952381
 21
112.311473
  0
LINE
  8
MountainLine
  6
CONTINUOUS
 62
5
 10
289.952381
 20
112.311473
 11
321.668106
 21
195.942285
  0
LINE
  8
MountainLine
  6
CONTINUOUS
 62
5
 10
77.668106
 20
195.942285
 11
197.668106
 21
126.660249
  0
LINE
  8
CutLine
  6
CONTINUOUS
 62
8
 10
79.668106
 20
199.406386
 11
77.668106
 21
195.942285
  0
LINE
  8
MountainLine
  6
CONTINUOUS
 62
5
 10
197.668106
 20
126.660249
 11
199.668106
 21
130.124351
  0
LINE
  8
CutLine
  6
CONTINUOUS
 62
8
 10
109.383832
 20
112.311473
 11
197.668106
 21
126.660249
  0
LINE
  8
MountainLine
  6
CONTINUOUS
 62
5
 10
197.668106
 20
410.716595
 11
77.668106
 21
341.434560
  0
LINE
  8
CutLine
  6
CONTINUOUS
 62
8
 10
199.668106
 20
407.252494
 11
197.668106
 21
410.716595
  0
LINE
  8
MountainLine
  6
CONTINUOUS
 62
5
 10
77.668106
 20
341.434560
 11
79.668106
 21
337.970458
  0
LINE
  8
MountainLine
  6
CONTINUOUS
 62
5
 10
197.668106
 20
410.716595
 11
109.383832
 21
425.065372
  0
LINE
  8
CutLine
  6
CONTINUOUS
 62
8
 10
289.952381
 20
112.311473
 11
365.550365
 21
64.510371
  0
LINE
  8
ValleyLine
  6
CONTINUOUS
 62
1
 10
365.550365
 20
64.510371
 11
321.668106
 21
195.942285
  0
LINE
  8
MountainLine
  6
CONTINUOUS
 62
5
 10
365.550365
 20
64.510371
 11
397.266091
 21
148.141184
  0
LINE
  8
CutLine
  6
CONTINUOUS
 62
8
 10
397.266091
 20
148.141184
 11
321.668106
 21
195.942285
  0
LINE
  8
MountainLine
  6
CONTINUOUS
 62
5
 10
321.668106
 20
341.434560
 11
397.266091
 21
389.235661
  0
LINE
  8
CutLine
  6
CONTINUOUS
 62
8
 10
397.266091
 20
389.235661
 11
365.550365
 21
472.866473
  0
LINE
  8
ValleyLine
  6
CONTINUOUS
 62
1
 10
365.550365
 20
472.866473
 11
321.668106
 21
341.434560
  0
LINE
  8
MountainLine
  6
CONTINUOUS
 62
5
 10
365.550365
 20
472.866473
 11
289.952381
 21
425.065372
  0
LINE
  8
MountainLine
  6
CONTINUOUS
 62
5
 10
171.338755
 20
47.801101
 11
109.383832
 21
112.311473
  0
LINE
  8
ValleyLine
  6
CONTINUOUS
 62
1
 10
33.785848
 20
64.510371
 11
171.338755
 21
47.801101
  0
LINE
  8
MountainLine
  6
CONTINUOUS
 62
5
 10
33.785848
 20
64.510371
 11
95.740771
 21
0.000000
  0
LINE
  8
CutLine
  6
CONTINUOUS
 62
8
 10
95.740771
 20
0.000000
 11
171.338755
 21
47.801101
  0
LINE
  8
CutLine
  6
CONTINUOUS
 62
8
 10
109.383832
 20
425.065372
 11
171.338755
 21
489.575743
  0
LINE
  8
ValleyLine
  6
CONTINUOUS
 62
1
 10
171.338755
 20
489.575743
 11
33.785848
 21
472.866473
  0
LINE
  8
MountainLine
  6
CONTINUOUS
 62
5
 10
171.338755
 20
489.575743
 11
95.740771
 21
537.376844
  0
LINE
  8
CutLine
  6
CONTINUOUS
 62
8
 10
95.740771
 20
537.376844
 11
33.785848
 21
472.866473
  0
ENDSEC
  0
EOF
