0
SECTION
2
HEADER
9
$ACADVER
1
AC1009
0
ENDSEC
0
SECTION
2
TABLES
0
TABLE
2
VPORT
70
1
0
VPORT
2
ACTIVE
70
0
10
0.0
20
0.0
11
0.0
21
0.0
12
0.0
22
0.0
13
0.0
23
0.0
14
0.0
24
0.0
15
0.0
25
0.0
16
0.0
26
0.0
36
0.0
17
0.0
27
0.0
37
0.0
40
0.0
41
0.0
42
0.0
43
0.0
44
0.0
50
0.0
51
0.0
71
0
72
1000
73
1
74
3
75
0
76
0
77
0
78
0
0
ENDTAB
0
ENDSEC
0
SECTION
2
ENTITIES
0
LINE
8
boundary
62
5
39
2
10
43.487330
20
140.657787
11
43.932911
21
138.816559
0
LINE
8
boundary
62
5
39
2
10
43.932911
20
138.816559
11
44.374796
21
136.974094
0
LINE
8
boundary
62
5
39
2
10
44.374796
20
136.974094
11
44.543872
21
136.262899
0
LINE
8
boundary
62
5
39
2
10
44.543872
20
136.262899
11
44.813325
21
135.130419
0
LINE
8
boundary
62
5
39
2
10
44.813325
20
135.130419
11
45.066613
21
134.056727
0
LINE
8
boundary
62
5
39
2
10
45.066613
20
134.056727
11
45.248728
21
133.285541
0
LINE
8
boundary
62
5
39
2
10
45.248728
20
133.285541
11
45.585620
21
131.847102
0
LINE
8
boundary
62
5
39
2
10
45.585620
20
131.847102
11
46.101291
21
129.633794
0
LINE
8
boundary
62
5
39
2
10
46.101291
20
129.633794
11
46.530147
21
127.742472
0
LINE
8
boundary
62
5
39
2
10
46.530147
20
127.742472
11
46.946249
21
125.890922
0
LINE
8
boundary
62
5
39
2
10
46.946249
20
125.890922
11
47.106427
21
125.174237
0
LINE
8
boundary
62
5
39
2
10
47.106427
20
125.174237
11
47.360540
21
124.037883
0
LINE
8
boundary
62
5
39
2
10
47.360540
20
124.037883
11
47.979710
21
121.249959
0
LINE
8
boundary
62
5
39
2
10
47.979710
20
121.249959
11
48.184652
21
120.327576
0
LINE
8
boundary
62
5
39
2
10
48.184652
20
120.327576
11
48.562743
21
118.614248
0
LINE
8
boundary
62
5
39
2
10
48.562743
20
118.614248
11
48.996055
21
116.606738
0
LINE
8
boundary
62
5
39
2
10
48.996055
20
116.606738
11
49.394472
21
114.755098
0
LINE
8
boundary
62
5
39
2
10
49.394472
20
114.755098
11
49.798960
21
112.874168
0
LINE
8
boundary
62
5
39
2
10
49.798960
20
112.874168
11
50.217963
21
110.925084
0
LINE
8
boundary
62
5
39
2
10
50.217963
20
110.925084
11
50.597004
21
109.126762
0
LINE
8
boundary
62
5
39
2
10
50.597004
20
109.126762
11
50.994358
21
107.248396
0
LINE
8
boundary
62
5
39
2
10
50.994358
20
107.248396
11
51.392977
21
105.361234
0
LINE
8
boundary
62
5
39
2
10
51.392977
20
105.361234
11
51.754451
21
103.661048
0
LINE
8
boundary
62
5
39
2
10
51.754451
20
103.661048
11
52.190014
21
101.571425
0
LINE
8
boundary
62
5
39
2
10
52.190014
20
101.571425
11
52.742181
21
98.950696
0
LINE
8
boundary
62
5
39
2
10
52.742181
20
98.950696
11
52.993411
21
97.755438
0
LINE
8
boundary
62
5
39
2
10
52.993411
20
97.755438
11
53.181623
21
96.872072
0
LINE
8
boundary
62
5
39
2
10
53.181623
20
96.872072
11
53.803911
21
93.894749
0
LINE
8
boundary
62
5
39
2
10
53.803911
20
93.894749
11
54.509010
21
90.580531
0
LINE
8
boundary
62
5
39
2
10
54.509010
20
90.580531
11
54.631288
21
89.994875
0
LINE
8
boundary
62
5
39
2
10
54.631288
20
89.994875
11
54.885850
21
88.801923
0
LINE
8
boundary
62
5
39
2
10
54.885850
20
88.801923
11
55.476952
21
86.022649
0
LINE
8
boundary
62
5
39
2
10
55.476952
20
86.022649
11
55.747699
21
84.780205
0
LINE
8
boundary
62
5
39
2
10
55.747699
20
84.780205
11
56.350769
21
81.966412
0
LINE
8
boundary
62
5
39
2
10
56.350769
20
81.966412
11
56.917784
21
79.389684
0
LINE
8
boundary
62
5
39
2
10
56.917784
20
79.389684
11
57.076883
21
78.654101
0
LINE
8
boundary
62
5
39
2
10
57.076883
20
78.654101
11
57.409672
21
77.157725
0
LINE
8
boundary
62
5
39
2
10
57.409672
20
77.157725
11
57.832590
21
75.246733
0
LINE
8
boundary
62
5
39
2
10
57.832590
20
75.246733
11
58.030435
21
74.378453
0
LINE
8
boundary
62
5
39
2
10
58.030435
20
74.378453
11
58.462202
21
72.441784
0
LINE
8
boundary
62
5
39
2
10
58.462202
20
72.441784
11
59.105645
21
69.654725
0
LINE
8
boundary
62
5
39
2
10
59.105645
20
69.654725
11
59.628170
21
67.385143
0
LINE
8
boundary
62
5
39
2
10
59.628170
20
67.385143
11
60.141578
21
65.241136
0
LINE
8
boundary
62
5
39
2
10
60.141578
20
65.241136
11
60.672751
21
63.024682
0
LINE
8
boundary
62
5
39
2
10
60.672751
20
63.024682
11
61.208598
21
60.880912
0
LINE
8
boundary
62
5
39
2
10
61.208598
20
60.880912
11
61.773361
21
58.642282
0
LINE
8
boundary
62
5
39
2
10
61.773361
20
58.642282
11
62.274665
21
56.744755
0
LINE
8
boundary
62
5
39
2
10
62.274665
20
56.744755
11
62.450795
21
56.081547
0
LINE
8
boundary
62
5
39
2
10
62.450795
20
56.081547
11
62.946178
21
54.241659
0
LINE
8
boundary
62
5
39
2
10
62.946178
20
54.241659
11
63.370077
21
52.739244
0
LINE
8
boundary
62
5
39
2
10
63.370077
20
52.739244
11
63.522648
21
52.190045
0
LINE
8
boundary
62
5
39
2
10
63.522648
20
52.190045
11
63.827496
21
51.136024
0
LINE
8
boundary
62
5
39
2
10
63.827496
20
51.136024
11
64.020622
21
50.467801
0
LINE
8
boundary
62
5
39
2
10
64.020622
20
50.467801
11
64.528840
21
48.759729
0
LINE
8
boundary
62
5
39
2
10
64.528840
20
48.759729
11
64.892989
21
47.580537
0
LINE
8
boundary
62
5
39
2
10
64.892989
20
47.580537
11
65.055326
21
47.049330
0
LINE
8
boundary
62
5
39
2
10
65.055326
20
47.049330
11
65.411693
21
45.928345
0
LINE
8
boundary
62
5
39
2
10
65.411693
20
45.928345
11
65.596586
21
45.346380
0
LINE
8
boundary
62
5
39
2
10
65.596586
20
45.346380
11
66.149359
21
43.663330
0
LINE
8
boundary
62
5
39
2
10
66.149359
20
43.663330
11
66.498602
21
42.638701
0
LINE
8
boundary
62
5
39
2
10
66.498602
20
42.638701
11
66.721815
21
41.981658
0
LINE
8
boundary
62
5
39
2
10
66.721815
20
41.981658
11
67.258213
21
40.460433
0
LINE
8
boundary
62
5
39
2
10
67.258213
20
40.460433
11
67.914923
21
38.659545
0
LINE
8
boundary
62
5
39
2
10
67.914923
20
38.659545
11
68.196130
21
37.917440
0
LINE
8
boundary
62
5
39
2
10
68.196130
20
37.917440
11
68.537288
21
37.021118
0
LINE
8
boundary
62
5
39
2
10
68.537288
20
37.021118
11
69.082524
21
35.636292
0
LINE
8
boundary
62
5
39
2
10
69.082524
20
35.636292
11
69.445801
21
34.742698
0
LINE
8
boundary
62
5
39
2
10
69.445801
20
34.742698
11
69.838755
21
33.785769
0
LINE
8
boundary
62
5
39
2
10
69.838755
20
33.785769
11
70.513937
21
32.208074
0
LINE
8
boundary
62
5
39
2
10
70.513937
20
32.208074
11
70.925796
21
31.276640
0
LINE
8
boundary
62
5
39
2
10
70.925796
20
31.276640
11
71.210649
21
30.643433
0
LINE
8
boundary
62
5
39
2
10
71.210649
20
30.643433
11
71.887707
21
29.179754
0
LINE
8
boundary
62
5
39
2
10
71.887707
20
29.179754
11
72.659951
21
27.590105
0
LINE
8
boundary
62
5
39
2
10
72.659951
20
27.590105
11
73.410917
21
26.114423
0
LINE
8
boundary
62
5
39
2
10
73.410917
20
26.114423
11
73.876208
21
25.227417
0
LINE
8
boundary
62
5
39
2
10
73.876208
20
25.227417
11
74.183127
21
24.661196
0
LINE
8
boundary
62
5
39
2
10
74.183127
20
24.661196
11
74.909009
21
23.348826
0
LINE
8
boundary
62
5
39
2
10
74.909009
20
23.348826
11
75.204420
21
22.842178
0
LINE
8
boundary
62
5
39
2
10
75.204420
20
22.842178
11
75.783286
21
21.859042
0
LINE
8
boundary
62
5
39
2
10
75.783286
20
21.859042
11
76.608566
21
20.529035
0
LINE
8
boundary
62
5
39
2
10
76.608566
20
20.529035
11
77.030643
21
19.864866
0
LINE
8
boundary
62
5
39
2
10
77.030643
20
19.864866
11
77.453855
21
19.233610
0
LINE
8
boundary
62
5
39
2
10
77.453855
20
19.233610
11
78.123660
21
18.245274
0
LINE
8
boundary
62
5
39
2
10
78.123660
20
18.245274
11
79.068761
21
16.943191
0
LINE
8
boundary
62
5
39
2
10
79.068761
20
16.943191
11
80.095302
21
15.633039
0
LINE
8
boundary
62
5
39
2
10
80.095302
20
15.633039
11
81.007929
21
14.552025
0
LINE
8
boundary
62
5
39
2
10
81.007929
20
14.552025
11
81.493080
21
13.990869
0
LINE
8
boundary
62
5
39
2
10
81.493080
20
13.990869
11
81.936174
21
13.522547
0
LINE
8
boundary
62
5
39
2
10
81.936174
20
13.522547
11
82.638949
21
12.776233
0
LINE
8
boundary
62
5
39
2
10
82.638949
20
12.776233
11
83.787625
21
11.662480
0
LINE
8
boundary
62
5
39
2
10
83.787625
20
11.662480
11
84.733350
21
10.836026
0
LINE
8
boundary
62
5
39
2
10
84.733350
20
10.836026
11
85.628688
21
10.115393
0
LINE
8
boundary
62
5
39
2
10
85.628688
20
10.115393
11
86.054611
21
9.777001
0
LINE
8
boundary
62
5
39
2
10
86.054611
20
9.777001
11
86.531154
21
9.444350
0
LINE
8
boundary
62
5
39
2
10
86.531154
20
9.444350
11
87.166635
21
8.993356
0
LINE
8
boundary
62
5
39
2
10
87.166635
20
8.993356
11
88.256940
21
8.317364
0
LINE
8
boundary
62
5
39
2
10
88.256940
20
8.317364
11
88.792164
21
8.020523
0
LINE
8
boundary
62
5
39
2
10
88.792164
20
8.020523
11
89.290696
21
7.769048
0
LINE
8
boundary
62
5
39
2
10
89.290696
20
7.769048
11
89.777067
21
7.545535
0
LINE
8
boundary
62
5
39
2
10
89.777067
20
7.545535
11
90.259973
21
7.344884
0
LINE
8
boundary
62
5
39
2
10
90.259973
20
7.344884
11
90.738945
21
7.168051
0
LINE
8
boundary
62
5
39
2
10
90.738945
20
7.168051
11
91.273328
21
6.995984
0
LINE
8
boundary
62
5
39
2
10
91.273328
20
6.995984
11
91.814228
21
6.854942
0
LINE
8
boundary
62
5
39
2
10
91.814228
20
6.854942
11
92.605603
21
6.719956
0
LINE
8
boundary
62
5
39
2
10
92.605603
20
6.719956
11
93.182817
21
6.668754
0
LINE
8
boundary
62
5
39
2
10
93.182817
20
6.668754
11
93.940514
21
6.691057
0
LINE
8
boundary
62
5
39
2
10
93.940514
20
6.691057
11
94.794359
21
6.838085
0
LINE
8
boundary
62
5
39
2
10
94.794359
20
6.838085
11
95.575651
21
7.129303
0
LINE
8
boundary
62
5
39
2
10
95.575651
20
7.129303
11
96.255515
21
7.554300
0
LINE
8
boundary
62
5
39
2
10
96.255515
20
7.554300
11
96.872336
21
8.122730
0
LINE
8
boundary
62
5
39
2
10
96.872336
20
8.122730
11
97.281549
21
8.656292
0
LINE
8
boundary
62
5
39
2
10
97.281549
20
8.656292
11
91.875448
21
8.855261
0
LINE
8
boundary
62
5
39
2
10
91.875448
20
8.855261
11
91.875448
21
11.601260
0
LINE
8
boundary
62
5
39
2
10
91.875448
20
11.601260
11
98.447644
21
11.601261
0
LINE
8
boundary
62
5
39
2
10
98.447644
20
11.601261
11
98.553400
21
12.173282
0
LINE
8
boundary
62
5
39
2
10
98.553400
20
12.173282
11
98.660571
21
12.913854
0
LINE
8
boundary
62
5
39
2
10
98.660571
20
12.913854
11
98.735558
21
13.599970
0
LINE
8
boundary
62
5
39
2
10
98.735558
20
13.599970
11
98.797397
21
14.573742
0
LINE
8
boundary
62
5
39
2
10
98.797397
20
14.573742
11
98.818957
21
15.508795
0
LINE
8
boundary
62
5
39
2
10
98.818957
20
15.508795
11
98.817540
21
16.383204
0
LINE
8
boundary
62
5
39
2
10
98.817540
20
16.383204
11
98.772394
21
17.582327
0
LINE
8
boundary
62
5
39
2
10
98.772394
20
17.582327
11
98.675801
21
18.974578
0
LINE
8
boundary
62
5
39
2
10
98.675801
20
18.974578
11
98.628828
21
19.556235
0
LINE
8
boundary
62
5
39
2
10
98.628828
20
19.556235
11
98.438922
21
21.272089
0
LINE
8
boundary
62
5
39
2
10
98.438922
20
21.272089
11
98.275833
21
22.512262
0
LINE
8
boundary
62
5
39
2
10
98.275833
20
22.512262
11
98.151292
21
23.380768
0
LINE
8
boundary
62
5
39
2
10
98.151292
20
23.380768
11
97.797666
21
25.583047
0
LINE
8
boundary
62
5
39
2
10
97.797666
20
25.583047
11
97.391313
21
27.777421
0
LINE
8
boundary
62
5
39
2
10
97.391313
20
27.777421
11
84.665188
21
27.777422
0
LINE
8
boundary
62
5
39
2
10
84.665188
20
27.777422
11
84.665188
21
30.523422
0
LINE
8
boundary
62
5
39
2
10
84.665188
20
30.523422
11
96.795297
21
30.523422
0
LINE
8
boundary
62
5
39
2
10
96.795297
20
30.523422
11
96.504200
21
32.064537
0
LINE
8
boundary
62
5
39
2
10
96.504200
20
32.064537
11
96.171440
21
33.545490
0
LINE
8
boundary
62
5
39
2
10
96.171440
20
33.545490
11
95.720537
21
35.472367
0
LINE
8
boundary
62
5
39
2
10
95.720537
20
35.472367
11
95.477560
21
36.482143
0
LINE
8
boundary
62
5
39
2
10
95.477560
20
36.482143
11
94.853325
21
38.990755
0
LINE
8
boundary
62
5
39
2
10
94.853325
20
38.990755
11
94.708291
21
39.559933
0
LINE
8
boundary
62
5
39
2
10
94.708291
20
39.559933
11
93.905970
21
42.620965
0
LINE
8
boundary
62
5
39
2
10
93.905970
20
42.620965
11
93.528300
21
44.004830
0
LINE
8
boundary
62
5
39
2
10
93.528300
20
44.004830
11
92.951853
21
46.109490
0
LINE
8
boundary
62
5
39
2
10
92.951853
20
46.109490
11
92.785630
21
46.699582
0
LINE
8
boundary
62
5
39
2
10
92.785630
20
46.699582
11
78.640465
21
46.699582
0
LINE
8
boundary
62
5
39
2
10
78.640465
20
46.699582
11
78.640465
21
49.445582
0
LINE
8
boundary
62
5
39
2
10
78.640465
20
49.445582
11
91.955248
21
49.445583
0
LINE
8
boundary
62
5
39
2
10
91.955248
20
49.445583
11
91.783860
21
50.225441
0
LINE
8
boundary
62
5
39
2
10
91.783860
20
50.225441
11
90.935250
21
53.148796
0
LINE
8
boundary
62
5
39
2
10
90.935250
20
53.148796
11
90.624490
21
54.201839
0
LINE
8
boundary
62
5
39
2
10
90.624490
20
54.201839
11
89.844839
21
56.839960
0
LINE
8
boundary
62
5
39
2
10
89.844839
20
56.839960
11
89.408375
21
58.295198
0
LINE
8
boundary
62
5
39
2
10
89.408375
20
58.295198
11
88.706238
21
60.642926
0
LINE
8
boundary
62
5
39
2
10
88.706238
20
60.642926
11
88.141670
21
62.505652
0
LINE
8
boundary
62
5
39
2
10
88.141670
20
62.505652
11
87.524130
21
64.556919
0
LINE
8
boundary
62
5
39
2
10
87.524130
20
64.556919
11
87.244430
21
65.471744
0
LINE
8
boundary
62
5
39
2
10
87.244430
20
65.471744
11
73.289490
21
65.621743
0
LINE
8
boundary
62
5
39
2
10
73.289490
20
65.621743
11
73.289490
21
68.367744
0
LINE
8
boundary
62
5
39
2
10
73.289490
20
68.367744
11
86.309272
21
68.367744
0
LINE
8
boundary
62
5
39
2
10
86.309272
20
68.367744
11
85.887652
21
69.948300
0
LINE
8
boundary
62
5
39
2
10
85.887652
20
69.948300
11
85.479879
21
71.275627
0
LINE
8
boundary
62
5
39
2
10
85.479879
20
71.275627
11
84.190763
21
75.538555
0
LINE
8
boundary
62
5
39
2
10
84.190763
20
75.538555
11
83.731485
21
77.055469
0
LINE
8
boundary
62
5
39
2
10
83.731485
20
77.055469
11
82.691750
21
80.496378
0
LINE
8
boundary
62
5
39
2
10
82.691750
20
80.496378
11
82.438666
21
81.352362
0
LINE
8
boundary
62
5
39
2
10
82.438666
20
81.352362
11
81.479898
21
84.543904
0
LINE
8
boundary
62
5
39
2
10
81.479898
20
84.543904
11
68.327288
21
84.543905
0
LINE
8
boundary
62
5
39
2
10
68.327288
20
84.543905
11
68.327288
21
87.289904
0
LINE
8
boundary
62
5
39
2
10
68.327288
20
87.289904
11
80.615083
21
87.289904
0
LINE
8
boundary
62
5
39
2
10
80.615083
20
87.289904
11
79.815767
21
90.144171
0
LINE
8
boundary
62
5
39
2
10
79.815767
20
90.144171
11
78.925145
21
93.211710
0
LINE
8
boundary
62
5
39
2
10
78.925145
20
93.211710
11
78.371528
21
95.108515
0
LINE
8
boundary
62
5
39
2
10
78.371528
20
95.108515
11
77.863602
21
96.908197
0
LINE
8
boundary
62
5
39
2
10
77.863602
20
96.908197
11
76.920057
21
100.162717
0
LINE
8
boundary
62
5
39
2
10
76.920057
20
100.162717
11
76.037797
21
103.316066
0
LINE
8
boundary
62
5
39
2
10
76.037797
20
103.316066
11
63.622397
21
103.466065
0
LINE
8
boundary
62
5
39
2
10
63.622397
20
103.466065
11
63.622396
21
106.212065
0
LINE
8
boundary
62
5
39
2
10
63.622396
20
106.212065
11
75.182956
21
106.212065
0
LINE
8
boundary
62
5
39
2
10
75.182956
20
106.212065
11
75.005682
21
107.055598
0
LINE
8
boundary
62
5
39
2
10
75.005682
20
107.055598
11
74.050405
21
110.490005
0
LINE
8
boundary
62
5
39
2
10
74.050405
20
110.490005
11
73.173772
21
113.772459
0
LINE
8
boundary
62
5
39
2
10
73.173772
20
113.772459
11
72.645150
21
115.743795
0
LINE
8
boundary
62
5
39
2
10
72.645150
20
115.743795
11
72.076805
21
117.937644
0
LINE
8
boundary
62
5
39
2
10
72.076805
20
117.937644
11
71.855163
21
118.782487
0
LINE
8
boundary
62
5
39
2
10
71.855163
20
118.782487
11
71.267845
21
121.044256
0
LINE
8
boundary
62
5
39
2
10
71.267845
20
121.044256
11
70.964957
21
122.238227
0
LINE
8
boundary
62
5
39
2
10
70.964957
20
122.238227
11
59.088681
21
122.388226
0
LINE
8
boundary
62
5
39
2
10
59.088681
20
122.388226
11
59.088681
21
125.134226
0
LINE
8
boundary
62
5
39
2
10
59.088681
20
125.134226
11
70.184784
21
125.134226
0
LINE
8
boundary
62
5
39
2
10
70.184784
20
125.134226
11
69.918560
21
126.382005
0
LINE
8
boundary
62
5
39
2
10
69.918560
20
126.382005
11
69.392855
21
128.521739
0
LINE
8
boundary
62
5
39
2
10
69.392855
20
128.521739
11
69.260367
21
129.060288
0
LINE
8
boundary
62
5
39
2
10
69.260367
20
129.060288
11
69.092810
21
129.759359
0
LINE
8
boundary
62
5
39
2
10
69.092810
20
129.759359
11
68.609283
21
131.744045
0
LINE
8
boundary
62
5
39
2
10
68.609283
20
131.744045
11
68.255677
21
133.234757
0
LINE
8
boundary
62
5
39
2
10
68.255677
20
133.234757
11
67.971724
21
134.430728
0
LINE
8
boundary
62
5
39
2
10
67.971724
20
134.430728
11
67.587992
21
136.092703
0
LINE
8
boundary
62
5
39
2
10
67.587992
20
136.092703
11
67.346856
21
137.119416
0
LINE
8
boundary
62
5
39
2
10
67.346856
20
137.119416
11
67.182692
21
137.838725
0
LINE
8
boundary
62
5
39
2
10
67.182692
20
137.838725
11
66.732843
21
139.808936
0
LINE
8
boundary
62
5
39
2
10
66.732843
20
139.808936
11
66.400162
21
141.310387
0
LINE
8
boundary
62
5
39
2
10
66.400162
20
141.310387
11
54.648202
21
141.310387
0
LINE
8
boundary
62
5
39
2
10
54.648202
20
141.310387
11
54.648202
21
144.056387
0
LINE
8
boundary
62
5
39
2
10
54.648202
20
144.056387
11
65.754642
21
144.056387
0
LINE
8
boundary
62
5
39
2
10
65.754642
20
144.056387
11
65.486130
21
145.483053
0
LINE
8
boundary
62
5
39
2
10
65.486130
20
145.483053
11
65.057738
21
147.511585
0
LINE
8
boundary
62
5
39
2
10
65.057738
20
147.511585
11
64.856579
21
148.464614
0
LINE
8
boundary
62
5
39
2
10
64.856579
20
148.464614
11
64.581516
21
149.811254
0
LINE
8
boundary
62
5
39
2
10
64.581516
20
149.811254
11
64.242341
21
151.440589
0
LINE
8
boundary
62
5
39
2
10
64.242341
20
151.440589
11
64.017309
21
152.556020
0
LINE
8
boundary
62
5
39
2
10
64.017309
20
152.556020
11
63.643842
21
154.409513
0
LINE
8
boundary
62
5
39
2
10
63.643842
20
154.409513
11
63.089538
21
157.245725
0
LINE
8
boundary
62
5
39
2
10
63.089538
20
157.245725
11
62.511947
21
160.232548
0
LINE
8
boundary
62
5
39
2
10
62.511947
20
160.232548
11
50.250923
21
160.232548
0
LINE
8
boundary
62
5
39
2
10
50.250923
20
160.232548
11
50.250923
21
162.978548
0
LINE
8
boundary
62
5
39
2
10
50.250923
20
162.978548
11
61.957831
21
162.978548
0
LINE
8
boundary
62
5
39
2
10
61.957831
20
162.978548
11
61.609651
21
165.091443
0
LINE
8
boundary
62
5
39
2
10
61.609651
20
165.091443
11
61.405468
21
166.190133
0
LINE
8
boundary
62
5
39
2
10
61.405468
20
166.190133
11
61.292401
21
166.814279
0
LINE
8
boundary
62
5
39
2
10
61.292401
20
166.814279
11
60.878907
21
169.104333
0
LINE
8
boundary
62
5
39
2
10
60.878907
20
169.104333
11
60.489516
21
171.314478
0
LINE
8
boundary
62
5
39
2
10
60.489516
20
171.314478
11
60.368195
21
172.005647
0
LINE
8
boundary
62
5
39
2
10
60.368195
20
172.005647
11
60.143844
21
173.314197
0
LINE
8
boundary
62
5
39
2
10
60.143844
20
173.314197
11
59.868229
21
174.890841
0
LINE
8
boundary
62
5
39
2
10
59.868229
20
174.890841
11
59.729049
21
175.704599
0
LINE
8
boundary
62
5
39
2
10
59.729049
20
175.704599
11
59.379249
21
177.759122
0
LINE
8
boundary
62
5
39
2
10
59.379249
20
177.759122
11
59.171532
21
179.004712
0
LINE
8
boundary
62
5
39
2
10
59.171532
20
179.004712
11
46.036162
21
179.154709
0
LINE
8
boundary
62
5
39
2
10
46.036162
20
179.154709
11
46.036162
21
181.900709
0
LINE
8
boundary
62
5
39
2
10
46.036162
20
181.900709
11
58.659089
21
181.900709
0
LINE
8
boundary
62
5
39
2
10
58.659089
20
181.900709
11
58.438047
21
183.445185
0
LINE
8
boundary
62
5
39
2
10
58.438047
20
183.445185
11
57.996669
21
186.187877
0
LINE
8
boundary
62
5
39
2
10
57.996669
20
186.187877
11
57.536873
21
189.054181
0
LINE
8
boundary
62
5
39
2
10
57.536873
20
189.054181
11
57.272409
21
190.770433
0
LINE
8
boundary
62
5
39
2
10
57.272409
20
190.770433
11
56.669563
21
194.576897
0
LINE
8
boundary
62
5
39
2
10
56.669563
20
194.576897
11
56.335717
21
196.745705
0
LINE
8
boundary
62
5
39
2
10
56.335717
20
196.745705
11
56.155904
21
197.926870
0
LINE
8
boundary
62
5
39
2
10
56.155904
20
197.926870
11
42.103275
21
198.076869
0
LINE
8
boundary
62
5
39
2
10
42.103275
20
198.076869
11
42.103275
21
200.822870
0
LINE
8
boundary
62
5
39
2
10
42.103275
20
200.822870
11
55.685308
21
200.822870
0
LINE
8
boundary
62
5
39
2
10
55.685308
20
200.822870
11
55.089502
21
205.049279
0
LINE
8
boundary
62
5
39
2
10
55.089502
20
205.049279
11
54.958072
21
205.954798
0
LINE
8
boundary
62
5
39
2
10
54.958072
20
205.954798
11
54.267073
21
210.595728
0
LINE
8
boundary
62
5
39
2
10
54.267073
20
210.595728
11
53.920051
21
212.958191
0
LINE
8
boundary
62
5
39
2
10
53.920051
20
212.958191
11
53.517962
21
215.730376
0
LINE
8
boundary
62
5
39
2
10
53.517962
20
215.730376
11
53.357093
21
216.849032
0
LINE
8
boundary
62
5
39
2
10
53.357093
20
216.849032
11
38.509675
21
216.999031
0
LINE
8
boundary
62
5
39
2
10
38.509675
20
216.999031
11
38.509675
21
219.745030
0
LINE
8
boundary
62
5
39
2
10
38.509675
20
219.745030
11
52.908762
21
219.745030
0
LINE
8
boundary
62
5
39
2
10
52.908762
20
219.745030
11
52.827196
21
220.533852
0
LINE
8
boundary
62
5
39
2
10
52.827196
20
220.533852
11
52.727815
21
221.235460
0
LINE
8
boundary
62
5
39
2
10
52.727815
20
221.235460
11
52.082352
21
225.666790
0
LINE
8
boundary
62
5
39
2
10
52.082352
20
225.666790
11
51.776379
21
227.769364
0
LINE
8
boundary
62
5
39
2
10
51.776379
20
227.769364
11
51.389447
21
230.457773
0
LINE
8
boundary
62
5
39
2
10
51.389447
20
230.457773
11
50.601224
21
235.921192
0
LINE
8
boundary
62
5
39
2
10
50.601224
20
235.921192
11
35.166996
21
235.921192
0
LINE
8
boundary
62
5
39
2
10
35.166996
20
235.921192
11
35.166996
21
238.667191
0
LINE
8
boundary
62
5
39
2
10
35.166996
20
238.667191
11
50.164007
21
238.667191
0
LINE
8
boundary
62
5
39
2
10
50.164007
20
238.667191
11
49.784565
21
241.457690
0
LINE
8
boundary
62
5
39
2
10
49.784565
20
241.457690
11
49.313541
21
244.625666
0
LINE
8
boundary
62
5
39
2
10
49.313541
20
244.625666
11
49.008160
21
246.686070
0
LINE
8
boundary
62
5
39
2
10
49.008160
20
246.686070
11
48.488444
21
250.151244
0
LINE
8
boundary
62
5
39
2
10
48.488444
20
250.151244
11
48.246650
21
251.735186
0
LINE
8
boundary
62
5
39
2
10
48.246650
20
251.735186
11
48.103830
21
252.661286
0
LINE
8
boundary
62
5
39
2
10
48.103830
20
252.661286
11
47.789211
21
254.693354
0
LINE
8
boundary
62
5
39
2
10
47.789211
20
254.693354
11
31.926874
21
254.843353
0
LINE
8
boundary
62
5
39
2
10
31.926874
20
254.843353
11
31.926874
21
257.589352
0
LINE
8
boundary
62
5
39
2
10
31.926874
20
257.589352
11
47.304438
21
257.589352
0
LINE
8
boundary
62
5
39
2
10
47.304438
20
257.589352
11
46.928771
21
260.192180
0
LINE
8
boundary
62
5
39
2
10
46.928771
20
260.192180
11
46.750373
21
261.317774
0
LINE
8
boundary
62
5
39
2
10
46.750373
20
261.317774
11
46.422870
21
263.336730
0
LINE
8
boundary
62
5
39
2
10
46.422870
20
263.336730
11
46.008382
21
265.870041
0
LINE
8
boundary
62
5
39
2
10
46.008382
20
265.870041
11
45.772749
21
267.272541
0
LINE
8
boundary
62
5
39
2
10
45.772749
20
267.272541
11
45.262750
21
270.269932
0
LINE
8
boundary
62
5
39
2
10
45.262750
20
270.269932
11
44.898692
21
272.356198
0
LINE
8
boundary
62
5
39
2
10
44.898692
20
272.356198
11
44.762176
21
273.125277
0
LINE
8
boundary
62
5
39
2
10
44.762176
20
273.125277
11
44.646201
21
273.765514
0
LINE
8
boundary
62
5
39
2
10
44.646201
20
273.765514
11
28.635961
21
273.765513
0
LINE
8
boundary
62
5
39
2
10
28.635961
20
273.765513
11
28.635960
21
276.511513
0
LINE
8
boundary
62
5
39
2
10
28.635960
20
276.511513
11
44.104848
21
276.511513
0
LINE
8
boundary
62
5
39
2
10
44.104848
20
276.511513
11
43.738763
21
278.643622
0
LINE
8
boundary
62
5
39
2
10
43.738763
20
278.643622
11
43.563455
21
279.542478
0
LINE
8
boundary
62
5
39
2
10
43.563455
20
279.542478
11
43.211832
21
281.309366
0
LINE
8
boundary
62
5
39
2
10
43.211832
20
281.309366
11
42.975371
21
282.469907
0
LINE
8
boundary
62
5
39
2
10
42.975371
20
282.469907
11
42.808676
21
283.270114
0
LINE
8
boundary
62
5
39
2
10
42.808676
20
283.270114
11
42.482243
21
284.807456
0
LINE
8
boundary
62
5
39
2
10
42.482243
20
284.807456
11
41.977105
21
287.092498
0
LINE
8
boundary
62
5
39
2
10
41.977105
20
287.092498
11
41.544078
21
288.949920
0
LINE
8
boundary
62
5
39
2
10
41.544078
20
288.949920
11
41.099586
21
290.774131
0
LINE
8
boundary
62
5
39
2
10
41.099586
20
290.774131
11
40.913203
21
291.513563
0
LINE
8
boundary
62
5
39
2
10
40.913203
20
291.513563
11
40.649411
21
292.537676
0
LINE
8
boundary
62
5
39
2
10
40.649411
20
292.537676
11
24.972632
21
292.687675
0
LINE
8
boundary
62
5
39
2
10
24.972632
20
292.687675
11
24.972631
21
295.433674
0
LINE
8
boundary
62
5
39
2
10
24.972631
20
295.433674
11
39.806140
21
295.433674
0
LINE
8
boundary
62
5
39
2
10
39.806140
20
295.433674
11
39.684110
21
296.047508
0
LINE
8
boundary
62
5
39
2
10
39.684110
20
296.047508
11
39.200644
21
297.670048
0
LINE
8
boundary
62
5
39
2
10
39.200644
20
297.670048
11
38.657005
21
299.390283
0
LINE
8
boundary
62
5
39
2
10
38.657005
20
299.390283
11
38.114030
21
301.007987
0
LINE
8
boundary
62
5
39
2
10
38.114030
20
301.007987
11
37.887823
21
301.649191
0
LINE
8
boundary
62
5
39
2
10
37.887823
20
301.649191
11
37.550089
21
302.590171
0
LINE
8
boundary
62
5
39
2
10
37.550089
20
302.590171
11
37.201601
21
303.515003
0
LINE
8
boundary
62
5
39
2
10
37.201601
20
303.515003
11
36.963689
21
304.136208
0
LINE
8
boundary
62
5
39
2
10
36.963689
20
304.136208
11
36.484760
21
305.324210
0
LINE
8
boundary
62
5
39
2
10
36.484760
20
305.324210
11
35.735343
21
307.075876
0
LINE
8
boundary
62
5
39
2
10
35.735343
20
307.075876
11
35.213666
21
308.194116
0
LINE
8
boundary
62
5
39
2
10
35.213666
20
308.194116
11
34.661013
21
309.330718
0
LINE
8
boundary
62
5
39
2
10
34.661013
20
309.330718
11
34.123562
21
310.391386
0
LINE
8
boundary
62
5
39
2
10
34.123562
20
310.391386
11
33.537987
21
311.459836
0
LINE
8
boundary
62
5
39
2
10
33.537987
20
311.459836
11
19.840625
21
311.609835
0
LINE
8
boundary
62
5
39
2
10
19.840625
20
311.609835
11
19.840626
21
314.355835
0
LINE
8
boundary
62
5
39
2
10
19.840626
20
314.355835
11
31.701263
21
314.355835
0
LINE
8
boundary
62
5
39
2
10
31.701263
20
314.355835
11
31.075086
21
315.479673
0
LINE
8
boundary
62
5
39
2
10
31.075086
20
315.479673
11
29.985000
21
317.014998
0
LINE
8
boundary
62
5
39
2
10
29.985000
20
317.014998
11
28.866512
21
318.466782
0
LINE
8
boundary
62
5
39
2
10
28.866512
20
318.466782
11
28.417017
21
319.006951
0
LINE
8
boundary
62
5
39
2
10
28.417017
20
319.006951
11
27.724385
21
319.832711
0
LINE
8
boundary
62
5
39
2
10
27.724385
20
319.832711
11
27.118292
21
320.502150
0
LINE
8
boundary
62
5
39
2
10
27.118292
20
320.502150
11
26.563556
21
321.110380
0
LINE
8
boundary
62
5
39
2
10
26.563556
20
321.110380
11
25.812985
21
321.870952
0
LINE
8
boundary
62
5
39
2
10
25.812985
20
321.870952
11
25.389032
21
322.297598
0
LINE
8
boundary
62
5
39
2
10
25.389032
20
322.297598
11
24.509150
21
323.113104
0
LINE
8
boundary
62
5
39
2
10
24.509150
20
323.113104
11
23.214575
21
324.228694
0
LINE
8
boundary
62
5
39
2
10
23.214575
20
324.228694
11
21.936631
21
325.218442
0
LINE
8
boundary
62
5
39
2
10
21.936631
20
325.218442
11
20.682201
21
326.083603
0
LINE
8
boundary
62
5
39
2
10
20.682201
20
326.083603
11
20.223230
21
326.362785
0
LINE
8
boundary
62
5
39
2
10
20.223230
20
326.362785
11
19.495851
21
326.802175
0
LINE
8
boundary
62
5
39
2
10
19.495851
20
326.802175
11
18.351716
21
327.402218
0
LINE
8
boundary
62
5
39
2
10
18.351716
20
327.402218
11
17.232270
21
327.897995
0
LINE
8
boundary
62
5
39
2
10
17.232270
20
327.897995
11
16.143275
21
328.287606
0
LINE
8
boundary
62
5
39
2
10
16.143275
20
328.287606
11
15.090450
21
328.569279
0
LINE
8
boundary
62
5
39
2
10
15.090450
20
328.569279
11
14.079581
21
328.741164
0
LINE
8
boundary
62
5
39
2
10
14.079581
20
328.741164
11
13.116458
21
328.801266
0
LINE
8
boundary
62
5
39
2
10
13.116458
20
328.801266
11
12.206833
21
328.747665
0
LINE
8
boundary
62
5
39
2
10
12.206833
20
328.747665
11
11.702768
21
328.647473
0
LINE
8
boundary
62
5
39
2
10
11.702768
20
328.647473
11
10.637731
21
328.313658
0
LINE
8
boundary
62
5
39
2
10
10.637731
20
328.313658
11
9.971565
21
327.945118
0
LINE
8
boundary
62
5
39
2
10
9.971565
20
327.945118
11
9.376619
21
327.478070
0
LINE
8
boundary
62
5
39
2
10
9.376619
20
327.478070
11
8.850175
21
326.915952
0
LINE
8
boundary
62
5
39
2
10
8.850175
20
326.915952
11
8.388606
21
326.262266
0
LINE
8
boundary
62
5
39
2
10
8.388606
20
326.262266
11
7.988257
21
325.520341
0
LINE
8
boundary
62
5
39
2
10
7.988257
20
325.520341
11
7.755409
21
325.004212
0
LINE
8
boundary
62
5
39
2
10
7.755409
20
325.004212
11
7.408453
21
323.981934
0
LINE
8
boundary
62
5
39
2
10
7.408453
20
323.981934
11
7.129316
21
322.839751
0
LINE
8
boundary
62
5
39
2
10
7.129316
20
322.839751
11
6.941982
21
321.718278
0
LINE
8
boundary
62
5
39
2
10
6.941982
20
321.718278
11
6.812110
21
320.564510
0
LINE
8
boundary
62
5
39
2
10
6.812110
20
320.564510
11
6.725937
21
319.338657
0
LINE
8
boundary
62
5
39
2
10
6.725937
20
319.338657
11
6.691405
21
318.680424
0
LINE
8
boundary
62
5
39
2
10
6.691405
20
318.680424
11
6.680850
21
318.042896
0
LINE
8
boundary
62
5
39
2
10
6.680850
20
318.042896
11
6.667500
21
317.061756
0
LINE
8
boundary
62
5
39
2
10
6.667500
20
317.061756
11
6.700165
21
315.330989
0
LINE
8
boundary
62
5
39
2
10
6.700165
20
315.330989
11
6.777629
21
313.747171
0
LINE
8
boundary
62
5
39
2
10
6.777629
20
313.747171
11
6.886511
21
312.180132
0
LINE
8
boundary
62
5
39
2
10
6.886511
20
312.180132
11
6.934222
21
311.522371
0
LINE
8
boundary
62
5
39
2
10
6.934222
20
311.522371
11
7.025141
21
310.554588
0
LINE
8
boundary
62
5
39
2
10
7.025141
20
310.554588
11
7.125847
21
309.460042
0
LINE
8
boundary
62
5
39
2
10
7.125847
20
309.460042
11
7.191383
21
308.872479
0
LINE
8
boundary
62
5
39
2
10
7.191383
20
308.872479
11
7.362565
21
307.298659
0
LINE
8
boundary
62
5
39
2
10
7.362565
20
307.298659
11
7.461996
21
306.496346
0
LINE
8
boundary
62
5
39
2
10
7.461996
20
306.496346
11
7.607284
21
305.338035
0
LINE
8
boundary
62
5
39
2
10
7.607284
20
305.338035
11
7.857947
21
303.486152
0
LINE
8
boundary
62
5
39
2
10
7.857947
20
303.486152
11
7.966492
21
302.675948
0
LINE
8
boundary
62
5
39
2
10
7.966492
20
302.675948
11
8.128509
21
301.586820
0
LINE
8
boundary
62
5
39
2
10
8.128509
20
301.586820
11
8.323680
21
300.233528
0
LINE
8
boundary
62
5
39
2
10
8.323680
20
300.233528
11
8.612458
21
298.350068
0
LINE
8
boundary
62
5
39
2
10
8.612458
20
298.350068
11
8.758817
21
297.428938
0
LINE
8
boundary
62
5
39
2
10
8.758817
20
297.428938
11
8.892172
21
296.593145
0
LINE
8
boundary
62
5
39
2
10
8.892172
20
296.593145
11
9.159210
21
294.962254
0
LINE
8
boundary
62
5
39
2
10
9.159210
20
294.962254
11
9.241038
21
294.449518
0
LINE
8
boundary
62
5
39
2
10
9.241038
20
294.449518
11
9.434704
21
293.306703
0
LINE
8
boundary
62
5
39
2
10
9.434704
20
293.306703
11
9.576377
21
292.442748
0
LINE
8
boundary
62
5
39
2
10
9.576377
20
292.442748
11
9.717878
21
291.627462
0
LINE
8
boundary
62
5
39
2
10
9.717878
20
291.627462
11
9.923321
21
290.403520
0
LINE
8
boundary
62
5
39
2
10
9.923321
20
290.403520
11
10.280366
21
288.334832
0
LINE
8
boundary
62
5
39
2
10
10.280366
20
288.334832
11
10.420584
21
287.534413
0
LINE
8
boundary
62
5
39
2
10
10.420584
20
287.534413
11
10.582722
21
286.609302
0
LINE
8
boundary
62
5
39
2
10
10.582722
20
286.609302
11
10.768927
21
285.537412
0
LINE
8
boundary
62
5
39
2
10
10.768927
20
285.537412
11
11.021020
21
284.111296
0
LINE
8
boundary
62
5
39
2
10
11.021020
20
284.111296
11
11.174302
21
283.255896
0
LINE
8
boundary
62
5
39
2
10
11.174302
20
283.255896
11
11.400359
21
281.966755
0
LINE
8
boundary
62
5
39
2
10
11.400359
20
281.966755
11
11.512104
21
281.321633
0
LINE
8
boundary
62
5
39
2
10
11.512104
20
281.321633
11
11.785266
21
279.803943
0
LINE
8
boundary
62
5
39
2
10
11.785266
20
279.803943
11
11.956410
21
278.826091
0
LINE
8
boundary
62
5
39
2
10
11.956410
20
278.826091
11
12.174694
21
277.625995
0
LINE
8
boundary
62
5
39
2
10
12.174694
20
277.625995
11
12.405318
21
276.321467
0
LINE
8
boundary
62
5
39
2
10
12.405318
20
276.321467
11
12.568173
21
275.434965
0
LINE
8
boundary
62
5
39
2
10
12.568173
20
275.434965
11
12.858109
21
273.810858
0
LINE
8
boundary
62
5
39
2
10
12.858109
20
273.810858
11
12.965344
21
273.232626
0
LINE
8
boundary
62
5
39
2
10
12.965344
20
273.232626
11
13.314224
21
271.296893
0
LINE
8
boundary
62
5
39
2
10
13.314224
20
271.296893
11
13.744383
21
268.940262
0
LINE
8
boundary
62
5
39
2
10
13.744383
20
268.940262
11
14.175910
21
266.570816
0
LINE
8
boundary
62
5
39
2
10
14.175910
20
266.570816
11
14.297498
21
265.899245
0
LINE
8
boundary
62
5
39
2
10
14.297498
20
265.899245
11
14.585197
21
264.335669
0
LINE
8
boundary
62
5
39
2
10
14.585197
20
264.335669
11
14.818836
21
263.057681
0
LINE
8
boundary
62
5
39
2
10
14.818836
20
263.057681
11
14.997496
21
262.095676
0
LINE
8
boundary
62
5
39
2
10
14.997496
20
262.095676
11
15.340981
21
260.235023
0
LINE
8
boundary
62
5
39
2
10
15.340981
20
260.235023
11
15.700087
21
258.310603
0
LINE
8
boundary
62
5
39
2
10
15.700087
20
258.310603
11
15.831052
21
257.604034
0
LINE
8
boundary
62
5
39
2
10
15.831052
20
257.604034
11
16.252037
21
255.353195
0
LINE
8
boundary
62
5
39
2
10
16.252037
20
255.353195
11
16.378569
21
254.674927
0
LINE
8
boundary
62
5
39
2
10
16.378569
20
254.674927
11
16.676372
21
253.100181
0
LINE
8
boundary
62
5
39
2
10
16.676372
20
253.100181
11
16.897220
21
251.928984
0
LINE
8
boundary
62
5
39
2
10
16.897220
20
251.928984
11
17.104184
21
250.845509
0
LINE
8
boundary
62
5
39
2
10
17.104184
20
250.845509
11
17.417897
21
249.199612
0
LINE
8
boundary
62
5
39
2
10
17.417897
20
249.199612
11
17.535565
21
248.589742
0
LINE
8
boundary
62
5
39
2
10
17.535565
20
248.589742
11
18.125129
21
245.562681
0
LINE
8
boundary
62
5
39
2
10
18.125129
20
245.562681
11
18.703550
21
242.570882
0
LINE
8
boundary
62
5
39
2
10
18.703550
20
242.570882
11
19.009017
21
241.025266
0
LINE
8
boundary
62
5
39
2
10
19.009017
20
241.025266
11
19.899849
21
236.553438
0
LINE
8
boundary
62
5
39
2
10
19.899849
20
236.553438
11
20.512345
21
233.538617
0
LINE
8
boundary
62
5
39
2
10
20.512345
20
233.538617
11
20.817403
21
232.047314
0
LINE
8
boundary
62
5
39
2
10
20.817403
20
232.047314
11
21.740436
21
227.612329
0
LINE
8
boundary
62
5
39
2
10
21.740436
20
227.612329
11
22.707770
21
223.064464
0
LINE
8
boundary
62
5
39
2
10
22.707770
20
223.064464
11
22.829623
21
222.501180
0
LINE
8
boundary
62
5
39
2
10
22.829623
20
222.501180
11
23.192566
21
220.826891
0
LINE
8
boundary
62
5
39
2
10
23.192566
20
220.826891
11
23.380886
21
219.968005
0
LINE
8
boundary
62
5
39
2
10
23.380886
20
219.968005
11
23.682488
21
218.593967
0
LINE
8
boundary
62
5
39
2
10
23.682488
20
218.593967
11
23.939587
21
217.437117
0
LINE
8
boundary
62
5
39
2
10
23.939587
20
217.437117
11
24.177641
21
216.366175
0
LINE
8
boundary
62
5
39
2
10
24.177641
20
216.366175
11
24.506188
21
214.907788
0
LINE
8
boundary
62
5
39
2
10
24.506188
20
214.907788
11
24.678147
21
214.143943
0
LINE
8
boundary
62
5
39
2
10
24.678147
20
214.143943
11
25.081193
21
212.379220
0
LINE
8
boundary
62
5
39
2
10
25.081193
20
212.379220
11
25.664998
21
209.850585
0
LINE
8
boundary
62
5
39
2
10
25.664998
20
209.850585
11
25.906352
21
208.819360
0
LINE
8
boundary
62
5
39
2
10
25.906352
20
208.819360
11
26.212870
21
207.510696
0
LINE
8
boundary
62
5
39
2
10
26.212870
20
207.510696
11
26.735582
21
205.307055
0
LINE
8
boundary
62
5
39
2
10
26.735582
20
205.307055
11
26.862621
21
204.779772
0
LINE
8
boundary
62
5
39
2
10
26.862621
20
204.779772
11
27.263739
21
203.107928
0
LINE
8
boundary
62
5
39
2
10
27.263739
20
203.107928
11
27.476132
21
202.236483
0
LINE
8
boundary
62
5
39
2
10
27.476132
20
202.236483
11
27.797240
21
200.912855
0
LINE
8
boundary
62
5
39
2
10
27.797240
20
200.912855
11
28.364942
21
198.616062
0
LINE
8
boundary
62
5
39
2
10
28.364942
20
198.616062
11
28.698022
21
197.262338
0
LINE
8
boundary
62
5
39
2
10
28.698022
20
197.262338
11
29.569807
21
193.792257
0
LINE
8
boundary
62
5
39
2
10
29.569807
20
193.792257
11
29.740925
21
193.117636
0
LINE
8
boundary
62
5
39
2
10
29.740925
20
193.117636
11
30.540598
21
189.977002
0
LINE
8
boundary
62
5
39
2
10
30.540598
20
189.977002
11
30.830935
21
188.856567
0
LINE
8
boundary
62
5
39
2
10
30.830935
20
188.856567
11
31.480554
21
186.337515
0
LINE
8
boundary
62
5
39
2
10
31.480554
20
186.337515
11
32.138992
21
183.824390
0
LINE
8
boundary
62
5
39
2
10
32.138992
20
183.824390
11
32.431903
21
182.700994
0
LINE
8
boundary
62
5
39
2
10
32.431903
20
182.700994
11
33.156944
21
179.958986
0
LINE
8
boundary
62
5
39
2
10
33.156944
20
179.958986
11
33.392898
21
179.064380
0
LINE
8
boundary
62
5
39
2
10
33.392898
20
179.064380
11
34.360491
21
175.423388
0
LINE
8
boundary
62
5
39
2
10
34.360491
20
175.423388
11
34.916828
21
173.348001
0
LINE
8
boundary
62
5
39
2
10
34.916828
20
173.348001
11
35.335115
21
171.781587
0
LINE
8
boundary
62
5
39
2
10
35.335115
20
171.781587
11
36.185868
21
168.617836
0
LINE
8
boundary
62
5
39
2
10
36.185868
20
168.617836
11
36.383250
21
167.881210
0
LINE
8
boundary
62
5
39
2
10
36.383250
20
167.881210
11
37.292230
21
164.487196
0
LINE
8
boundary
62
5
39
2
10
37.292230
20
164.487196
11
37.910549
21
162.181136
0
LINE
8
boundary
62
5
39
2
10
37.910549
20
162.181136
11
38.270888
21
160.833872
0
LINE
8
boundary
62
5
39
2
10
38.270888
20
160.833872
11
38.731705
21
159.111372
0
LINE
8
boundary
62
5
39
2
10
38.731705
20
159.111372
11
38.880959
21
158.552054
0
LINE
8
boundary
62
5
39
2
10
38.880959
20
158.552054
11
39.245067
21
157.176077
0
LINE
8
boundary
62
5
39
2
10
39.245067
20
157.176077
11
39.728130
21
155.345188
0
LINE
8
boundary
62
5
39
2
10
39.728130
20
155.345188
11
39.933855
21
154.563558
0
LINE
8
boundary
62
5
39
2
10
39.933855
20
154.563558
11
40.209795
21
153.513257
0
LINE
8
boundary
62
5
39
2
10
40.209795
20
153.513257
11
40.534432
21
152.274036
0
LINE
8
boundary
62
5
39
2
10
40.534432
20
152.274036
11
40.689745
21
151.680229
0
LINE
8
boundary
62
5
39
2
10
40.689745
20
151.680229
11
41.133799
21
149.976101
0
LINE
8
boundary
62
5
39
2
10
41.133799
20
149.976101
11
41.299339
21
149.337621
0
LINE
8
boundary
62
5
39
2
10
41.299339
20
149.337621
11
41.639168
21
148.010718
0
LINE
8
boundary
62
5
39
2
10
41.639168
20
148.010718
11
42.106338
21
146.174202
0
LINE
8
boundary
62
5
39
2
10
42.106338
20
146.174202
11
42.318209
21
145.335225
0
LINE
8
boundary
62
5
39
2
10
42.318209
20
145.335225
11
42.570323
21
144.336530
0
LINE
8
boundary
62
5
39
2
10
42.570323
20
144.336530
11
42.903944
21
143.004193
0
LINE
8
boundary
62
5
39
2
10
42.903944
20
143.004193
11
43.030749
21
142.497716
0
LINE
8
boundary
62
5
39
2
10
43.030749
20
142.497716
11
43.484618
21
140.668709
0
LINE
8
boundary
62
5
39
2
10
43.484618
20
140.668709
11
43.487330
21
140.657787
0
LINE
8
annotation
62
1
39
211
10
88.774492
20
8.922678
11
88.774492
21
11.533844
0
LINE
8
annotation
62
1
39
211
10
88.774492
20
11.533844
11
88.193997
21
10.953184
0
LINE
8
annotation
62
1
39
211
10
79.603483
20
26.750383
11
77.471689
21
26.750383
0
LINE
8
annotation
62
1
39
211
10
77.471689
20
26.750383
11
79.441537
21
29.921585
0
LINE
8
annotation
62
1
39
211
10
79.441537
20
29.921585
11
79.441537
21
29.921585
0
LINE
8
annotation
62
1
39
211
10
79.441537
20
29.921585
11
79.443892
21
29.924499
0
LINE
8
annotation
62
1
39
211
10
79.443892
20
29.924499
11
79.446150
21
29.927438
0
LINE
8
annotation
62
1
39
211
10
79.446150
20
29.927438
11
79.448326
21
29.930426
0
LINE
8
annotation
62
1
39
211
10
79.448326
20
29.930426
11
79.450436
21
29.933489
0
LINE
8
annotation
62
1
39
211
10
79.450436
20
29.933489
11
79.452494
21
29.936651
0
LINE
8
annotation
62
1
39
211
10
79.452494
20
29.936651
11
79.454514
21
29.939936
0
LINE
8
annotation
62
1
39
211
10
79.454514
20
29.939936
11
79.456512
21
29.943370
0
LINE
8
annotation
62
1
39
211
10
79.456512
20
29.943370
11
79.458503
21
29.946978
0
LINE
8
annotation
62
1
39
211
10
79.458503
20
29.946978
11
79.460501
21
29.950784
0
LINE
8
annotation
62
1
39
211
10
79.460501
20
29.950784
11
79.460501
21
29.950784
0
LINE
8
annotation
62
1
39
211
10
79.460501
20
29.950784
11
79.541836
21
30.125416
0
LINE
8
annotation
62
1
39
211
10
79.541836
20
30.125416
11
79.589350
21
30.306438
0
LINE
8
annotation
62
1
39
211
10
79.589350
20
30.306438
11
79.604208
21
30.489759
0
LINE
8
annotation
62
1
39
211
10
79.604208
20
30.489759
11
79.587575
21
30.671288
0
LINE
8
annotation
62
1
39
211
10
79.587575
20
30.671288
11
79.540615
21
30.846936
0
LINE
8
annotation
62
1
39
211
10
79.540615
20
30.846936
11
79.464492
21
31.012612
0
LINE
8
annotation
62
1
39
211
10
79.464492
20
31.012612
11
79.360371
21
31.164226
0
LINE
8
annotation
62
1
39
211
10
79.360371
20
31.164226
11
79.229416
21
31.297687
0
LINE
8
annotation
62
1
39
211
10
79.229416
20
31.297687
11
79.072792
21
31.408905
0
LINE
8
annotation
62
1
39
211
10
79.072792
20
31.408905
11
79.072792
21
31.408905
0
LINE
8
annotation
62
1
39
211
10
79.072792
20
31.408905
11
78.897675
21
31.489084
0
LINE
8
annotation
62
1
39
211
10
78.897675
20
31.489084
11
78.716375
21
31.535866
0
LINE
8
annotation
62
1
39
211
10
78.716375
20
31.535866
11
78.532948
21
31.550305
0
LINE
8
annotation
62
1
39
211
10
78.532948
20
31.550305
11
78.351446
21
31.533452
0
LINE
8
annotation
62
1
39
211
10
78.351446
20
31.533452
11
78.175922
21
31.486362
0
LINE
8
annotation
62
1
39
211
10
78.175922
20
31.486362
11
78.010429
21
31.410087
0
LINE
8
annotation
62
1
39
211
10
78.010429
20
31.410087
11
77.859021
21
31.305680
0
LINE
8
annotation
62
1
39
211
10
77.859021
20
31.305680
11
77.725751
21
31.174194
0
LINE
8
annotation
62
1
39
211
10
77.725751
20
31.174194
11
77.614671
21
31.016681
0
LINE
8
annotation
62
1
39
211
10
77.614671
20
31.016681
11
77.474699
21
30.748175
0
LINE
8
annotation
62
1
39
211
10
71.446966
20
45.672733
11
72.512863
21
45.672733
0
LINE
8
annotation
62
1
39
211
10
72.512863
20
45.672733
11
72.512863
21
45.672733
0
LINE
8
annotation
62
1
39
211
10
72.512863
20
45.672733
11
72.704567
21
45.689930
0
LINE
8
annotation
62
1
39
211
10
72.704567
20
45.689930
11
72.884954
21
45.739493
0
LINE
8
annotation
62
1
39
211
10
72.884954
20
45.739493
11
73.051024
21
45.818380
0
LINE
8
annotation
62
1
39
211
10
73.051024
20
45.818380
11
73.199776
21
45.923548
0
LINE
8
annotation
62
1
39
211
10
73.199776
20
45.923548
11
73.328209
21
46.051955
0
LINE
8
annotation
62
1
39
211
10
73.328209
20
46.051955
11
73.433325
21
46.200559
0
LINE
8
annotation
62
1
39
211
10
73.433325
20
46.200559
11
73.512122
21
46.366317
0
LINE
8
annotation
62
1
39
211
10
73.512122
20
46.366317
11
73.561601
21
46.546186
0
LINE
8
annotation
62
1
39
211
10
73.561601
20
46.546186
11
73.578760
21
46.737125
0
LINE
8
annotation
62
1
39
211
10
73.578760
20
46.737125
11
73.578760
21
47.270827
0
LINE
8
annotation
62
1
39
211
10
73.578760
20
47.270827
11
73.578760
21
47.270827
0
LINE
8
annotation
62
1
39
211
10
73.578760
20
47.270827
11
73.561601
21
47.461686
0
LINE
8
annotation
62
1
39
211
10
73.561601
20
47.461686
11
73.512122
21
47.641514
0
LINE
8
annotation
62
1
39
211
10
73.512122
20
47.641514
11
73.433325
21
47.807259
0
LINE
8
annotation
62
1
39
211
10
73.433325
20
47.807259
11
73.328209
21
47.955873
0
LINE
8
annotation
62
1
39
211
10
73.328209
20
47.955873
11
73.199776
21
48.084305
0
LINE
8
annotation
62
1
39
211
10
73.199776
20
48.084305
11
73.051024
21
48.189505
0
LINE
8
annotation
62
1
39
211
10
73.051024
20
48.189505
11
72.884954
21
48.268424
0
LINE
8
annotation
62
1
39
211
10
72.884954
20
48.268424
11
72.704567
21
48.318012
0
LINE
8
annotation
62
1
39
211
10
72.704567
20
48.318012
11
72.512863
21
48.335219
0
LINE
8
annotation
62
1
39
211
10
72.512863
20
48.335219
11
71.979162
21
48.335219
0
LINE
8
annotation
62
1
39
211
10
71.979162
20
48.335219
11
72.512863
21
48.335219
0
LINE
8
annotation
62
1
39
211
10
72.512863
20
48.335219
11
72.512863
21
48.335219
0
LINE
8
annotation
62
1
39
211
10
72.512863
20
48.335219
11
72.704567
21
48.352430
0
LINE
8
annotation
62
1
39
211
10
72.704567
20
48.352430
11
72.884954
21
48.402047
0
LINE
8
annotation
62
1
39
211
10
72.884954
20
48.402047
11
73.051024
21
48.481044
0
LINE
8
annotation
62
1
39
211
10
73.051024
20
48.481044
11
73.199776
21
48.586398
0
LINE
8
annotation
62
1
39
211
10
73.199776
20
48.586398
11
73.328209
21
48.715081
0
LINE
8
annotation
62
1
39
211
10
73.328209
20
48.715081
11
73.433325
21
48.864070
0
LINE
8
annotation
62
1
39
211
10
73.433325
20
48.864070
11
73.512122
21
49.030340
0
LINE
8
annotation
62
1
39
211
10
73.512122
20
49.030340
11
73.561601
21
49.210866
0
LINE
8
annotation
62
1
39
211
10
73.561601
20
49.210866
11
73.578760
21
49.402621
0
LINE
8
annotation
62
1
39
211
10
73.578760
20
49.402621
11
73.578760
21
49.402621
0
LINE
8
annotation
62
1
39
211
10
73.578760
20
49.402621
11
73.561601
21
49.593481
0
LINE
8
annotation
62
1
39
211
10
73.561601
20
49.593481
11
73.512122
21
49.773309
0
LINE
8
annotation
62
1
39
211
10
73.512122
20
49.773309
11
73.433325
21
49.939054
0
LINE
8
annotation
62
1
39
211
10
73.433325
20
49.939054
11
73.328209
21
50.087668
0
LINE
8
annotation
62
1
39
211
10
73.328209
20
50.087668
11
73.199776
21
50.216099
0
LINE
8
annotation
62
1
39
211
10
73.199776
20
50.216099
11
73.051024
21
50.321300
0
LINE
8
annotation
62
1
39
211
10
73.051024
20
50.321300
11
72.884954
21
50.400219
0
LINE
8
annotation
62
1
39
211
10
72.884954
20
50.400219
11
72.704567
21
50.449807
0
LINE
8
annotation
62
1
39
211
10
72.704567
20
50.449807
11
72.512863
21
50.467014
0
LINE
8
annotation
62
1
39
211
10
72.512863
20
50.467014
11
71.446966
21
50.467014
0
LINE
8
annotation
62
1
39
211
10
68.494485
20
65.661845
11
65.829290
21
65.661845
0
LINE
8
annotation
62
1
39
211
10
65.829290
20
65.661845
11
66.893682
21
69.394743
0
LINE
8
annotation
62
1
39
211
10
67.695589
20
64.594743
11
67.695589
21
66.726538
0
LINE
8
annotation
62
1
39
211
10
61.133789
20
83.516904
11
62.199686
21
83.516904
0
LINE
8
annotation
62
1
39
211
10
62.199686
20
83.516904
11
62.199686
21
83.516904
0
LINE
8
annotation
62
1
39
211
10
62.199686
20
83.516904
11
62.390994
21
83.534105
0
LINE
8
annotation
62
1
39
211
10
62.390994
20
83.534105
11
62.571170
21
83.583694
0
LINE
8
annotation
62
1
39
211
10
62.571170
20
83.583694
11
62.737178
21
83.662652
0
LINE
8
annotation
62
1
39
211
10
62.737178
20
83.662652
11
62.885979
21
83.767957
0
LINE
8
annotation
62
1
39
211
10
62.885979
20
83.767957
11
63.014537
21
83.896591
0
LINE
8
annotation
62
1
39
211
10
63.014537
20
83.896591
11
63.119814
21
84.045533
0
LINE
8
annotation
62
1
39
211
10
63.119814
20
84.045533
11
63.198772
21
84.211763
0
LINE
8
annotation
62
1
39
211
10
63.198772
20
84.211763
11
63.248374
21
84.392260
0
LINE
8
annotation
62
1
39
211
10
63.248374
20
84.392260
11
63.265584
21
84.584006
0
LINE
8
annotation
62
1
39
211
10
63.265584
20
84.584006
11
63.265584
21
85.114998
0
LINE
8
annotation
62
1
39
211
10
63.265584
20
85.114998
11
63.265584
21
85.114998
0
LINE
8
annotation
62
1
39
211
10
63.265584
20
85.114998
11
63.248384
21
85.306651
0
LINE
8
annotation
62
1
39
211
10
63.248384
20
85.306651
11
63.198807
21
85.486899
0
LINE
8
annotation
62
1
39
211
10
63.198807
20
85.486899
11
63.119881
21
85.652768
0
LINE
8
annotation
62
1
39
211
10
63.119881
20
85.652768
11
63.014636
21
85.801283
0
LINE
8
annotation
62
1
39
211
10
63.014636
20
85.801283
11
62.886103
21
85.929467
0
LINE
8
annotation
62
1
39
211
10
62.886103
20
85.929467
11
62.737312
21
86.034345
0
LINE
8
annotation
62
1
39
211
10
62.737312
20
86.034345
11
62.571292
21
86.112942
0
LINE
8
annotation
62
1
39
211
10
62.571292
20
86.112942
11
62.391073
21
86.162282
0
LINE
8
annotation
62
1
39
211
10
62.391073
20
86.162282
11
62.199686
21
86.179390
0
LINE
8
annotation
62
1
39
211
10
62.199686
20
86.179390
11
61.133789
21
86.179390
0
LINE
8
annotation
62
1
39
211
10
61.133789
20
86.179390
11
61.133789
21
88.316904
0
LINE
8
annotation
62
1
39
211
10
61.133789
20
88.316904
11
63.265584
21
88.316904
0
LINE
8
annotation
62
1
39
211
10
58.030001
20
107.239065
11
58.030001
21
107.239065
0
LINE
8
annotation
62
1
39
211
10
58.030001
20
107.239065
11
57.724648
21
107.124576
0
LINE
8
annotation
62
1
39
211
10
57.724648
20
107.124576
11
57.444447
21
106.970316
0
LINE
8
annotation
62
1
39
211
10
57.444447
20
106.970316
11
57.192274
21
106.780150
0
LINE
8
annotation
62
1
39
211
10
57.192274
20
106.780150
11
56.971005
21
106.557942
0
LINE
8
annotation
62
1
39
211
10
56.971005
20
106.557942
11
56.783516
21
106.307557
0
LINE
8
annotation
62
1
39
211
10
56.783516
20
106.307557
11
56.632685
21
106.032861
0
LINE
8
annotation
62
1
39
211
10
56.632685
20
106.032861
11
56.521387
21
105.737718
0
LINE
8
annotation
62
1
39
211
10
56.521387
20
105.737718
11
56.452499
21
105.425993
0
LINE
8
annotation
62
1
39
211
10
56.452499
20
105.425993
11
56.428897
21
105.101551
0
LINE
8
annotation
62
1
39
211
10
56.428897
20
105.101551
11
56.428897
21
103.506167
0
LINE
8
annotation
62
1
39
211
10
56.428897
20
103.506167
11
56.428897
21
103.506167
0
LINE
8
annotation
62
1
39
211
10
56.428897
20
103.506167
11
56.446106
21
103.314421
0
LINE
8
annotation
62
1
39
211
10
56.446106
20
103.314421
11
56.495709
21
103.133924
0
LINE
8
annotation
62
1
39
211
10
56.495709
20
103.133924
11
56.574667
21
102.967694
0
LINE
8
annotation
62
1
39
211
10
56.574667
20
102.967694
11
56.679944
21
102.818752
0
LINE
8
annotation
62
1
39
211
10
56.679944
20
102.818752
11
56.808501
21
102.690118
0
LINE
8
annotation
62
1
39
211
10
56.808501
20
102.690118
11
56.957303
21
102.584813
0
LINE
8
annotation
62
1
39
211
10
56.957303
20
102.584813
11
57.123310
21
102.505855
0
LINE
8
annotation
62
1
39
211
10
57.123310
20
102.505855
11
57.303487
21
102.456266
0
LINE
8
annotation
62
1
39
211
10
57.303487
20
102.456266
11
57.494795
21
102.439065
0
LINE
8
annotation
62
1
39
211
10
57.494795
20
102.439065
11
57.494795
21
102.439065
0
LINE
8
annotation
62
1
39
211
10
57.494795
20
102.439065
11
57.686499
21
102.456266
0
LINE
8
annotation
62
1
39
211
10
57.686499
20
102.456266
11
57.866886
21
102.505855
0
LINE
8
annotation
62
1
39
211
10
57.866886
20
102.505855
11
58.032955
21
102.584813
0
LINE
8
annotation
62
1
39
211
10
58.032955
20
102.584813
11
58.181707
21
102.690118
0
LINE
8
annotation
62
1
39
211
10
58.181707
20
102.690118
11
58.310141
21
102.818752
0
LINE
8
annotation
62
1
39
211
10
58.310141
20
102.818752
11
58.415257
21
102.967694
0
LINE
8
annotation
62
1
39
211
10
58.415257
20
102.967694
11
58.494054
21
103.133924
0
LINE
8
annotation
62
1
39
211
10
58.494054
20
103.133924
11
58.543532
21
103.314421
0
LINE
8
annotation
62
1
39
211
10
58.543532
20
103.314421
11
58.560692
21
103.506167
0
LINE
8
annotation
62
1
39
211
10
58.560692
20
103.506167
11
58.560692
21
104.037159
0
LINE
8
annotation
62
1
39
211
10
58.560692
20
104.037159
11
58.560692
21
104.037159
0
LINE
8
annotation
62
1
39
211
10
58.560692
20
104.037159
11
58.543532
21
104.228811
0
LINE
8
annotation
62
1
39
211
10
58.543532
20
104.228811
11
58.494054
21
104.409060
0
LINE
8
annotation
62
1
39
211
10
58.494054
20
104.409060
11
58.415257
21
104.574929
0
LINE
8
annotation
62
1
39
211
10
58.415257
20
104.574929
11
58.310141
21
104.723444
0
LINE
8
annotation
62
1
39
211
10
58.310141
20
104.723444
11
58.181707
21
104.851628
0
LINE
8
annotation
62
1
39
211
10
58.181707
20
104.851628
11
58.032955
21
104.956506
0
LINE
8
annotation
62
1
39
211
10
58.032955
20
104.956506
11
57.866886
21
105.035103
0
LINE
8
annotation
62
1
39
211
10
57.866886
20
105.035103
11
57.686499
21
105.084443
0
LINE
8
annotation
62
1
39
211
10
57.686499
20
105.084443
11
57.494795
21
105.101551
0
LINE
8
annotation
62
1
39
211
10
57.494795
20
105.101551
11
56.428897
21
105.101551
0
LINE
8
annotation
62
1
39
211
10
56.295397
20
101.839065
11
58.695397
21
101.839065
0
LINE
8
annotation
62
1
39
211
10
52.961079
20
121.361226
11
54.028181
21
126.161226
0
LINE
8
annotation
62
1
39
211
10
54.028181
20
126.161226
11
51.893677
21
126.161226
0
LINE
8
annotation
62
1
39
211
10
54.028181
20
124.023712
11
52.961079
21
124.023712
0
LINE
8
annotation
62
1
39
211
10
47.454702
20
141.347629
11
47.454702
21
141.347629
0
LINE
8
annotation
62
1
39
211
10
47.454702
20
141.347629
11
47.471911
21
141.155976
0
LINE
8
annotation
62
1
39
211
10
47.471911
20
141.155976
11
47.521514
21
140.975728
0
LINE
8
annotation
62
1
39
211
10
47.521514
20
140.975728
11
47.600472
21
140.809858
0
LINE
8
annotation
62
1
39
211
10
47.600472
20
140.809858
11
47.705749
21
140.661344
0
LINE
8
annotation
62
1
39
211
10
47.705749
20
140.661344
11
47.834307
21
140.533160
0
LINE
8
annotation
62
1
39
211
10
47.834307
20
140.533160
11
47.983108
21
140.428282
0
LINE
8
annotation
62
1
39
211
10
47.983108
20
140.428282
11
48.149116
21
140.349685
0
LINE
8
annotation
62
1
39
211
10
48.149116
20
140.349685
11
48.329292
21
140.300344
0
LINE
8
annotation
62
1
39
211
10
48.329292
20
140.300344
11
48.520600
21
140.283237
0
LINE
8
annotation
62
1
39
211
10
48.520600
20
140.283237
11
48.520600
21
140.283237
0
LINE
8
annotation
62
1
39
211
10
48.520600
20
140.283237
11
48.711908
21
140.300344
0
LINE
8
annotation
62
1
39
211
10
48.711908
20
140.300344
11
48.892084
21
140.349685
0
LINE
8
annotation
62
1
39
211
10
48.892084
20
140.349685
11
49.058092
21
140.428282
0
LINE
8
annotation
62
1
39
211
10
49.058092
20
140.428282
11
49.206893
21
140.533160
0
LINE
8
annotation
62
1
39
211
10
49.206893
20
140.533160
11
49.335451
21
140.661344
0
LINE
8
annotation
62
1
39
211
10
49.335451
20
140.661344
11
49.440727
21
140.809858
0
LINE
8
annotation
62
1
39
211
10
49.440727
20
140.809858
11
49.519686
21
140.975728
0
LINE
8
annotation
62
1
39
211
10
49.519686
20
140.975728
11
49.569288
21
141.155976
0
LINE
8
annotation
62
1
39
211
10
49.569288
20
141.155976
11
49.586497
21
141.347629
0
LINE
8
annotation
62
1
39
211
10
49.586497
20
141.347629
11
49.586497
21
141.878621
0
LINE
8
annotation
62
1
39
211
10
49.586497
20
141.878621
11
49.586497
21
141.878621
0
LINE
8
annotation
62
1
39
211
10
49.586497
20
141.878621
11
49.569298
21
142.070366
0
LINE
8
annotation
62
1
39
211
10
49.569298
20
142.070366
11
49.519720
21
142.250864
0
LINE
8
annotation
62
1
39
211
10
49.519720
20
142.250864
11
49.440794
21
142.417094
0
LINE
8
annotation
62
1
39
211
10
49.440794
20
142.417094
11
49.335550
21
142.566036
0
LINE
8
annotation
62
1
39
211
10
49.335550
20
142.566036
11
49.207017
21
142.694669
0
LINE
8
annotation
62
1
39
211
10
49.207017
20
142.694669
11
49.058225
21
142.799975
0
LINE
8
annotation
62
1
39
211
10
49.058225
20
142.799975
11
48.892205
21
142.878932
0
LINE
8
annotation
62
1
39
211
10
48.892205
20
142.878932
11
48.711987
21
142.928522
0
LINE
8
annotation
62
1
39
211
10
48.711987
20
142.928522
11
48.520600
21
142.945722
0
LINE
8
annotation
62
1
39
211
10
48.520600
20
142.945722
11
48.520600
21
142.945722
0
LINE
8
annotation
62
1
39
211
10
48.520600
20
142.945722
11
48.329213
21
142.928512
0
LINE
8
annotation
62
1
39
211
10
48.329213
20
142.928512
11
48.148994
21
142.878898
0
LINE
8
annotation
62
1
39
211
10
48.148994
20
142.878898
11
47.982974
21
142.799908
0
LINE
8
annotation
62
1
39
211
10
47.982974
20
142.799908
11
47.834183
21
142.694570
0
LINE
8
annotation
62
1
39
211
10
47.834183
20
142.694570
11
47.705650
21
142.565912
0
LINE
8
annotation
62
1
39
211
10
47.705650
20
142.565912
11
47.600405
21
142.416960
0
LINE
8
annotation
62
1
39
211
10
47.600405
20
142.416960
11
47.521479
21
142.250743
0
LINE
8
annotation
62
1
39
211
10
47.521479
20
142.250743
11
47.471902
21
142.070287
0
LINE
8
annotation
62
1
39
211
10
47.471902
20
142.070287
11
47.454702
21
141.878621
0
LINE
8
annotation
62
1
39
211
10
47.454702
20
141.878621
11
47.454702
21
141.347629
0
LINE
8
annotation
62
1
39
211
10
49.586497
20
144.013125
11
49.586497
21
144.013125
0
LINE
8
annotation
62
1
39
211
10
49.586497
20
144.013125
11
49.569298
21
144.203985
0
LINE
8
annotation
62
1
39
211
10
49.569298
20
144.203985
11
49.519720
21
144.383812
0
LINE
8
annotation
62
1
39
211
10
49.519720
20
144.383812
11
49.440794
21
144.549558
0
LINE
8
annotation
62
1
39
211
10
49.440794
20
144.549558
11
49.335550
21
144.698171
0
LINE
8
annotation
62
1
39
211
10
49.335550
20
144.698171
11
49.207017
21
144.826603
0
LINE
8
annotation
62
1
39
211
10
49.207017
20
144.826603
11
49.058225
21
144.931803
0
LINE
8
annotation
62
1
39
211
10
49.058225
20
144.931803
11
48.892205
21
145.010722
0
LINE
8
annotation
62
1
39
211
10
48.892205
20
145.010722
11
48.711987
21
145.060310
0
LINE
8
annotation
62
1
39
211
10
48.711987
20
145.060310
11
48.520600
21
145.077517
0
LINE
8
annotation
62
1
39
211
10
48.520600
20
145.077517
11
48.520600
21
145.077517
0
LINE
8
annotation
62
1
39
211
10
48.520600
20
145.077517
11
48.329213
21
145.060310
0
LINE
8
annotation
62
1
39
211
10
48.329213
20
145.060310
11
48.148994
21
145.010722
0
LINE
8
annotation
62
1
39
211
10
48.148994
20
145.010722
11
47.982974
21
144.931803
0
LINE
8
annotation
62
1
39
211
10
47.982974
20
144.931803
11
47.834183
21
144.826603
0
LINE
8
annotation
62
1
39
211
10
47.834183
20
144.826603
11
47.705650
21
144.698171
0
LINE
8
annotation
62
1
39
211
10
47.705650
20
144.698171
11
47.600405
21
144.549558
0
LINE
8
annotation
62
1
39
211
10
47.600405
20
144.549558
11
47.521479
21
144.383812
0
LINE
8
annotation
62
1
39
211
10
47.521479
20
144.383812
11
47.471902
21
144.203985
0
LINE
8
annotation
62
1
39
211
10
47.471902
20
144.203985
11
47.454702
21
144.013125
0
LINE
8
annotation
62
1
39
211
10
47.454702
20
144.013125
11
47.454702
21
144.013125
0
LINE
8
annotation
62
1
39
211
10
47.454702
20
144.013125
11
47.471911
21
143.821369
0
LINE
8
annotation
62
1
39
211
10
47.471911
20
143.821369
11
47.521514
21
143.640844
0
LINE
8
annotation
62
1
39
211
10
47.521514
20
143.640844
11
47.600472
21
143.474574
0
LINE
8
annotation
62
1
39
211
10
47.600472
20
143.474574
11
47.705749
21
143.325585
0
LINE
8
annotation
62
1
39
211
10
47.705749
20
143.325585
11
47.834307
21
143.196901
0
LINE
8
annotation
62
1
39
211
10
47.834307
20
143.196901
11
47.983108
21
143.091548
0
LINE
8
annotation
62
1
39
211
10
47.983108
20
143.091548
11
48.149116
21
143.012550
0
LINE
8
annotation
62
1
39
211
10
48.149116
20
143.012550
11
48.329292
21
142.962934
0
LINE
8
annotation
62
1
39
211
10
48.329292
20
142.962934
11
48.520600
21
142.945722
0
LINE
8
annotation
62
1
39
211
10
48.520600
20
142.945722
11
48.520600
21
142.945722
0
LINE
8
annotation
62
1
39
211
10
48.520600
20
142.945722
11
48.711908
21
142.962934
0
LINE
8
annotation
62
1
39
211
10
48.711908
20
142.962934
11
48.892084
21
143.012550
0
LINE
8
annotation
62
1
39
211
10
48.892084
20
143.012550
11
49.058092
21
143.091548
0
LINE
8
annotation
62
1
39
211
10
49.058092
20
143.091548
11
49.206893
21
143.196901
0
LINE
8
annotation
62
1
39
211
10
49.206893
20
143.196901
11
49.335451
21
143.325585
0
LINE
8
annotation
62
1
39
211
10
49.335451
20
143.325585
11
49.440727
21
143.474574
0
LINE
8
annotation
62
1
39
211
10
49.440727
20
143.474574
11
49.519686
21
143.640844
0
LINE
8
annotation
62
1
39
211
10
49.519686
20
143.640844
11
49.569288
21
143.821369
0
LINE
8
annotation
62
1
39
211
10
49.569288
20
143.821369
11
49.586497
21
144.013125
0
LINE
8
annotation
62
1
39
211
10
43.589620
20
159.205548
11
43.589620
21
159.205548
0
LINE
8
annotation
62
1
39
211
10
43.589620
20
159.205548
11
43.894435
21
159.319137
0
LINE
8
annotation
62
1
39
211
10
43.894435
20
159.319137
11
44.174218
21
159.472673
0
LINE
8
annotation
62
1
39
211
10
44.174218
20
159.472673
11
44.426077
21
159.662245
0
LINE
8
annotation
62
1
39
211
10
44.426077
20
159.662245
11
44.647120
21
159.883940
0
LINE
8
annotation
62
1
39
211
10
44.647120
20
159.883940
11
44.834457
21
160.133846
0
LINE
8
annotation
62
1
39
211
10
44.834457
20
160.133846
11
44.985197
21
160.408051
0
LINE
8
annotation
62
1
39
211
10
44.985197
20
160.408051
11
45.096448
21
160.702643
0
LINE
8
annotation
62
1
39
211
10
45.096448
20
160.702643
11
45.165318
21
161.013711
0
LINE
8
annotation
62
1
39
211
10
45.165318
20
161.013711
11
45.188918
21
161.337343
0
LINE
8
annotation
62
1
39
211
10
45.188918
20
161.337343
11
45.188918
21
162.938145
0
LINE
8
annotation
62
1
39
211
10
45.188918
20
162.938145
11
45.188918
21
162.938145
0
LINE
8
annotation
62
1
39
211
10
45.188918
20
162.938145
11
45.171758
21
163.129901
0
LINE
8
annotation
62
1
39
211
10
45.171758
20
163.129901
11
45.122280
21
163.310427
0
LINE
8
annotation
62
1
39
211
10
45.122280
20
163.310427
11
45.043483
21
163.476696
0
LINE
8
annotation
62
1
39
211
10
45.043483
20
163.476696
11
44.938367
21
163.625686
0
LINE
8
annotation
62
1
39
211
10
44.938367
20
163.625686
11
44.809933
21
163.754369
0
LINE
8
annotation
62
1
39
211
10
44.809933
20
163.754369
11
44.661181
21
163.859722
0
LINE
8
annotation
62
1
39
211
10
44.661181
20
163.859722
11
44.495112
21
163.938720
0
LINE
8
annotation
62
1
39
211
10
44.495112
20
163.938720
11
44.314725
21
163.988337
0
LINE
8
annotation
62
1
39
211
10
44.314725
20
163.988337
11
44.123020
21
164.005548
0
LINE
8
annotation
62
1
39
211
10
44.123020
20
164.005548
11
44.123020
21
164.005548
0
LINE
8
annotation
62
1
39
211
10
44.123020
20
164.005548
11
43.931713
21
163.988337
0
LINE
8
annotation
62
1
39
211
10
43.931713
20
163.988337
11
43.751536
21
163.938720
0
LINE
8
annotation
62
1
39
211
10
43.751536
20
163.938720
11
43.585529
21
163.859722
0
LINE
8
annotation
62
1
39
211
10
43.585529
20
163.859722
11
43.436727
21
163.754369
0
LINE
8
annotation
62
1
39
211
10
43.436727
20
163.754369
11
43.308169
21
163.625686
0
LINE
8
annotation
62
1
39
211
10
43.308169
20
163.625686
11
43.202893
21
163.476696
0
LINE
8
annotation
62
1
39
211
10
43.202893
20
163.476696
11
43.123934
21
163.310427
0
LINE
8
annotation
62
1
39
211
10
43.123934
20
163.310427
11
43.074332
21
163.129901
0
LINE
8
annotation
62
1
39
211
10
43.074332
20
163.129901
11
43.057123
21
162.938145
0
LINE
8
annotation
62
1
39
211
10
43.057123
20
162.938145
11
43.057123
21
162.404444
0
LINE
8
annotation
62
1
39
211
10
43.057123
20
162.404444
11
43.057123
21
162.404444
0
LINE
8
annotation
62
1
39
211
10
43.057123
20
162.404444
11
43.074332
21
162.212699
0
LINE
8
annotation
62
1
39
211
10
43.074332
20
162.212699
11
43.123934
21
162.032201
0
LINE
8
annotation
62
1
39
211
10
43.123934
20
162.032201
11
43.202893
21
161.865971
0
LINE
8
annotation
62
1
39
211
10
43.202893
20
161.865971
11
43.308169
21
161.717030
0
LINE
8
annotation
62
1
39
211
10
43.308169
20
161.717030
11
43.436727
21
161.588396
0
LINE
8
annotation
62
1
39
211
10
43.436727
20
161.588396
11
43.585529
21
161.483090
0
LINE
8
annotation
62
1
39
211
10
43.585529
20
161.483090
11
43.751536
21
161.404133
0
LINE
8
annotation
62
1
39
211
10
43.751536
20
161.404133
11
43.931713
21
161.354544
0
LINE
8
annotation
62
1
39
211
10
43.931713
20
161.354544
11
44.123020
21
161.337343
0
LINE
8
annotation
62
1
39
211
10
44.123020
20
161.337343
11
45.188918
21
161.337343
0
LINE
8
annotation
62
1
39
211
10
42.923923
20
158.605548
11
45.323923
21
158.605548
0
LINE
8
annotation
62
1
39
211
10
38.535307
20
178.218849
11
38.535307
21
182.836569
0
LINE
8
annotation
62
1
39
211
10
38.535307
20
182.836569
11
37.508728
21
181.809701
0
LINE
8
annotation
62
1
39
211
10
41.008535
20
178.279758
11
41.008535
21
178.279758
0
LINE
8
annotation
62
1
39
211
10
41.008535
20
178.279758
11
41.115857
21
178.239639
0
LINE
8
annotation
62
1
39
211
10
41.115857
20
178.239639
11
41.225924
21
178.219707
0
LINE
8
annotation
62
1
39
211
10
41.225924
20
178.219707
11
41.336249
21
178.219149
0
LINE
8
annotation
62
1
39
211
10
41.336249
20
178.219149
11
41.444343
21
178.237154
0
LINE
8
annotation
62
1
39
211
10
41.444343
20
178.237154
11
41.547717
21
178.272908
0
LINE
8
annotation
62
1
39
211
10
41.547717
20
178.272908
11
41.643884
21
178.325599
0
LINE
8
annotation
62
1
39
211
10
41.643884
20
178.325599
11
41.730356
21
178.394413
0
LINE
8
annotation
62
1
39
211
10
41.730356
20
178.394413
11
41.804643
21
178.478538
0
LINE
8
annotation
62
1
39
211
10
41.804643
20
178.478538
11
41.864258
21
178.577162
0
LINE
8
annotation
62
1
39
211
10
41.864258
20
178.577162
11
41.864258
21
178.577162
0
LINE
8
annotation
62
1
39
211
10
41.864258
20
178.577162
11
42.042128
21
178.993509
0
LINE
8
annotation
62
1
39
211
10
42.042128
20
178.993509
11
42.175530
21
179.421907
0
LINE
8
annotation
62
1
39
211
10
42.175530
20
179.421907
11
42.264465
21
179.858940
0
LINE
8
annotation
62
1
39
211
10
42.264465
20
179.858940
11
42.308932
21
180.301192
0
LINE
8
annotation
62
1
39
211
10
42.308932
20
180.301192
11
42.308932
21
180.745249
0
LINE
8
annotation
62
1
39
211
10
42.308932
20
180.745249
11
42.264465
21
181.187694
0
LINE
8
annotation
62
1
39
211
10
42.264465
20
181.187694
11
42.175530
21
181.625113
0
LINE
8
annotation
62
1
39
211
10
42.175530
20
181.625113
11
42.042128
21
182.054090
0
LINE
8
annotation
62
1
39
211
10
42.042128
20
182.054090
11
41.864258
21
182.471209
0
LINE
8
annotation
62
1
39
211
10
41.864258
20
182.471209
11
41.864258
21
182.471209
0
LINE
8
annotation
62
1
39
211
10
41.864258
20
182.471209
11
41.841639
21
182.513305
0
LINE
8
annotation
62
1
39
211
10
41.841639
20
182.513305
11
41.815994
21
182.553552
0
LINE
8
annotation
62
1
39
211
10
41.815994
20
182.553552
11
41.787519
21
182.591752
0
LINE
8
annotation
62
1
39
211
10
41.787519
20
182.591752
11
41.756404
21
182.627706
0
LINE
8
annotation
62
1
39
211
10
41.756404
20
182.627706
11
41.722845
21
182.661217
0
LINE
8
annotation
62
1
39
211
10
41.722845
20
182.661217
11
41.687033
21
182.692087
0
LINE
8
annotation
62
1
39
211
10
41.687033
20
182.692087
11
41.649161
21
182.720119
0
LINE
8
annotation
62
1
39
211
10
41.649161
20
182.720119
11
41.609424
21
182.745114
0
LINE
8
annotation
62
1
39
211
10
41.609424
20
182.745114
11
41.568013
21
182.766875
0
LINE
8
annotation
62
1
39
211
10
41.568013
20
182.766875
11
41.568013
21
182.766875
0
LINE
8
annotation
62
1
39
211
10
41.568013
20
182.766875
11
41.459840
21
182.807864
0
LINE
8
annotation
62
1
39
211
10
41.459840
20
182.807864
11
41.349128
21
182.828478
0
LINE
8
annotation
62
1
39
211
10
41.349128
20
182.828478
11
41.238337
21
182.829533
0
LINE
8
annotation
62
1
39
211
10
41.238337
20
182.829533
11
41.129927
21
182.811847
0
LINE
8
annotation
62
1
39
211
10
41.129927
20
182.811847
11
41.026358
21
182.776238
0
LINE
8
annotation
62
1
39
211
10
41.026358
20
182.776238
11
40.930090
21
182.723523
0
LINE
8
annotation
62
1
39
211
10
40.930090
20
182.723523
11
40.843582
21
182.654520
0
LINE
8
annotation
62
1
39
211
10
40.843582
20
182.654520
11
40.769293
21
182.570047
0
LINE
8
annotation
62
1
39
211
10
40.769293
20
182.570047
11
40.709684
21
182.470920
0
LINE
8
annotation
62
1
39
211
10
40.709684
20
182.470920
11
40.709684
21
182.470920
0
LINE
8
annotation
62
1
39
211
10
40.709684
20
182.470920
11
40.532672
21
182.054658
0
LINE
8
annotation
62
1
39
211
10
40.532672
20
182.054658
11
40.399914
21
181.626325
0
LINE
8
annotation
62
1
39
211
10
40.399914
20
181.626325
11
40.311408
21
181.189335
0
LINE
8
annotation
62
1
39
211
10
40.311408
20
181.189335
11
40.267155
21
180.747104
0
LINE
8
annotation
62
1
39
211
10
40.267155
20
180.747104
11
40.267155
21
180.303047
0
LINE
8
annotation
62
1
39
211
10
40.267155
20
180.303047
11
40.311408
21
179.860580
0
LINE
8
annotation
62
1
39
211
10
40.311408
20
179.860580
11
40.399914
21
179.423119
0
LINE
8
annotation
62
1
39
211
10
40.399914
20
179.423119
11
40.532672
21
178.994078
0
LINE
8
annotation
62
1
39
211
10
40.532672
20
178.994078
11
40.709684
21
178.576872
0
LINE
8
annotation
62
1
39
211
10
40.709684
20
178.576872
11
40.709684
21
178.576872
0
LINE
8
annotation
62
1
39
211
10
40.709684
20
178.576872
11
40.732221
21
178.534860
0
LINE
8
annotation
62
1
39
211
10
40.732221
20
178.534860
11
40.757676
21
178.494814
0
LINE
8
annotation
62
1
39
211
10
40.757676
20
178.494814
11
40.785941
21
178.456856
0
LINE
8
annotation
62
1
39
211
10
40.785941
20
178.456856
11
40.816909
21
178.421107
0
LINE
8
annotation
62
1
39
211
10
40.816909
20
178.421107
11
40.850472
21
178.387689
0
LINE
8
annotation
62
1
39
211
10
40.850472
20
178.387689
11
40.886524
21
178.356724
0
LINE
8
annotation
62
1
39
211
10
40.886524
20
178.356724
11
40.924956
21
178.328332
0
LINE
8
annotation
62
1
39
211
10
40.924956
20
178.328332
11
40.965662
21
178.302637
0
LINE
8
annotation
62
1
39
211
10
40.965662
20
178.302637
11
41.008535
21
178.279758
0
LINE
8
annotation
62
1
39
211
10
35.075824
20
197.049870
11
35.075824
21
201.849870
0
LINE
8
annotation
62
1
39
211
10
35.075824
20
201.849870
11
34.008722
21
200.782467
0
LINE
8
annotation
62
1
39
211
10
37.942925
20
197.049870
11
37.942925
21
201.849870
0
LINE
8
annotation
62
1
39
211
10
37.942925
20
201.849870
11
36.875824
21
200.782467
0
LINE
8
annotation
62
1
39
211
10
31.006737
20
216.067856
11
31.006737
21
220.676205
0
LINE
8
annotation
62
1
39
211
10
31.006737
20
220.676205
11
29.982242
21
219.651421
0
LINE
8
annotation
62
1
39
211
10
34.781750
20
216.067819
11
32.735071
21
216.067819
0
LINE
8
annotation
62
1
39
211
10
32.735071
20
216.067819
11
34.626269
21
219.112404
0
LINE
8
annotation
62
1
39
211
10
34.626269
20
219.112404
11
34.626269
21
219.112404
0
LINE
8
annotation
62
1
39
211
10
34.626269
20
219.112404
11
34.628530
21
219.115202
0
LINE
8
annotation
62
1
39
211
10
34.628530
20
219.115202
11
34.630698
21
219.118023
0
LINE
8
annotation
62
1
39
211
10
34.630698
20
219.118023
11
34.632788
21
219.120892
0
LINE
8
annotation
62
1
39
211
10
34.632788
20
219.120892
11
34.634813
21
219.123832
0
LINE
8
annotation
62
1
39
211
10
34.634813
20
219.123832
11
34.636788
21
219.126868
0
LINE
8
annotation
62
1
39
211
10
34.636788
20
219.126868
11
34.638728
21
219.130022
0
LINE
8
annotation
62
1
39
211
10
34.638728
20
219.130022
11
34.640646
21
219.133319
0
LINE
8
annotation
62
1
39
211
10
34.640646
20
219.133319
11
34.642558
21
219.136783
0
LINE
8
annotation
62
1
39
211
10
34.642558
20
219.136783
11
34.644476
21
219.140437
0
LINE
8
annotation
62
1
39
211
10
34.644476
20
219.140437
11
34.644476
21
219.140437
0
LINE
8
annotation
62
1
39
211
10
34.644476
20
219.140437
11
34.722563
21
219.308096
0
LINE
8
annotation
62
1
39
211
10
34.722563
20
219.308096
11
34.768180
21
219.481890
0
LINE
8
annotation
62
1
39
211
10
34.768180
20
219.481890
11
34.782445
21
219.657892
0
LINE
8
annotation
62
1
39
211
10
34.782445
20
219.657892
11
34.766476
21
219.832173
0
LINE
8
annotation
62
1
39
211
10
34.766476
20
219.832173
11
34.721391
21
220.000808
0
LINE
8
annotation
62
1
39
211
10
34.721391
20
220.000808
11
34.648308
21
220.159869
0
LINE
8
annotation
62
1
39
211
10
34.648308
20
220.159869
11
34.548344
21
220.305429
0
LINE
8
annotation
62
1
39
211
10
34.548344
20
220.305429
11
34.422618
21
220.433562
0
LINE
8
annotation
62
1
39
211
10
34.422618
20
220.433562
11
34.272248
21
220.540339
0
LINE
8
annotation
62
1
39
211
10
34.272248
20
220.540339
11
34.272248
21
220.540339
0
LINE
8
annotation
62
1
39
211
10
34.272248
20
220.540339
11
34.104122
21
220.617317
0
LINE
8
annotation
62
1
39
211
10
34.104122
20
220.617317
11
33.930061
21
220.662231
0
LINE
8
annotation
62
1
39
211
10
33.930061
20
220.662231
11
33.753958
21
220.676093
0
LINE
8
annotation
62
1
39
211
10
33.753958
20
220.676093
11
33.579702
21
220.659913
0
LINE
8
annotation
62
1
39
211
10
33.579702
20
220.659913
11
33.411187
21
220.614703
0
LINE
8
annotation
62
1
39
211
10
33.411187
20
220.614703
11
33.252301
21
220.541474
0
LINE
8
annotation
62
1
39
211
10
33.252301
20
220.541474
11
33.106939
21
220.441235
0
LINE
8
annotation
62
1
39
211
10
33.106939
20
220.441235
11
32.978989
21
220.314999
0
LINE
8
annotation
62
1
39
211
10
32.978989
20
220.314999
11
32.872345
21
220.163776
0
LINE
8
annotation
62
1
39
211
10
32.872345
20
220.163776
11
32.737961
21
219.905990
0
LINE
8
annotation
62
1
39
211
10
27.664206
20
234.989683
11
27.664206
21
239.598700
0
LINE
8
annotation
62
1
39
211
10
27.664206
20
239.598700
11
26.639563
21
238.573768
0
LINE
8
annotation
62
1
39
211
10
29.392443
20
234.989827
11
30.415931
21
234.989827
0
LINE
8
annotation
62
1
39
211
10
30.415931
20
234.989827
11
30.415931
21
234.989827
0
LINE
8
annotation
62
1
39
211
10
30.415931
20
234.989827
11
30.600007
21
235.006340
0
LINE
8
annotation
62
1
39
211
10
30.600007
20
235.006340
11
30.773217
21
235.053931
0
LINE
8
annotation
62
1
39
211
10
30.773217
20
235.053931
11
30.932679
21
235.129679
0
LINE
8
annotation
62
1
39
211
10
30.932679
20
235.129679
11
31.075512
21
235.230663
0
LINE
8
annotation
62
1
39
211
10
31.075512
20
235.230663
11
31.198836
21
235.353961
0
LINE
8
annotation
62
1
39
211
10
31.198836
20
235.353961
11
31.299769
21
235.496652
0
LINE
8
annotation
62
1
39
211
10
31.299769
20
235.496652
11
31.375431
21
235.655815
0
LINE
8
annotation
62
1
39
211
10
31.375431
20
235.655815
11
31.422941
21
235.828528
0
LINE
8
annotation
62
1
39
211
10
31.422941
20
235.828528
11
31.439418
21
236.011870
0
LINE
8
annotation
62
1
39
211
10
31.439418
20
236.011870
11
31.439418
21
236.524336
0
LINE
8
annotation
62
1
39
211
10
31.439418
20
236.524336
11
31.439418
21
236.524336
0
LINE
8
annotation
62
1
39
211
10
31.439418
20
236.524336
11
31.422941
21
236.707602
0
LINE
8
annotation
62
1
39
211
10
31.422941
20
236.707602
11
31.375431
21
236.880274
0
LINE
8
annotation
62
1
39
211
10
31.375431
20
236.880274
11
31.299769
21
237.039425
0
LINE
8
annotation
62
1
39
211
10
31.299769
20
237.039425
11
31.198836
21
237.182125
0
LINE
8
annotation
62
1
39
211
10
31.198836
20
237.182125
11
31.075512
21
237.305447
0
LINE
8
annotation
62
1
39
211
10
31.075512
20
237.305447
11
30.932679
21
237.406462
0
LINE
8
annotation
62
1
39
211
10
30.932679
20
237.406462
11
30.773217
21
237.482241
0
LINE
8
annotation
62
1
39
211
10
30.773217
20
237.482241
11
30.600007
21
237.529856
0
LINE
8
annotation
62
1
39
211
10
30.600007
20
237.529856
11
30.415931
21
237.546378
0
LINE
8
annotation
62
1
39
211
10
30.415931
20
237.546378
11
29.903464
21
237.546378
0
LINE
8
annotation
62
1
39
211
10
29.903464
20
237.546378
11
30.415931
21
237.546378
0
LINE
8
annotation
62
1
39
211
10
30.415931
20
237.546378
11
30.415931
21
237.546378
0
LINE
8
annotation
62
1
39
211
10
30.415931
20
237.546378
11
30.600007
21
237.562905
0
LINE
8
annotation
62
1
39
211
10
30.600007
20
237.562905
11
30.773217
21
237.610547
0
LINE
8
annotation
62
1
39
211
10
30.773217
20
237.610547
11
30.932679
21
237.686402
0
LINE
8
annotation
62
1
39
211
10
30.932679
20
237.686402
11
31.075512
21
237.787563
0
LINE
8
annotation
62
1
39
211
10
31.075512
20
237.787563
11
31.198836
21
237.911126
0
LINE
8
annotation
62
1
39
211
10
31.198836
20
237.911126
11
31.299769
21
238.054188
0
LINE
8
annotation
62
1
39
211
10
31.299769
20
238.054188
11
31.375431
21
238.213842
0
LINE
8
annotation
62
1
39
211
10
31.375431
20
238.213842
11
31.422941
21
238.387185
0
LINE
8
annotation
62
1
39
211
10
31.422941
20
238.387185
11
31.439418
21
238.571311
0
LINE
8
annotation
62
1
39
211
10
31.439418
20
238.571311
11
31.439418
21
238.571311
0
LINE
8
annotation
62
1
39
211
10
31.439418
20
238.571311
11
31.422941
21
238.754577
0
LINE
8
annotation
62
1
39
211
10
31.422941
20
238.754577
11
31.375431
21
238.927249
0
LINE
8
annotation
62
1
39
211
10
31.375431
20
238.927249
11
31.299769
21
239.086400
0
LINE
8
annotation
62
1
39
211
10
31.299769
20
239.086400
11
31.198836
21
239.229100
0
LINE
8
annotation
62
1
39
211
10
31.198836
20
239.229100
11
31.075512
21
239.352422
0
LINE
8
annotation
62
1
39
211
10
31.075512
20
239.352422
11
30.932679
21
239.453437
0
LINE
8
annotation
62
1
39
211
10
30.932679
20
239.453437
11
30.773217
21
239.529216
0
LINE
8
annotation
62
1
39
211
10
30.773217
20
239.529216
11
30.600007
21
239.576831
0
LINE
8
annotation
62
1
39
211
10
30.600007
20
239.576831
11
30.415931
21
239.593353
0
LINE
8
annotation
62
1
39
211
10
30.415931
20
239.593353
11
29.392443
21
239.593353
0
LINE
8
annotation
62
1
39
211
10
24.325334
20
254.134035
11
24.325334
21
258.298670
0
LINE
8
annotation
62
1
39
211
10
24.325334
20
258.298670
11
23.399482
21
257.372557
0
LINE
8
annotation
62
1
39
211
10
28.199352
20
255.059886
11
25.886942
21
255.059886
0
LINE
8
annotation
62
1
39
211
10
25.886942
20
255.059886
11
26.810443
21
258.298670
0
LINE
8
annotation
62
1
39
211
10
27.506203
20
254.134035
11
27.506203
21
255.983649
0
LINE
8
annotation
62
1
39
211
10
21.133171
20
272.834005
11
21.133171
21
277.443022
0
LINE
8
annotation
62
1
39
211
10
21.133171
20
277.443022
11
20.108527
21
276.418089
0
LINE
8
annotation
62
1
39
211
10
22.861408
20
272.834005
11
23.884895
21
272.834005
0
LINE
8
annotation
62
1
39
211
10
23.884895
20
272.834005
11
23.884895
21
272.834005
0
LINE
8
annotation
62
1
39
211
10
23.884895
20
272.834005
11
24.068591
21
272.850521
0
LINE
8
annotation
62
1
39
211
10
24.068591
20
272.850521
11
24.241599
21
272.898137
0
LINE
8
annotation
62
1
39
211
10
24.241599
20
272.898137
11
24.401001
21
272.973953
0
LINE
8
annotation
62
1
39
211
10
24.401001
20
272.973953
11
24.543882
21
273.075069
0
LINE
8
annotation
62
1
39
211
10
24.543882
20
273.075069
11
24.667325
21
273.198584
0
LINE
8
annotation
62
1
39
211
10
24.667325
20
273.198584
11
24.768413
21
273.341600
0
LINE
8
annotation
62
1
39
211
10
24.768413
20
273.341600
11
24.844229
21
273.501216
0
LINE
8
annotation
62
1
39
211
10
24.844229
20
273.501216
11
24.891858
21
273.674532
0
LINE
8
annotation
62
1
39
211
10
24.891858
20
273.674532
11
24.908382
21
273.858648
0
LINE
8
annotation
62
1
39
211
10
24.908382
20
273.858648
11
24.908382
21
274.368513
0
LINE
8
annotation
62
1
39
211
10
24.908382
20
274.368513
11
24.908382
21
274.368513
0
LINE
8
annotation
62
1
39
211
10
24.908382
20
274.368513
11
24.891868
21
274.552540
0
LINE
8
annotation
62
1
39
211
10
24.891868
20
274.552540
11
24.844263
21
274.725617
0
LINE
8
annotation
62
1
39
211
10
24.844263
20
274.725617
11
24.768477
21
274.884887
0
LINE
8
annotation
62
1
39
211
10
24.768477
20
274.884887
11
24.667420
21
275.027492
0
LINE
8
annotation
62
1
39
211
10
24.667420
20
275.027492
11
24.544001
21
275.150576
0
LINE
8
annotation
62
1
39
211
10
24.544001
20
275.150576
11
24.401130
21
275.251281
0
LINE
8
annotation
62
1
39
211
10
24.401130
20
275.251281
11
24.241715
21
275.326751
0
LINE
8
annotation
62
1
39
211
10
24.241715
20
275.326751
11
24.068667
21
275.374128
0
LINE
8
annotation
62
1
39
211
10
24.068667
20
275.374128
11
23.884895
21
275.390555
0
LINE
8
annotation
62
1
39
211
10
23.884895
20
275.390555
11
22.861408
21
275.390555
0
LINE
8
annotation
62
1
39
211
10
22.861408
20
275.390555
11
22.861408
21
277.443022
0
LINE
8
annotation
62
1
39
211
10
22.861408
20
277.443022
11
24.908382
21
277.443022
0
LINE
8
annotation
62
1
39
211
10
17.469842
20
291.756166
11
17.469842
21
296.365183
0
LINE
8
annotation
62
1
39
211
10
17.469842
20
296.365183
11
16.445198
21
295.340250
0
LINE
8
annotation
62
1
39
211
10
20.735478
20
296.365183
11
20.735478
21
296.365183
0
LINE
8
annotation
62
1
39
211
10
20.735478
20
296.365183
11
20.442274
21
296.255249
0
LINE
8
annotation
62
1
39
211
10
20.442274
20
296.255249
11
20.173222
21
296.107127
0
LINE
8
annotation
62
1
39
211
10
20.173222
20
296.107127
11
19.931082
21
295.924527
0
LINE
8
annotation
62
1
39
211
10
19.931082
20
295.924527
11
19.718617
21
295.711160
0
LINE
8
annotation
62
1
39
211
10
19.718617
20
295.711160
11
19.538588
21
295.470738
0
LINE
8
annotation
62
1
39
211
10
19.538588
20
295.470738
11
19.393758
21
295.206971
0
LINE
8
annotation
62
1
39
211
10
19.393758
20
295.206971
11
19.286889
21
294.923571
0
LINE
8
annotation
62
1
39
211
10
19.286889
20
294.923571
11
19.220742
21
294.624249
0
LINE
8
annotation
62
1
39
211
10
19.220742
20
294.624249
11
19.198079
21
294.312716
0
LINE
8
annotation
62
1
39
211
10
19.198079
20
294.312716
11
19.198079
21
292.780809
0
LINE
8
annotation
62
1
39
211
10
19.198079
20
292.780809
11
19.198079
21
292.780809
0
LINE
8
annotation
62
1
39
211
10
19.198079
20
292.780809
11
19.214603
21
292.596693
0
LINE
8
annotation
62
1
39
211
10
19.214603
20
292.596693
11
19.262232
21
292.423377
0
LINE
8
annotation
62
1
39
211
10
19.262232
20
292.423377
11
19.338049
21
292.263761
0
LINE
8
annotation
62
1
39
211
10
19.338049
20
292.263761
11
19.439137
21
292.120745
0
LINE
8
annotation
62
1
39
211
10
19.439137
20
292.120745
11
19.562579
21
291.997230
0
LINE
8
annotation
62
1
39
211
10
19.562579
20
291.997230
11
19.705460
21
291.896114
0
LINE
8
annotation
62
1
39
211
10
19.705460
20
291.896114
11
19.864863
21
291.820298
0
LINE
8
annotation
62
1
39
211
10
19.864863
20
291.820298
11
20.037870
21
291.772682
0
LINE
8
annotation
62
1
39
211
10
20.037870
20
291.772682
11
20.221566
21
291.756166
0
LINE
8
annotation
62
1
39
211
10
20.221566
20
291.756166
11
20.221566
21
291.756166
0
LINE
8
annotation
62
1
39
211
10
20.221566
20
291.756166
11
20.405643
21
291.772682
0
LINE
8
annotation
62
1
39
211
10
20.405643
20
291.772682
11
20.578853
21
291.820298
0
LINE
8
annotation
62
1
39
211
10
20.578853
20
291.820298
11
20.738315
21
291.896114
0
LINE
8
annotation
62
1
39
211
10
20.738315
20
291.896114
11
20.881148
21
291.997230
0
LINE
8
annotation
62
1
39
211
10
20.881148
20
291.997230
11
21.004472
21
292.120745
0
LINE
8
annotation
62
1
39
211
10
21.004472
20
292.120745
11
21.105405
21
292.263761
0
LINE
8
annotation
62
1
39
211
10
21.105405
20
292.263761
11
21.181067
21
292.423377
0
LINE
8
annotation
62
1
39
211
10
21.181067
20
292.423377
11
21.228577
21
292.596693
0
LINE
8
annotation
62
1
39
211
10
21.228577
20
292.596693
11
21.245054
21
292.780809
0
LINE
8
annotation
62
1
39
211
10
21.245054
20
292.780809
11
21.245054
21
293.290674
0
LINE
8
annotation
62
1
39
211
10
21.245054
20
293.290674
11
21.245054
21
293.290674
0
LINE
8
annotation
62
1
39
211
10
21.245054
20
293.290674
11
21.228577
21
293.474701
0
LINE
8
annotation
62
1
39
211
10
21.228577
20
293.474701
11
21.181067
21
293.647778
0
LINE
8
annotation
62
1
39
211
10
21.181067
20
293.647778
11
21.105405
21
293.807048
0
LINE
8
annotation
62
1
39
211
10
21.105405
20
293.807048
11
21.004472
21
293.949653
0
LINE
8
annotation
62
1
39
211
10
21.004472
20
293.949653
11
20.881148
21
294.072737
0
LINE
8
annotation
62
1
39
211
10
20.881148
20
294.072737
11
20.738315
21
294.173442
0
LINE
8
annotation
62
1
39
211
10
20.738315
20
294.173442
11
20.578853
21
294.248912
0
LINE
8
annotation
62
1
39
211
10
20.578853
20
294.248912
11
20.405643
21
294.296289
0
LINE
8
annotation
62
1
39
211
10
20.405643
20
294.296289
11
20.221566
21
294.312716
0
LINE
8
annotation
62
1
39
211
10
20.221566
20
294.312716
11
19.198079
21
294.312716
0
LINE
8
annotation
62
1
39
211
10
19.069890
20
291.180038
11
21.374399
21
291.180038
0
LINE
8
annotation
62
1
39
211
10
12.337281
20
310.679575
11
12.337281
21
315.286096
0
LINE
8
annotation
62
1
39
211
10
12.337281
20
315.286096
11
11.313192
21
314.261718
0
LINE
8
annotation
62
1
39
211
10
15.088815
20
310.679575
11
16.112903
21
315.286096
0
LINE
8
annotation
62
1
39
211
10
16.112903
20
315.286096
11
14.064437
21
315.286096
0
LINE
8
annotation
62
1
39
211
10
16.112903
20
313.234741
11
15.088815
21
313.234741
0
LINE
8
annotation
62
1
39
211
10
27.437415
20
262.994836
11
24.217533
21
262.994836
0
LINE
8
annotation
62
1
39
211
10
24.217533
20
262.994836
11
27.437415
21
268.793824
0
LINE
8
annotation
62
1
39
211
10
27.437415
20
268.793824
11
24.217533
21
268.793824
0
LINE
8
annotation
62
1
39
211
10
32.783368
20
265.894330
11
29.612581
21
265.894330
0
LINE
8
annotation
62
1
39
211
10
36.246814
20
262.994836
11
36.246814
21
268.793824
0
LINE
8
annotation
62
1
39
211
10
36.246814
20
268.793824
11
34.957625
21
267.504271
0
LINE
8
annotation
62
1
39
211
10
38.421252
20
264.280570
11
38.421252
21
264.280570
0
LINE
8
annotation
62
1
39
211
10
38.421252
20
264.280570
11
38.442043
21
264.049031
0
LINE
8
annotation
62
1
39
211
10
38.442043
20
264.049031
11
38.501969
21
263.831268
0
LINE
8
annotation
62
1
39
211
10
38.501969
20
263.831268
11
38.597360
21
263.630878
0
LINE
8
annotation
62
1
39
211
10
38.597360
20
263.630878
11
38.724547
21
263.451454
0
LINE
8
annotation
62
1
39
211
10
38.724547
20
263.451454
11
38.879861
21
263.296592
0
LINE
8
annotation
62
1
39
211
10
38.879861
20
263.296592
11
39.059631
21
263.169886
0
LINE
8
annotation
62
1
39
211
10
39.059631
20
263.169886
11
39.260189
21
263.074932
0
LINE
8
annotation
62
1
39
211
10
39.260189
20
263.074932
11
39.477864
21
263.015323
0
LINE
8
annotation
62
1
39
211
10
39.477864
20
263.015323
11
39.708987
21
262.994654
0
LINE
8
annotation
62
1
39
211
10
39.708987
20
262.994654
11
39.708987
21
262.994654
0
LINE
8
annotation
62
1
39
211
10
39.708987
20
262.994654
11
39.940110
21
263.015323
0
LINE
8
annotation
62
1
39
211
10
39.940110
20
263.015323
11
40.157785
21
263.074932
0
LINE
8
annotation
62
1
39
211
10
40.157785
20
263.074932
11
40.358343
21
263.169886
0
LINE
8
annotation
62
1
39
211
10
40.358343
20
263.169886
11
40.538113
21
263.296592
0
LINE
8
annotation
62
1
39
211
10
40.538113
20
263.296592
11
40.693427
21
263.451454
0
LINE
8
annotation
62
1
39
211
10
40.693427
20
263.451454
11
40.820614
21
263.630878
0
LINE
8
annotation
62
1
39
211
10
40.820614
20
263.630878
11
40.916005
21
263.831268
0
LINE
8
annotation
62
1
39
211
10
40.916005
20
263.831268
11
40.975931
21
264.049031
0
LINE
8
annotation
62
1
39
211
10
40.975931
20
264.049031
11
40.996722
21
264.280570
0
LINE
8
annotation
62
1
39
211
10
40.996722
20
264.280570
11
40.996722
21
264.922074
0
LINE
8
annotation
62
1
39
211
10
40.996722
20
264.922074
11
40.996722
21
264.922074
0
LINE
8
annotation
62
1
39
211
10
40.996722
20
264.922074
11
40.975943
21
265.153726
0
LINE
8
annotation
62
1
39
211
10
40.975943
20
265.153726
11
40.916047
21
265.371789
0
LINE
8
annotation
62
1
39
211
10
40.916047
20
265.371789
11
40.820695
21
265.572615
0
LINE
8
annotation
62
1
39
211
10
40.820695
20
265.572615
11
40.693546
21
265.752555
0
LINE
8
annotation
62
1
39
211
10
40.693546
20
265.752555
11
40.538263
21
265.907960
0
LINE
8
annotation
62
1
39
211
10
40.538263
20
265.907960
11
40.358505
21
266.035182
0
LINE
8
annotation
62
1
39
211
10
40.358505
20
266.035182
11
40.157932
21
266.130573
0
LINE
8
annotation
62
1
39
211
10
40.157932
20
266.130573
11
39.940206
21
266.190482
0
LINE
8
annotation
62
1
39
211
10
39.940206
20
266.190482
11
39.708987
21
266.211263
0
LINE
8
annotation
62
1
39
211
10
39.708987
20
266.211263
11
39.708987
21
266.211263
0
LINE
8
annotation
62
1
39
211
10
39.708987
20
266.211263
11
39.477768
21
266.190470
0
LINE
8
annotation
62
1
39
211
10
39.477768
20
266.190470
11
39.260042
21
266.130531
0
LINE
8
annotation
62
1
39
211
10
39.260042
20
266.130531
11
39.059469
21
266.035102
0
LINE
8
annotation
62
1
39
211
10
39.059469
20
266.035102
11
38.879711
21
265.907841
0
LINE
8
annotation
62
1
39
211
10
38.879711
20
265.907841
11
38.724428
21
265.752405
0
LINE
8
annotation
62
1
39
211
10
38.724428
20
265.752405
11
38.597279
21
265.572453
0
LINE
8
annotation
62
1
39
211
10
38.597279
20
265.572453
11
38.501927
21
265.371643
0
LINE
8
annotation
62
1
39
211
10
38.501927
20
265.371643
11
38.442031
21
265.153630
0
LINE
8
annotation
62
1
39
211
10
38.442031
20
265.153630
11
38.421252
21
264.922074
0
LINE
8
annotation
62
1
39
211
10
38.421252
20
264.922074
11
38.421252
21
264.280570
0
LINE
8
annotation
62
1
39
211
10
40.996722
20
267.500816
11
40.996722
21
267.500816
0
LINE
8
annotation
62
1
39
211
10
40.996722
20
267.500816
11
40.975943
21
267.731398
0
LINE
8
annotation
62
1
39
211
10
40.975943
20
267.731398
11
40.916047
21
267.948652
0
LINE
8
annotation
62
1
39
211
10
40.916047
20
267.948652
11
40.820695
21
268.148892
0
LINE
8
annotation
62
1
39
211
10
40.820695
20
268.148892
11
40.693546
21
268.328436
0
LINE
8
annotation
62
1
39
211
10
40.693546
20
268.328436
11
40.538263
21
268.483597
0
LINE
8
annotation
62
1
39
211
10
40.538263
20
268.483597
11
40.358505
21
268.610692
0
LINE
8
annotation
62
1
39
211
10
40.358505
20
268.610692
11
40.157932
21
268.706036
0
LINE
8
annotation
62
1
39
211
10
40.157932
20
268.706036
11
39.940206
21
268.765944
0
LINE
8
annotation
62
1
39
211
10
39.940206
20
268.765944
11
39.708987
21
268.786732
0
LINE
8
annotation
62
1
39
211
10
39.708987
20
268.786732
11
39.708987
21
268.786732
0
LINE
8
annotation
62
1
39
211
10
39.708987
20
268.786732
11
39.477768
21
268.765944
0
LINE
8
annotation
62
1
39
211
10
39.477768
20
268.765944
11
39.260042
21
268.706036
0
LINE
8
annotation
62
1
39
211
10
39.260042
20
268.706036
11
39.059469
21
268.610692
0
LINE
8
annotation
62
1
39
211
10
39.059469
20
268.610692
11
38.879711
21
268.483597
0
LINE
8
annotation
62
1
39
211
10
38.879711
20
268.483597
11
38.724428
21
268.328436
0
LINE
8
annotation
62
1
39
211
10
38.724428
20
268.328436
11
38.597279
21
268.148892
0
LINE
8
annotation
62
1
39
211
10
38.597279
20
268.148892
11
38.501927
21
267.948652
0
LINE
8
annotation
62
1
39
211
10
38.501927
20
267.948652
11
38.442031
21
267.731398
0
LINE
8
annotation
62
1
39
211
10
38.442031
20
267.731398
11
38.421252
21
267.500816
0
LINE
8
annotation
62
1
39
211
10
38.421252
20
267.500816
11
38.421252
21
267.500816
0
LINE
8
annotation
62
1
39
211
10
38.421252
20
267.500816
11
38.442043
21
267.269152
0
LINE
8
annotation
62
1
39
211
10
38.442043
20
267.269152
11
38.501969
21
267.051055
0
LINE
8
annotation
62
1
39
211
10
38.501969
20
267.051055
11
38.597360
21
266.850181
0
LINE
8
annotation
62
1
39
211
10
38.597360
20
266.850181
11
38.724547
21
266.670183
0
LINE
8
annotation
62
1
39
211
10
38.724547
20
266.670183
11
38.879861
21
266.514718
0
LINE
8
annotation
62
1
39
211
10
38.879861
20
266.514718
11
39.059631
21
266.387438
0
LINE
8
annotation
62
1
39
211
10
39.059631
20
266.387438
11
39.260189
21
266.292000
0
LINE
8
annotation
62
1
39
211
10
39.260189
20
266.292000
11
39.477864
21
266.232056
0
LINE
8
annotation
62
1
39
211
10
39.477864
20
266.232056
11
39.708987
21
266.211263
0
LINE
8
annotation
62
1
39
211
10
39.708987
20
266.211263
11
39.708987
21
266.211263
0
LINE
8
annotation
62
1
39
211
10
39.708987
20
266.211263
11
39.940110
21
266.232056
0
LINE
8
annotation
62
1
39
211
10
39.940110
20
266.232056
11
40.157785
21
266.292000
0
LINE
8
annotation
62
1
39
211
10
40.157785
20
266.292000
11
40.358343
21
266.387438
0
LINE
8
annotation
62
1
39
211
10
40.358343
20
266.387438
11
40.538113
21
266.514718
0
LINE
8
annotation
62
1
39
211
10
40.538113
20
266.514718
11
40.693427
21
266.670183
0
LINE
8
annotation
62
1
39
211
10
40.693427
20
266.670183
11
40.820614
21
266.850181
0
LINE
8
annotation
62
1
39
211
10
40.820614
20
266.850181
11
40.916005
21
267.051055
0
LINE
8
annotation
62
1
39
211
10
40.916005
20
267.051055
11
40.975931
21
267.269152
0
LINE
8
annotation
62
1
39
211
10
40.975931
20
267.269152
11
40.996722
21
267.500816
0
LINE
8
boundary
62
5
39
2
10
110.415132
20
6.892525
11
111.465306
21
7.170773
0
LINE
8
boundary
62
5
39
2
10
111.465306
20
7.170773
11
112.551519
21
7.556906
0
LINE
8
boundary
62
5
39
2
10
112.551519
20
7.556906
11
113.667995
21
8.049055
0
LINE
8
boundary
62
5
39
2
10
113.667995
20
8.049055
11
114.808937
21
8.645284
0
LINE
8
boundary
62
5
39
2
10
114.808937
20
8.645284
11
115.968653
21
9.343729
0
LINE
8
boundary
62
5
39
2
10
115.968653
20
9.343729
11
117.141494
21
10.142462
0
LINE
8
boundary
62
5
39
2
10
117.141494
20
10.142462
11
118.321890
21
11.039565
0
LINE
8
boundary
62
5
39
2
10
118.321890
20
11.039565
11
119.504379
21
12.033041
0
LINE
8
boundary
62
5
39
2
10
119.504379
20
12.033041
11
119.995307
21
12.484129
0
LINE
8
boundary
62
5
39
2
10
119.995307
20
12.484129
11
120.683589
21
13.120861
0
LINE
8
boundary
62
5
39
2
10
120.683589
20
13.120861
11
121.292663
21
13.732769
0
LINE
8
boundary
62
5
39
2
10
121.292663
20
13.732769
11
121.854267
21
14.300920
0
LINE
8
boundary
62
5
39
2
10
121.854267
20
14.300920
11
122.590215
21
15.106657
0
LINE
8
boundary
62
5
39
2
10
122.590215
20
15.106657
11
123.011257
21
15.571030
0
LINE
8
boundary
62
5
39
2
10
123.011257
20
15.571030
11
123.879919
21
16.605315
0
LINE
8
boundary
62
5
39
2
10
123.879919
20
16.605315
11
125.153448
21
18.227721
0
LINE
8
boundary
62
5
39
2
10
125.153448
20
18.227721
11
125.998497
21
19.404602
0
LINE
8
boundary
62
5
39
2
10
125.998497
20
19.404602
11
126.350067
21
19.899789
0
LINE
8
boundary
62
5
39
2
10
126.350067
20
19.899789
11
127.401465
21
21.509698
0
LINE
8
boundary
62
5
39
2
10
127.401465
20
21.509698
11
128.414973
21
23.197632
0
LINE
8
boundary
62
5
39
2
10
128.414973
20
23.197632
11
128.762255
21
23.822357
0
LINE
8
boundary
62
5
39
2
10
128.762255
20
23.822357
11
129.386213
21
24.960989
0
LINE
8
boundary
62
5
39
2
10
129.386213
20
24.960989
11
130.115802
21
26.401477
0
LINE
8
boundary
62
5
39
2
10
130.115802
20
26.401477
11
130.625700
21
27.469695
0
LINE
8
boundary
62
5
39
2
10
130.625700
20
27.469695
11
130.973113
21
28.218849
0
LINE
8
boundary
62
5
39
2
10
130.973113
20
28.218849
11
131.418370
21
29.253534
0
LINE
8
boundary
62
5
39
2
10
131.418370
20
29.253534
11
131.951341
21
30.541619
0
LINE
8
boundary
62
5
39
2
10
131.951341
20
30.541619
11
132.214184
21
31.182970
0
LINE
8
boundary
62
5
39
2
10
132.214184
20
31.182970
11
132.466193
21
31.855237
0
LINE
8
boundary
62
5
39
2
10
132.466193
20
31.855237
11
132.798022
21
32.720707
0
LINE
8
boundary
62
5
39
2
10
132.798022
20
32.720707
11
133.359401
21
34.294567
0
LINE
8
boundary
62
5
39
2
10
133.359401
20
34.294567
11
133.899787
21
35.903912
0
LINE
8
boundary
62
5
39
2
10
133.899787
20
35.903912
11
134.359369
21
37.365199
0
LINE
8
boundary
62
5
39
2
10
134.359369
20
37.365199
11
134.791476
21
38.809468
0
LINE
8
boundary
62
5
39
2
10
134.791476
20
38.809468
11
135.211419
21
40.276943
0
LINE
8
boundary
62
5
39
2
10
135.211419
20
40.276943
11
135.404256
21
40.948666
0
LINE
8
boundary
62
5
39
2
10
135.404256
20
40.948666
11
135.620095
21
41.767508
0
LINE
8
boundary
62
5
39
2
10
135.620095
20
41.767508
11
135.872844
21
42.698204
0
LINE
8
boundary
62
5
39
2
10
135.872844
20
42.698204
11
136.018376
21
43.281157
0
LINE
8
boundary
62
5
39
2
10
136.018376
20
43.281157
11
136.327269
21
44.481081
0
LINE
8
boundary
62
5
39
2
10
136.327269
20
44.481081
11
136.768805
21
46.297051
0
LINE
8
boundary
62
5
39
2
10
136.768805
20
46.297051
11
136.899426
21
46.860580
0
LINE
8
boundary
62
5
39
2
10
136.899426
20
46.860580
11
137.153821
21
47.966381
0
LINE
8
boundary
62
5
39
2
10
137.153821
20
47.966381
11
137.511184
21
49.579797
0
LINE
8
boundary
62
5
39
2
10
137.511184
20
49.579797
11
137.862136
21
51.215651
0
LINE
8
boundary
62
5
39
2
10
137.862136
20
51.215651
11
138.022511
21
51.955855
0
LINE
8
boundary
62
5
39
2
10
138.022511
20
51.955855
11
138.207373
21
52.874137
0
LINE
8
boundary
62
5
39
2
10
138.207373
20
52.874137
11
138.422301
21
53.908582
0
LINE
8
boundary
62
5
39
2
10
138.422301
20
53.908582
11
138.595599
21
54.812953
0
LINE
8
boundary
62
5
39
2
10
138.595599
20
54.812953
11
139.009080
21
56.899818
0
LINE
8
boundary
62
5
39
2
10
139.009080
20
56.899818
11
139.292880
21
58.419650
0
LINE
8
boundary
62
5
39
2
10
139.292880
20
58.419650
11
139.521215
21
59.655331
0
LINE
8
boundary
62
5
39
2
10
139.521215
20
59.655331
11
139.965671
21
62.150285
0
LINE
8
boundary
62
5
39
2
10
139.965671
20
62.150285
11
140.142615
21
63.124568
0
LINE
8
boundary
62
5
39
2
10
140.142615
20
63.124568
11
140.407914
21
64.690608
0
LINE
8
boundary
62
5
39
2
10
140.407914
20
64.690608
11
140.697769
21
66.355589
0
LINE
8
boundary
62
5
39
2
10
140.697769
20
66.355589
11
140.848967
21
67.278215
0
LINE
8
boundary
62
5
39
2
10
140.848967
20
67.278215
11
141.249952
21
69.666122
0
LINE
8
boundary
62
5
39
2
10
141.249952
20
69.666122
11
141.444688
21
70.866029
0
LINE
8
boundary
62
5
39
2
10
141.444688
20
70.866029
11
141.723024
21
72.605475
0
LINE
8
boundary
62
5
39
2
10
141.723024
20
72.605475
11
142.154493
21
75.345815
0
LINE
8
boundary
62
5
39
2
10
142.154493
20
75.345815
11
142.346687
21
76.556095
0
LINE
8
boundary
62
5
39
2
10
142.346687
20
76.556095
11
142.589454
21
78.136893
0
LINE
8
boundary
62
5
39
2
10
142.589454
20
78.136893
11
142.899429
21
80.132054
0
LINE
8
boundary
62
5
39
2
10
142.899429
20
80.132054
11
143.028338
21
80.981274
0
LINE
8
boundary
62
5
39
2
10
143.028338
20
80.981274
11
143.458724
21
83.797564
0
LINE
8
boundary
62
5
39
2
10
143.458724
20
83.797564
11
143.910870
21
86.838155
0
LINE
8
boundary
62
5
39
2
10
143.910870
20
86.838155
11
144.019576
21
87.570156
0
LINE
8
boundary
62
5
39
2
10
144.019576
20
87.570156
11
144.355712
21
89.849999
0
LINE
8
boundary
62
5
39
2
10
144.355712
20
89.849999
11
144.589200
21
91.440600
0
LINE
8
boundary
62
5
39
2
10
144.589200
20
91.440600
11
144.806909
21
92.919871
0
LINE
8
boundary
62
5
39
2
10
144.806909
20
92.919871
11
145.169737
21
95.409123
0
LINE
8
boundary
62
5
39
2
10
145.169737
20
95.409123
11
145.264260
21
96.049993
0
LINE
8
boundary
62
5
39
2
10
145.264260
20
96.049993
11
145.603979
21
98.386026
0
LINE
8
boundary
62
5
39
2
10
145.603979
20
98.386026
11
145.725908
21
99.239378
0
LINE
8
boundary
62
5
39
2
10
145.725908
20
99.239378
11
146.189664
21
102.480428
0
LINE
8
boundary
62
5
39
2
10
146.189664
20
102.480428
11
146.355426
21
103.658322
0
LINE
8
boundary
62
5
39
2
10
146.355426
20
103.658322
11
146.661055
21
105.776816
0
LINE
8
boundary
62
5
39
2
10
146.661055
20
105.776816
11
146.965372
21
107.930213
0
LINE
8
boundary
62
5
39
2
10
146.965372
20
107.930213
11
147.140186
21
109.128715
0
LINE
8
boundary
62
5
39
2
10
147.140186
20
109.128715
11
147.591402
21
112.293156
0
LINE
8
boundary
62
5
39
2
10
147.591402
20
112.293156
11
147.749002
21
113.377852
0
LINE
8
boundary
62
5
39
2
10
147.749002
20
113.377852
11
148.119171
21
115.986200
0
LINE
8
boundary
62
5
39
2
10
148.119171
20
115.986200
11
148.226116
21
116.758277
0
LINE
8
boundary
62
5
39
2
10
148.226116
20
116.758277
11
148.619391
21
119.481192
0
LINE
8
boundary
62
5
39
2
10
148.619391
20
119.481192
11
148.877390
21
121.312681
0
LINE
8
boundary
62
5
39
2
10
148.877390
20
121.312681
11
149.129635
21
123.022319
0
LINE
8
boundary
62
5
39
2
10
149.129635
20
123.022319
11
149.550737
21
125.948946
0
LINE
8
boundary
62
5
39
2
10
149.550737
20
125.948946
11
149.650418
21
126.607985
0
LINE
8
boundary
62
5
39
2
10
149.650418
20
126.607985
11
149.973726
21
128.799157
0
LINE
8
boundary
62
5
39
2
10
149.973726
20
128.799157
11
150.180717
21
130.229920
0
LINE
8
boundary
62
5
39
2
10
150.180717
20
130.229920
11
150.720535
21
133.878991
0
LINE
8
boundary
62
5
39
2
10
150.720535
20
133.878991
11
150.952858
21
135.477791
0
LINE
8
boundary
62
5
39
2
10
150.952858
20
135.477791
11
151.273099
21
137.561334
0
LINE
8
boundary
62
5
39
2
10
151.273099
20
137.561334
11
151.692696
21
140.354996
0
LINE
8
boundary
62
5
39
2
10
151.692696
20
140.354996
11
151.839033
21
141.274487
0
LINE
8
boundary
62
5
39
2
10
151.839033
20
141.274487
11
152.283255
21
144.126514
0
LINE
8
boundary
62
5
39
2
10
152.283255
20
144.126514
11
152.399652
21
144.886030
0
LINE
8
boundary
62
5
39
2
10
152.399652
20
144.886030
11
152.906915
21
148.091430
0
LINE
8
boundary
62
5
39
2
10
152.906915
20
148.091430
11
153.257201
21
150.320711
0
LINE
8
boundary
62
5
39
2
10
153.257201
20
150.320711
11
153.422228
21
151.314206
0
LINE
8
boundary
62
5
39
2
10
153.422228
20
151.314206
11
153.706524
21
153.047506
0
LINE
8
boundary
62
5
39
2
10
153.706524
20
153.047506
11
153.947669
21
154.535728
0
LINE
8
boundary
62
5
39
2
10
153.947669
20
154.535728
11
154.086056
21
155.400726
0
LINE
8
boundary
62
5
39
2
10
154.086056
20
155.400726
11
154.484064
21
157.749012
0
LINE
8
boundary
62
5
39
2
10
154.484064
20
157.749012
11
154.951407
21
160.537545
0
LINE
8
boundary
62
5
39
2
10
154.951407
20
160.537545
11
155.152693
21
161.677287
0
LINE
8
boundary
62
5
39
2
10
155.152693
20
161.677287
11
155.585925
21
164.173003
0
LINE
8
boundary
62
5
39
2
10
155.585925
20
164.173003
11
155.853144
21
165.727439
0
LINE
8
boundary
62
5
39
2
10
155.853144
20
165.727439
11
156.037413
21
166.750952
0
LINE
8
boundary
62
5
39
2
10
156.037413
20
166.750952
11
156.321382
21
168.339069
0
LINE
8
boundary
62
5
39
2
10
156.321382
20
168.339069
11
156.617588
21
169.950152
0
LINE
8
boundary
62
5
39
2
10
156.617588
20
169.950152
11
156.755484
21
170.713555
0
LINE
8
boundary
62
5
39
2
10
156.755484
20
170.713555
11
157.120890
21
172.691212
0
LINE
8
boundary
62
5
39
2
10
157.120890
20
172.691212
11
157.287658
21
173.595058
0
LINE
8
boundary
62
5
39
2
10
157.287658
20
173.595058
11
157.492032
21
174.667254
0
LINE
8
boundary
62
5
39
2
10
157.492032
20
174.667254
11
157.789735
21
176.236512
0
LINE
8
boundary
62
5
39
2
10
157.789735
20
176.236512
11
158.098220
21
177.815741
0
LINE
8
boundary
62
5
39
2
10
158.098220
20
177.815741
11
158.250883
21
178.611512
0
LINE
8
boundary
62
5
39
2
10
158.250883
20
178.611512
11
158.637016
21
180.576577
0
LINE
8
boundary
62
5
39
2
10
158.637016
20
180.576577
11
158.827326
21
181.543924
0
LINE
8
boundary
62
5
39
2
10
158.827326
20
181.543924
11
159.029237
21
182.537772
0
LINE
8
boundary
62
5
39
2
10
159.029237
20
182.537772
11
159.367506
21
184.207139
0
LINE
8
boundary
62
5
39
2
10
159.367506
20
184.207139
11
159.590570
21
185.274989
0
LINE
8
boundary
62
5
39
2
10
159.590570
20
185.274989
11
159.830536
21
186.444978
0
LINE
8
boundary
62
5
39
2
10
159.830536
20
186.444978
11
160.238458
21
188.388402
0
LINE
8
boundary
62
5
39
2
10
160.238458
20
188.388402
11
160.483497
21
189.548948
0
LINE
8
boundary
62
5
39
2
10
160.483497
20
189.548948
11
160.652792
21
190.325853
0
LINE
8
boundary
62
5
39
2
10
160.652792
20
190.325853
11
161.066442
21
192.224867
0
LINE
8
boundary
62
5
39
2
10
161.066442
20
192.224867
11
161.531706
21
194.327590
0
LINE
8
boundary
62
5
39
2
10
161.531706
20
194.327590
11
161.724692
21
195.200262
0
LINE
8
boundary
62
5
39
2
10
161.724692
20
195.200262
11
161.995738
21
196.386983
0
LINE
8
boundary
62
5
39
2
10
161.995738
20
196.386983
11
162.404934
21
198.176448
0
LINE
8
boundary
62
5
39
2
10
162.404934
20
198.176448
11
162.599986
21
199.003541
0
LINE
8
boundary
62
5
39
2
10
162.599986
20
199.003541
11
162.940874
21
200.474612
0
LINE
8
boundary
62
5
39
2
10
162.940874
20
200.474612
11
163.097970
21
201.151229
0
LINE
8
boundary
62
5
39
2
10
163.097970
20
201.151229
11
163.420058
21
202.500801
0
LINE
8
boundary
62
5
39
2
10
163.420058
20
202.500801
11
163.808317
21
204.123403
0
LINE
8
boundary
62
5
39
2
10
163.808317
20
204.123403
11
164.106306
21
205.335162
0
LINE
8
boundary
62
5
39
2
10
164.106306
20
205.335162
11
164.392958
21
206.520952
0
LINE
8
boundary
62
5
39
2
10
164.392958
20
206.520952
11
164.531106
21
207.090586
0
LINE
8
boundary
62
5
39
2
10
164.531106
20
207.090586
11
164.883982
21
208.511899
0
LINE
8
boundary
62
5
39
2
10
164.883982
20
208.511899
11
165.267639
21
210.051335
0
LINE
8
boundary
62
5
39
2
10
165.267639
20
210.051335
11
165.605189
21
211.373250
0
LINE
8
boundary
62
5
39
2
10
165.605189
20
211.373250
11
165.878146
21
212.460289
0
LINE
8
boundary
62
5
39
2
10
165.878146
20
212.460289
11
166.015120
21
213.003402
0
LINE
8
boundary
62
5
39
2
10
166.015120
20
213.003402
11
166.378093
21
214.414294
0
LINE
8
boundary
62
5
39
2
10
166.378093
20
214.414294
11
166.773873
21
215.945250
0
LINE
8
boundary
62
5
39
2
10
166.773873
20
215.945250
11
167.092715
21
217.152266
0
LINE
8
boundary
62
5
39
2
10
167.092715
20
217.152266
11
167.445148
21
218.519811
0
LINE
8
boundary
62
5
39
2
10
167.445148
20
218.519811
11
168.052410
21
220.829202
0
LINE
8
boundary
62
5
39
2
10
168.052410
20
220.829202
11
168.306898
21
221.785760
0
LINE
8
boundary
62
5
39
2
10
168.306898
20
221.785760
11
168.667113
21
223.124551
0
LINE
8
boundary
62
5
39
2
10
168.667113
20
223.124551
11
169.091331
21
224.685051
0
LINE
8
boundary
62
5
39
2
10
169.091331
20
224.685051
11
169.289117
21
225.405717
0
LINE
8
boundary
62
5
39
2
10
169.289117
20
225.405717
11
169.889587
21
227.569939
0
LINE
8
boundary
62
5
39
2
10
169.889587
20
227.569939
11
170.534920
21
229.916316
0
LINE
8
boundary
62
5
39
2
10
170.534920
20
229.916316
11
170.676476
21
230.428329
0
LINE
8
boundary
62
5
39
2
10
170.676476
20
230.428329
11
171.153633
21
232.143012
0
LINE
8
boundary
62
5
39
2
10
171.153633
20
232.143012
11
171.470090
21
233.266315
0
LINE
8
boundary
62
5
39
2
10
171.470090
20
233.266315
11
171.976564
21
235.043008
0
LINE
8
boundary
62
5
39
2
10
171.976564
20
235.043008
11
172.883196
21
238.173596
0
LINE
8
boundary
62
5
39
2
10
172.883196
20
238.173596
11
173.081284
21
238.879887
0
LINE
8
boundary
62
5
39
2
10
173.081284
20
238.879887
11
174.016782
21
242.130904
0
LINE
8
boundary
62
5
39
2
10
174.016782
20
242.130904
11
174.675334
21
244.380219
0
LINE
8
boundary
62
5
39
2
10
174.675334
20
244.380219
11
175.034671
21
245.594635
0
LINE
8
boundary
62
5
39
2
10
175.034671
20
245.594635
11
175.659837
21
247.669487
0
LINE
8
boundary
62
5
39
2
10
175.659837
20
247.669487
11
175.987291
21
248.793694
0
LINE
8
boundary
62
5
39
2
10
175.987291
20
248.793694
11
176.276807
21
249.773206
0
LINE
8
boundary
62
5
39
2
10
176.276807
20
249.773206
11
176.827902
21
251.618859
0
LINE
8
boundary
62
5
39
2
10
176.827902
20
251.618859
11
177.459129
21
253.700907
0
LINE
8
boundary
62
5
39
2
10
177.459129
20
253.700907
11
177.668467
21
254.412103
0
LINE
8
boundary
62
5
39
2
10
177.668467
20
254.412103
11
177.856003
21
255.039448
0
LINE
8
boundary
62
5
39
2
10
177.856003
20
255.039448
11
178.490154
21
257.148216
0
LINE
8
boundary
62
5
39
2
10
178.490154
20
257.148216
11
179.211158
21
259.507787
0
LINE
8
boundary
62
5
39
2
10
179.211158
20
259.507787
11
179.410284
21
260.174722
0
LINE
8
boundary
62
5
39
2
10
179.410284
20
260.174722
11
180.114072
21
262.508073
0
LINE
8
boundary
62
5
39
2
10
180.114072
20
262.508073
11
180.909708
21
265.102402
0
LINE
8
boundary
62
5
39
2
10
180.909708
20
265.102402
11
181.691441
21
267.699322
0
LINE
8
boundary
62
5
39
2
10
181.691441
20
267.699322
11
182.405418
21
270.030250
0
LINE
8
boundary
62
5
39
2
10
182.405418
20
270.030250
11
183.124795
21
272.418632
0
LINE
8
boundary
62
5
39
2
10
183.124795
20
272.418632
11
183.725867
21
274.392336
0
LINE
8
boundary
62
5
39
2
10
183.725867
20
274.392336
11
184.390971
21
276.628945
0
LINE
8
boundary
62
5
39
2
10
184.390971
20
276.628945
11
184.860444
21
278.183452
0
LINE
8
boundary
62
5
39
2
10
184.860444
20
278.183452
11
185.009742
21
278.693577
0
LINE
8
boundary
62
5
39
2
10
185.009742
20
278.693577
11
185.194585
21
279.315060
0
LINE
8
boundary
62
5
39
2
10
185.194585
20
279.315060
11
185.635643
21
280.824191
0
LINE
8
boundary
62
5
39
2
10
185.635643
20
280.824191
11
185.944265
21
281.860784
0
LINE
8
boundary
62
5
39
2
10
185.944265
20
281.860784
11
186.264417
21
282.975301
0
LINE
8
boundary
62
5
39
2
10
186.264417
20
282.975301
11
186.742718
21
284.609519
0
LINE
8
boundary
62
5
39
2
10
186.742718
20
284.609519
11
186.882461
21
285.100225
0
LINE
8
boundary
62
5
39
2
10
186.882461
20
285.100225
11
187.462159
21
287.162765
0
LINE
8
boundary
62
5
39
2
10
187.462159
20
287.162765
11
187.954099
21
288.889794
0
LINE
8
boundary
62
5
39
2
10
187.954099
20
288.889794
11
188.177431
21
289.697574
0
LINE
8
boundary
62
5
39
2
10
188.177431
20
289.697574
11
188.580293
21
291.201441
0
LINE
8
boundary
62
5
39
2
10
188.580293
20
291.201441
11
188.857920
21
292.215601
0
LINE
8
boundary
62
5
39
2
10
188.857920
20
292.215601
11
189.104498
21
293.160068
0
LINE
8
boundary
62
5
39
2
10
189.104498
20
293.160068
11
189.483941
21
294.581745
0
LINE
8
boundary
62
5
39
2
10
189.483941
20
294.581745
11
189.612182
21
295.087337
0
LINE
8
boundary
62
5
39
2
10
189.612182
20
295.087337
11
190.075142
21
296.950222
0
LINE
8
boundary
62
5
39
2
10
190.075142
20
296.950222
11
190.465295
21
298.497307
0
LINE
8
boundary
62
5
39
2
10
190.465295
20
298.497307
11
190.650754
21
299.266270
0
LINE
8
boundary
62
5
39
2
10
190.650754
20
299.266270
11
190.950558
21
300.576523
0
LINE
8
boundary
62
5
39
2
10
190.950558
20
300.576523
11
191.148664
21
301.417927
0
LINE
8
boundary
62
5
39
2
10
191.148664
20
301.417927
11
191.346016
21
302.318894
0
LINE
8
boundary
62
5
39
2
10
191.346016
20
302.318894
11
191.669816
21
303.754104
0
LINE
8
boundary
62
5
39
2
10
191.669816
20
303.754104
11
192.053209
21
305.659906
0
LINE
8
boundary
62
5
39
2
10
192.053209
20
305.659906
11
192.288705
21
306.809305
0
LINE
8
boundary
62
5
39
2
10
192.288705
20
306.809305
11
192.522336
21
308.043914
0
LINE
8
boundary
62
5
39
2
10
192.522336
20
308.043914
11
192.654916
21
308.810079
0
LINE
8
boundary
62
5
39
2
10
192.654916
20
308.810079
11
192.898384
21
310.290474
0
LINE
8
boundary
62
5
39
2
10
192.898384
20
310.290474
11
193.103081
21
311.531886
0
LINE
8
boundary
62
5
39
2
10
193.103081
20
311.531886
11
193.189548
21
312.131555
0
LINE
8
boundary
62
5
39
2
10
193.189548
20
312.131555
11
193.311069
21
313.106886
0
LINE
8
boundary
62
5
39
2
10
193.311069
20
313.106886
11
193.378318
21
313.615369
0
LINE
8
boundary
62
5
39
2
10
193.378318
20
313.615369
11
193.460630
21
314.418127
0
LINE
8
boundary
62
5
39
2
10
193.460630
20
314.418127
11
193.584074
21
315.541032
0
LINE
8
boundary
62
5
39
2
10
193.584074
20
315.541032
11
193.705671
21
317.283616
0
LINE
8
boundary
62
5
39
2
10
193.705671
20
317.283616
11
193.742953
21
318.348716
0
LINE
8
boundary
62
5
39
2
10
193.742953
20
318.348716
11
193.741841
21
319.092197
0
LINE
8
boundary
62
5
39
2
10
193.741841
20
319.092197
11
193.727705
21
319.768672
0
LINE
8
boundary
62
5
39
2
10
193.727705
20
319.768672
11
193.703903
21
320.425855
0
LINE
8
boundary
62
5
39
2
10
193.703903
20
320.425855
11
193.664517
21
321.056585
0
LINE
8
boundary
62
5
39
2
10
193.664517
20
321.056585
11
193.598523
21
321.646511
0
LINE
8
boundary
62
5
39
2
10
193.598523
20
321.646511
11
193.521940
21
322.216379
0
LINE
8
boundary
62
5
39
2
10
193.521940
20
322.216379
11
193.434062
21
322.765752
0
LINE
8
boundary
62
5
39
2
10
193.434062
20
322.765752
11
193.332992
21
323.292490
0
LINE
8
boundary
62
5
39
2
10
193.332992
20
323.292490
11
193.166954
21
323.909275
0
LINE
8
boundary
62
5
39
2
10
193.166954
20
323.909275
11
192.983811
21
324.472347
0
LINE
8
boundary
62
5
39
2
10
192.983811
20
324.472347
11
192.781608
21
324.991308
0
LINE
8
boundary
62
5
39
2
10
192.781608
20
324.991308
11
192.560327
21
325.466836
0
LINE
8
boundary
62
5
39
2
10
192.560327
20
325.466836
11
191.997801
21
326.300512
0
LINE
8
boundary
62
5
39
2
10
191.997801
20
326.300512
11
191.581329
21
326.770824
0
LINE
8
boundary
62
5
39
2
10
191.581329
20
326.770824
11
191.149243
21
327.162758
0
LINE
8
boundary
62
5
39
2
10
191.149243
20
327.162758
11
190.524582
21
327.541417
0
LINE
8
boundary
62
5
39
2
10
190.524582
20
327.541417
11
189.852128
21
327.805163
0
LINE
8
boundary
62
5
39
2
10
189.852128
20
327.805163
11
189.330611
21
327.933414
0
LINE
8
boundary
62
5
39
2
10
189.330611
20
327.933414
11
188.718817
21
328.005939
0
LINE
8
boundary
62
5
39
2
10
188.718817
20
328.005939
11
188.075408
21
328.014756
0
LINE
8
boundary
62
5
39
2
10
188.075408
20
328.014756
11
187.431854
21
327.955011
0
LINE
8
boundary
62
5
39
2
10
187.431854
20
327.955011
11
186.838064
21
327.852174
0
LINE
8
boundary
62
5
39
2
10
186.838064
20
327.852174
11
186.229810
21
327.699643
0
LINE
8
boundary
62
5
39
2
10
186.229810
20
327.699643
11
185.740438
21
327.546678
0
LINE
8
boundary
62
5
39
2
10
185.740438
20
327.546678
11
185.241052
21
327.364878
0
LINE
8
boundary
62
5
39
2
10
185.241052
20
327.364878
11
184.732280
21
327.154631
0
LINE
8
boundary
62
5
39
2
10
184.732280
20
327.154631
11
184.214756
21
326.916313
0
LINE
8
boundary
62
5
39
2
10
184.214756
20
326.916313
11
183.689128
21
326.650267
0
LINE
8
boundary
62
5
39
2
10
183.689128
20
326.650267
11
183.156065
21
326.356808
0
LINE
8
boundary
62
5
39
2
10
183.156065
20
326.356808
11
182.690193
21
326.070063
0
LINE
8
boundary
62
5
39
2
10
182.690193
20
326.070063
11
186.585099
21
325.920063
0
LINE
8
boundary
62
5
39
2
10
186.585099
20
325.920063
11
186.585099
21
323.174063
0
LINE
8
boundary
62
5
39
2
10
186.585099
20
323.174063
11
178.870770
21
323.174063
0
LINE
8
boundary
62
5
39
2
10
178.870770
20
323.174063
11
178.035812
21
322.387748
0
LINE
8
boundary
62
5
39
2
10
178.035812
20
322.387748
11
177.546636
21
321.913985
0
LINE
8
boundary
62
5
39
2
10
177.546636
20
321.913985
11
176.400291
21
320.699733
0
LINE
8
boundary
62
5
39
2
10
176.400291
20
320.699733
11
175.855005
21
320.070079
0
LINE
8
boundary
62
5
39
2
10
175.855005
20
320.070079
11
175.263163
21
319.386451
0
LINE
8
boundary
62
5
39
2
10
175.263163
20
319.386451
11
174.293952
21
318.167968
0
LINE
8
boundary
62
5
39
2
10
174.293952
20
318.167968
11
173.779053
21
317.484174
0
LINE
8
boundary
62
5
39
2
10
173.779053
20
317.484174
11
173.031045
21
316.456569
0
LINE
8
boundary
62
5
39
2
10
173.031045
20
316.456569
11
172.715674
21
315.989113
0
LINE
8
boundary
62
5
39
2
10
172.715674
20
315.989113
11
171.938022
21
314.842392
0
LINE
8
boundary
62
5
39
2
10
171.938022
20
314.842392
11
171.129854
21
313.562347
0
LINE
8
boundary
62
5
39
2
10
171.129854
20
313.562347
11
170.353129
21
312.283382
0
LINE
8
boundary
62
5
39
2
10
170.353129
20
312.283382
11
169.814466
21
311.364902
0
LINE
8
boundary
62
5
39
2
10
169.814466
20
311.364902
11
169.540156
21
310.865225
0
LINE
8
boundary
62
5
39
2
10
169.540156
20
310.865225
11
168.782595
21
309.497367
0
LINE
8
boundary
62
5
39
2
10
168.782595
20
309.497367
11
167.950488
21
307.896942
0
LINE
8
boundary
62
5
39
2
10
167.950488
20
307.896942
11
167.592599
21
307.193309
0
LINE
8
boundary
62
5
39
2
10
167.592599
20
307.193309
11
179.357749
21
307.043309
0
LINE
8
boundary
62
5
39
2
10
179.357749
20
307.043309
11
179.357749
21
304.297309
0
LINE
8
boundary
62
5
39
2
10
179.357749
20
304.297309
11
166.214536
21
304.297309
0
LINE
8
boundary
62
5
39
2
10
166.214536
20
304.297309
11
165.831542
21
303.471839
0
LINE
8
boundary
62
5
39
2
10
165.831542
20
303.471839
11
165.075479
21
301.746822
0
LINE
8
boundary
62
5
39
2
10
165.075479
20
301.746822
11
164.831099
21
301.167983
0
LINE
8
boundary
62
5
39
2
10
164.831099
20
301.167983
11
163.984065
21
299.110089
0
LINE
8
boundary
62
5
39
2
10
163.984065
20
299.110089
11
163.559769
21
298.011259
0
LINE
8
boundary
62
5
39
2
10
163.559769
20
298.011259
11
163.098916
21
296.844463
0
LINE
8
boundary
62
5
39
2
10
163.098916
20
296.844463
11
162.310702
21
294.721828
0
LINE
8
boundary
62
5
39
2
10
162.310702
20
294.721828
11
162.096489
21
294.134700
0
LINE
8
boundary
62
5
39
2
10
162.096489
20
294.134700
11
161.404463
21
292.159694
0
LINE
8
boundary
62
5
39
2
10
161.404463
20
292.159694
11
160.841174
21
290.485934
0
LINE
8
boundary
62
5
39
2
10
160.841174
20
290.485934
11
160.591069
21
289.728068
0
LINE
8
boundary
62
5
39
2
10
160.591069
20
289.728068
11
160.142379
21
288.316556
0
LINE
8
boundary
62
5
39
2
10
160.142379
20
288.316556
11
173.331443
21
288.166556
0
LINE
8
boundary
62
5
39
2
10
173.331443
20
288.166556
11
173.331443
21
285.420555
0
LINE
8
boundary
62
5
39
2
10
173.331443
20
285.420555
11
159.247157
21
285.420556
0
LINE
8
boundary
62
5
39
2
10
159.247157
20
285.420556
11
159.028895
21
284.698448
0
LINE
8
boundary
62
5
39
2
10
159.028895
20
284.698448
11
158.686842
21
283.531286
0
LINE
8
boundary
62
5
39
2
10
158.686842
20
283.531286
11
158.277842
21
282.104241
0
LINE
8
boundary
62
5
39
2
10
158.277842
20
282.104241
11
157.756720
21
280.233690
0
LINE
8
boundary
62
5
39
2
10
157.756720
20
280.233690
11
157.183471
21
278.112886
0
LINE
8
boundary
62
5
39
2
10
157.183471
20
278.112886
11
156.899188
21
277.037733
0
LINE
8
boundary
62
5
39
2
10
156.899188
20
277.037733
11
156.119982
21
273.998318
0
LINE
8
boundary
62
5
39
2
10
156.119982
20
273.998318
11
155.371787
21
270.973465
0
LINE
8
boundary
62
5
39
2
10
155.371787
20
270.973465
11
155.071950
21
269.722436
0
LINE
8
boundary
62
5
39
2
10
155.071950
20
269.722436
11
167.983181
21
269.289801
0
LINE
8
boundary
62
5
39
2
10
167.983181
20
269.289801
11
167.983181
21
266.543802
0
LINE
8
boundary
62
5
39
2
10
167.983181
20
266.543802
11
154.320670
21
266.543802
0
LINE
8
boundary
62
5
39
2
10
154.320670
20
266.543802
11
154.025279
21
265.274778
0
LINE
8
boundary
62
5
39
2
10
154.025279
20
265.274778
11
153.830309
21
264.434481
0
LINE
8
boundary
62
5
39
2
10
153.830309
20
264.434481
11
153.285867
21
262.067822
0
LINE
8
boundary
62
5
39
2
10
153.285867
20
262.067822
11
152.958202
21
260.595844
0
LINE
8
boundary
62
5
39
2
10
152.958202
20
260.595844
11
152.818133
21
259.981596
0
LINE
8
boundary
62
5
39
2
10
152.818133
20
259.981596
11
152.486834
21
258.513021
0
LINE
8
boundary
62
5
39
2
10
152.486834
20
258.513021
11
152.247786
21
257.428199
0
LINE
8
boundary
62
5
39
2
10
152.247786
20
257.428199
11
152.114588
21
256.826985
0
LINE
8
boundary
62
5
39
2
10
152.114588
20
256.826985
11
151.852777
21
255.617803
0
LINE
8
boundary
62
5
39
2
10
151.852777
20
255.617803
11
151.696305
21
254.914001
0
LINE
8
boundary
62
5
39
2
10
151.696305
20
254.914001
11
151.377373
21
253.465101
0
LINE
8
boundary
62
5
39
2
10
151.377373
20
253.465101
11
151.159757
21
252.457361
0
LINE
8
boundary
62
5
39
2
10
151.159757
20
252.457361
11
150.957916
21
251.523580
0
LINE
8
boundary
62
5
39
2
10
150.957916
20
251.523580
11
150.754885
21
250.563048
0
LINE
8
boundary
62
5
39
2
10
150.754885
20
250.563048
11
163.028442
21
250.413047
0
LINE
8
boundary
62
5
39
2
10
163.028442
20
250.413047
11
163.028442
21
247.667048
0
LINE
8
boundary
62
5
39
2
10
163.028442
20
247.667048
11
150.130532
21
247.667048
0
LINE
8
boundary
62
5
39
2
10
150.130532
20
247.667048
11
149.954889
21
246.846104
0
LINE
8
boundary
62
5
39
2
10
149.954889
20
246.846104
11
149.463008
21
244.506319
0
LINE
8
boundary
62
5
39
2
10
149.463008
20
244.506319
11
148.952380
21
242.107774
0
LINE
8
boundary
62
5
39
2
10
148.952380
20
242.107774
11
148.636854
21
240.605691
0
LINE
8
boundary
62
5
39
2
10
148.636854
20
240.605691
11
148.450336
21
239.716020
0
LINE
8
boundary
62
5
39
2
10
148.450336
20
239.716020
11
148.142893
21
238.231179
0
LINE
8
boundary
62
5
39
2
10
148.142893
20
238.231179
11
147.946498
21
237.308270
0
LINE
8
boundary
62
5
39
2
10
147.946498
20
237.308270
11
147.832675
21
236.768373
0
LINE
8
boundary
62
5
39
2
10
147.832675
20
236.768373
11
147.435404
21
234.879705
0
LINE
8
boundary
62
5
39
2
10
147.435404
20
234.879705
11
147.037132
21
232.969818
0
LINE
8
boundary
62
5
39
2
10
147.037132
20
232.969818
11
146.927418
21
232.443634
0
LINE
8
boundary
62
5
39
2
10
146.927418
20
232.443634
11
146.770761
21
231.686293
0
LINE
8
boundary
62
5
39
2
10
146.770761
20
231.686293
11
158.338164
21
231.536294
0
LINE
8
boundary
62
5
39
2
10
158.338164
20
231.536294
11
158.338163
21
228.790294
0
LINE
8
boundary
62
5
39
2
10
158.338163
20
228.790294
11
146.159309
21
228.790294
0
LINE
8
boundary
62
5
39
2
10
146.159309
20
228.790294
11
145.890889
21
227.517312
0
LINE
8
boundary
62
5
39
2
10
145.890889
20
227.517312
11
145.457374
21
225.451608
0
LINE
8
boundary
62
5
39
2
10
145.457374
20
225.451608
11
145.199995
21
224.224538
0
LINE
8
boundary
62
5
39
2
10
145.199995
20
224.224538
11
144.840839
21
222.546831
0
LINE
8
boundary
62
5
39
2
10
144.840839
20
222.546831
11
144.664739
21
221.722616
0
LINE
8
boundary
62
5
39
2
10
144.664739
20
221.722616
11
144.304556
21
220.041469
0
LINE
8
boundary
62
5
39
2
10
144.304556
20
220.041469
11
143.869200
21
218.006094
0
LINE
8
boundary
62
5
39
2
10
143.869200
20
218.006094
11
143.553451
21
216.536222
0
LINE
8
boundary
62
5
39
2
10
143.553451
20
216.536222
11
143.189421
21
214.878348
0
LINE
8
boundary
62
5
39
2
10
143.189421
20
214.878348
11
143.062828
21
214.302330
0
LINE
8
boundary
62
5
39
2
10
143.062828
20
214.302330
11
142.732928
21
212.809540
0
LINE
8
boundary
62
5
39
2
10
142.732928
20
212.809540
11
153.823393
21
212.659540
0
LINE
8
boundary
62
5
39
2
10
153.823393
20
212.659540
11
153.823393
21
209.913540
0
LINE
8
boundary
62
5
39
2
10
153.823393
20
209.913540
11
142.091620
21
209.913540
0
LINE
8
boundary
62
5
39
2
10
142.091620
20
209.913540
11
141.835366
21
208.762389
0
LINE
8
boundary
62
5
39
2
10
141.835366
20
208.762389
11
141.422899
21
206.918597
0
LINE
8
boundary
62
5
39
2
10
141.422899
20
206.918597
11
141.159524
21
205.748032
0
LINE
8
boundary
62
5
39
2
10
141.159524
20
205.748032
11
141.026944
21
205.171850
0
LINE
8
boundary
62
5
39
2
10
141.026944
20
205.171850
11
140.661118
21
203.591510
0
LINE
8
boundary
62
5
39
2
10
140.661118
20
203.591510
11
140.293182
21
202.011462
0
LINE
8
boundary
62
5
39
2
10
140.293182
20
202.011462
11
140.150166
21
201.399003
0
LINE
8
boundary
62
5
39
2
10
140.150166
20
201.399003
11
139.923022
21
200.431718
0
LINE
8
boundary
62
5
39
2
10
139.923022
20
200.431718
11
139.718437
21
199.561760
0
LINE
8
boundary
62
5
39
2
10
139.718437
20
199.561760
11
139.550538
21
198.852353
0
LINE
8
boundary
62
5
39
2
10
139.550538
20
198.852353
11
139.283580
21
197.725703
0
LINE
8
boundary
62
5
39
2
10
139.283580
20
197.725703
11
138.845373
21
195.890863
0
LINE
8
boundary
62
5
39
2
10
138.845373
20
195.890863
11
138.506065
21
194.482402
0
LINE
8
boundary
62
5
39
2
10
138.506065
20
194.482402
11
138.371161
21
193.932785
0
LINE
8
boundary
62
5
39
2
10
138.371161
20
193.932785
11
149.404712
21
193.782786
0
LINE
8
boundary
62
5
39
2
10
149.404712
20
193.782786
11
149.404712
21
191.036787
0
LINE
8
boundary
62
5
39
2
10
149.404712
20
191.036787
11
137.652751
21
191.036786
0
LINE
8
boundary
62
5
39
2
10
137.652751
20
191.036786
11
137.492376
21
190.393619
0
LINE
8
boundary
62
5
39
2
10
137.492376
20
190.393619
11
137.290511
21
189.591188
0
LINE
8
boundary
62
5
39
2
10
137.290511
20
189.591188
11
137.032125
21
188.563485
0
LINE
8
boundary
62
5
39
2
10
137.032125
20
188.563485
11
136.568685
21
186.734479
0
LINE
8
boundary
62
5
39
2
10
136.568685
20
186.734479
11
136.313448
21
185.734042
0
LINE
8
boundary
62
5
39
2
10
136.313448
20
185.734042
11
136.135866
21
185.046022
0
LINE
8
boundary
62
5
39
2
10
136.135866
20
185.046022
11
135.741201
21
183.525132
0
LINE
8
boundary
62
5
39
2
10
135.741201
20
183.525132
11
135.344663
21
182.003049
0
LINE
8
boundary
62
5
39
2
10
135.344663
20
182.003049
11
135.149675
21
181.254453
0
LINE
8
boundary
62
5
39
2
10
135.149675
20
181.254453
11
134.946382
21
180.479545
0
LINE
8
boundary
62
5
39
2
10
134.946382
20
180.479545
11
134.671785
21
179.429987
0
LINE
8
boundary
62
5
39
2
10
134.671785
20
179.429987
11
134.192491
21
177.606547
0
LINE
8
boundary
62
5
39
2
10
134.192491
20
177.606547
11
133.898888
21
176.492943
0
LINE
8
boundary
62
5
39
2
10
133.898888
20
176.492943
11
133.740201
21
175.896519
0
LINE
8
boundary
62
5
39
2
10
133.740201
20
175.896519
11
133.516208
21
175.056032
0
LINE
8
boundary
62
5
39
2
10
133.516208
20
175.056032
11
145.031494
21
174.906033
0
LINE
8
boundary
62
5
39
2
10
145.031494
20
174.906033
11
145.031494
21
172.160033
0
LINE
8
boundary
62
5
39
2
10
145.031494
20
172.160033
11
132.742736
21
172.160033
0
LINE
8
boundary
62
5
39
2
10
132.742736
20
172.160033
11
132.254221
21
170.325175
0
LINE
8
boundary
62
5
39
2
10
132.254221
20
170.325175
11
131.981582
21
169.307926
0
LINE
8
boundary
62
5
39
2
10
131.981582
20
169.307926
11
131.283996
21
166.689770
0
LINE
8
boundary
62
5
39
2
10
131.283996
20
166.689770
11
130.533822
21
163.893060
0
LINE
8
boundary
62
5
39
2
10
130.533822
20
163.893060
11
130.311927
21
163.060371
0
LINE
8
boundary
62
5
39
2
10
130.311927
20
163.060371
11
129.801586
21
161.153146
0
LINE
8
boundary
62
5
39
2
10
129.801586
20
161.153146
11
129.344817
21
159.433174
0
LINE
8
boundary
62
5
39
2
10
129.344817
20
159.433174
11
129.068866
21
158.396631
0
LINE
8
boundary
62
5
39
2
10
129.068866
20
158.396631
11
128.483105
21
156.179278
0
LINE
8
boundary
62
5
39
2
10
128.483105
20
156.179278
11
140.842188
21
156.029279
0
LINE
8
boundary
62
5
39
2
10
140.842188
20
156.029279
11
140.842188
21
153.283279
0
LINE
8
boundary
62
5
39
2
10
140.842188
20
153.283279
11
127.719570
21
153.283279
0
LINE
8
boundary
62
5
39
2
10
127.719570
20
153.283279
11
127.431074
21
152.184750
0
LINE
8
boundary
62
5
39
2
10
127.431074
20
152.184750
11
126.857791
21
149.992470
0
LINE
8
boundary
62
5
39
2
10
126.857791
20
149.992470
11
126.487133
21
148.562680
0
LINE
8
boundary
62
5
39
2
10
126.487133
20
148.562680
11
126.121159
21
147.147401
0
LINE
8
boundary
62
5
39
2
10
126.121159
20
147.147401
11
125.554542
21
144.937620
0
LINE
8
boundary
62
5
39
2
10
125.554542
20
144.937620
11
125.387561
21
144.283392
0
LINE
8
boundary
62
5
39
2
10
125.387561
20
144.283392
11
124.746518
21
141.751484
0
LINE
8
boundary
62
5
39
2
10
124.746518
20
141.751484
11
123.924642
21
138.477681
0
LINE
8
boundary
62
5
39
2
10
123.924642
20
138.477681
11
123.726623
21
137.680966
0
LINE
8
boundary
62
5
39
2
10
123.726623
20
137.680966
11
123.643647
21
137.152525
0
LINE
8
boundary
62
5
39
2
10
123.643647
20
137.152525
11
136.938942
21
137.152525
0
LINE
8
boundary
62
5
39
2
10
136.938942
20
137.152525
11
136.938942
21
134.406525
0
LINE
8
boundary
62
5
39
2
10
136.938942
20
134.406525
11
122.921619
21
134.406525
0
LINE
8
boundary
62
5
39
2
10
122.921619
20
134.406525
11
122.537608
21
132.825739
0
LINE
8
boundary
62
5
39
2
10
122.537608
20
132.825739
11
122.128843
21
131.128846
0
LINE
8
boundary
62
5
39
2
10
122.128843
20
131.128846
11
121.943251
21
130.350936
0
LINE
8
boundary
62
5
39
2
10
121.943251
20
130.350936
11
121.434119
21
128.205421
0
LINE
8
boundary
62
5
39
2
10
121.434119
20
128.205421
11
120.886081
21
125.859848
0
LINE
8
boundary
62
5
39
2
10
120.886081
20
125.859848
11
120.768816
21
125.358801
0
LINE
8
boundary
62
5
39
2
10
120.768816
20
125.358801
11
120.187673
21
122.832882
0
LINE
8
boundary
62
5
39
2
10
120.187673
20
122.832882
11
119.612401
21
120.292372
0
LINE
8
boundary
62
5
39
2
10
119.612401
20
120.292372
11
119.409290
21
119.391287
0
LINE
8
boundary
62
5
39
2
10
119.409290
20
119.391287
11
119.195318
21
118.425771
0
LINE
8
boundary
62
5
39
2
10
119.195318
20
118.425771
11
133.374221
21
118.275771
0
LINE
8
boundary
62
5
39
2
10
133.374221
20
118.275771
11
133.374221
21
115.529771
0
LINE
8
boundary
62
5
39
2
10
133.374221
20
115.529771
11
118.557152
21
115.529771
0
LINE
8
boundary
62
5
39
2
10
118.557152
20
115.529771
11
118.108010
21
113.468358
0
LINE
8
boundary
62
5
39
2
10
118.108010
20
113.468358
11
117.923248
21
112.603548
0
LINE
8
boundary
62
5
39
2
10
117.923248
20
112.603548
11
117.471200
21
110.494666
0
LINE
8
boundary
62
5
39
2
10
117.471200
20
110.494666
11
116.843340
21
107.514377
0
LINE
8
boundary
62
5
39
2
10
116.843340
20
107.514377
11
116.736317
21
106.997872
0
LINE
8
boundary
62
5
39
2
10
116.736317
20
106.997872
11
116.291889
21
104.856068
0
LINE
8
boundary
62
5
39
2
10
116.291889
20
104.856068
11
115.411964
21
100.517039
0
LINE
8
boundary
62
5
39
2
10
115.411964
20
100.517039
11
115.213865
21
99.549017
0
LINE
8
boundary
62
5
39
2
10
115.213865
20
99.549017
11
130.066355
21
99.399017
0
LINE
8
boundary
62
5
39
2
10
130.066355
20
99.399017
11
130.066355
21
96.653017
0
LINE
8
boundary
62
5
39
2
10
130.066355
20
96.653017
11
114.638317
21
96.653017
0
LINE
8
boundary
62
5
39
2
10
114.638317
20
96.653017
11
114.507357
21
95.983612
0
LINE
8
boundary
62
5
39
2
10
114.507357
20
95.983612
11
113.827297
21
92.562251
0
LINE
8
boundary
62
5
39
2
10
113.827297
20
92.562251
11
113.628720
21
91.512617
0
LINE
8
boundary
62
5
39
2
10
113.628720
20
91.512617
11
113.063529
21
88.585262
0
LINE
8
boundary
62
5
39
2
10
113.063529
20
88.585262
11
112.790563
21
87.166338
0
LINE
8
boundary
62
5
39
2
10
112.790563
20
87.166338
11
112.674107
21
86.572299
0
LINE
8
boundary
62
5
39
2
10
112.674107
20
86.572299
11
112.362897
21
84.923974
0
LINE
8
boundary
62
5
39
2
10
112.362897
20
84.923974
11
112.248374
21
84.327893
0
LINE
8
boundary
62
5
39
2
10
112.248374
20
84.327893
11
112.001642
21
83.006453
0
LINE
8
boundary
62
5
39
2
10
112.001642
20
83.006453
11
111.826322
21
82.084812
0
LINE
8
boundary
62
5
39
2
10
111.826322
20
82.084812
11
111.644230
21
81.098651
0
LINE
8
boundary
62
5
39
2
10
111.644230
20
81.098651
11
111.574224
21
80.522264
0
LINE
8
boundary
62
5
39
2
10
111.574224
20
80.522264
11
126.864744
21
80.522264
0
LINE
8
boundary
62
5
39
2
10
126.864744
20
80.522264
11
126.864744
21
77.776264
0
LINE
8
boundary
62
5
39
2
10
126.864744
20
77.776264
11
111.024826
21
77.776264
0
LINE
8
boundary
62
5
39
2
10
111.024826
20
77.776264
11
110.661393
21
75.803090
0
LINE
8
boundary
62
5
39
2
10
110.661393
20
75.803090
11
110.253195
21
73.572234
0
LINE
8
boundary
62
5
39
2
10
110.253195
20
73.572234
11
109.915649
21
71.718465
0
LINE
8
boundary
62
5
39
2
10
109.915649
20
71.718465
11
109.765924
21
70.909525
0
LINE
8
boundary
62
5
39
2
10
109.765924
20
70.909525
11
109.581404
21
69.877645
0
LINE
8
boundary
62
5
39
2
10
109.581404
20
69.877645
11
109.363050
21
68.686982
0
LINE
8
boundary
62
5
39
2
10
109.363050
20
68.686982
11
109.250314
21
68.050048
0
LINE
8
boundary
62
5
39
2
10
109.250314
20
68.050048
11
108.963314
21
66.470345
0
LINE
8
boundary
62
5
39
2
10
108.963314
20
66.470345
11
108.736392
21
65.203225
0
LINE
8
boundary
62
5
39
2
10
108.736392
20
65.203225
11
108.584578
21
64.357676
0
LINE
8
boundary
62
5
39
2
10
108.584578
20
64.357676
11
108.233240
21
62.387406
0
LINE
8
boundary
62
5
39
2
10
108.233240
20
62.387406
11
108.125581
21
61.795510
0
LINE
8
boundary
62
5
39
2
10
108.125581
20
61.795510
11
123.617569
21
61.645510
0
LINE
8
boundary
62
5
39
2
10
123.617569
20
61.645510
11
123.617569
21
58.899510
0
LINE
8
boundary
62
5
39
2
10
123.617569
20
58.899510
11
107.612474
21
58.899510
0
LINE
8
boundary
62
5
39
2
10
107.612474
20
58.899510
11
107.395325
21
57.694309
0
LINE
8
boundary
62
5
39
2
10
107.395325
20
57.694309
11
107.199626
21
56.559658
0
LINE
8
boundary
62
5
39
2
10
107.199626
20
56.559658
11
107.012654
21
55.529003
0
LINE
8
boundary
62
5
39
2
10
107.012654
20
55.529003
11
106.862263
21
54.647678
0
LINE
8
boundary
62
5
39
2
10
106.862263
20
54.647678
11
106.634490
21
53.378669
0
LINE
8
boundary
62
5
39
2
10
106.634490
20
53.378669
11
106.349993
21
51.741551
0
LINE
8
boundary
62
5
39
2
10
106.349993
20
51.741551
11
106.117781
21
50.422947
0
LINE
8
boundary
62
5
39
2
10
106.117781
20
50.422947
11
105.894107
21
49.131382
0
LINE
8
boundary
62
5
39
2
10
105.894107
20
49.131382
11
105.776014
21
48.437090
0
LINE
8
boundary
62
5
39
2
10
105.776014
20
48.437090
11
105.533977
21
47.043253
0
LINE
8
boundary
62
5
39
2
10
105.533977
20
47.043253
11
105.232958
21
45.268528
0
LINE
8
boundary
62
5
39
2
10
105.232958
20
45.268528
11
104.948724
21
43.574200
0
LINE
8
boundary
62
5
39
2
10
104.948724
20
43.574200
11
104.842506
21
42.956350
0
LINE
8
boundary
62
5
39
2
10
104.842506
20
42.956350
11
120.000304
21
42.768756
0
LINE
8
boundary
62
5
39
2
10
120.000304
20
42.768756
11
120.000304
21
40.022756
0
LINE
8
boundary
62
5
39
2
10
120.000304
20
40.022756
11
104.364151
21
40.022756
0
LINE
8
boundary
62
5
39
2
10
104.364151
20
40.022756
11
104.197061
21
38.998373
0
LINE
8
boundary
62
5
39
2
10
104.197061
20
38.998373
11
103.895271
21
37.074586
0
LINE
8
boundary
62
5
39
2
10
103.895271
20
37.074586
11
103.653855
21
35.470407
0
LINE
8
boundary
62
5
39
2
10
103.653855
20
35.470407
11
103.385134
21
33.607623
0
LINE
8
boundary
62
5
39
2
10
103.385134
20
33.607623
11
103.261628
21
32.767228
0
LINE
8
boundary
62
5
39
2
10
103.261628
20
32.767228
11
103.123095
21
31.718550
0
LINE
8
boundary
62
5
39
2
10
103.123095
20
31.718550
11
102.946193
21
30.418779
0
LINE
8
boundary
62
5
39
2
10
102.946193
20
30.418779
11
102.881124
21
29.877170
0
LINE
8
boundary
62
5
39
2
10
102.881124
20
29.877170
11
102.668912
21
28.158930
0
LINE
8
boundary
62
5
39
2
10
102.668912
20
28.158930
11
102.475885
21
26.356686
0
LINE
8
boundary
62
5
39
2
10
102.475885
20
26.356686
11
102.318616
21
24.685137
0
LINE
8
boundary
62
5
39
2
10
102.318616
20
24.685137
11
102.259525
21
24.042002
0
LINE
8
boundary
62
5
39
2
10
102.259525
20
24.042002
11
114.920433
21
23.892002
0
LINE
8
boundary
62
5
39
2
10
114.920433
20
23.892002
11
114.920433
21
21.146002
0
LINE
8
boundary
62
5
39
2
10
114.920433
20
21.146002
11
102.075292
21
21.146002
0
LINE
8
boundary
62
5
39
2
10
102.075292
20
21.146002
11
102.024810
21
20.147933
0
LINE
8
boundary
62
5
39
2
10
102.024810
20
20.147933
11
102.010846
21
19.437032
0
LINE
8
boundary
62
5
39
2
10
102.010846
20
19.437032
11
101.996719
21
18.595399
0
LINE
8
boundary
62
5
39
2
10
101.996719
20
18.595399
11
102.012892
21
17.243110
0
LINE
8
boundary
62
5
39
2
10
102.012892
20
17.243110
11
102.067812
21
15.958865
0
LINE
8
boundary
62
5
39
2
10
102.067812
20
15.958865
11
102.107400
21
15.300298
0
LINE
8
boundary
62
5
39
2
10
102.107400
20
15.300298
11
102.163990
21
14.744812
0
LINE
8
boundary
62
5
39
2
10
102.163990
20
14.744812
11
102.254712
21
13.914689
0
LINE
8
boundary
62
5
39
2
10
102.254712
20
13.914689
11
102.465628
21
12.646588
0
LINE
8
boundary
62
5
39
2
10
102.465628
20
12.646588
11
102.651093
21
11.874447
0
LINE
8
boundary
62
5
39
2
10
102.651093
20
11.874447
11
103.029141
21
10.653982
0
LINE
8
boundary
62
5
39
2
10
103.029141
20
10.653982
11
103.382560
21
9.839843
0
LINE
8
boundary
62
5
39
2
10
103.382560
20
9.839843
11
103.793983
21
9.111349
0
LINE
8
boundary
62
5
39
2
10
103.793983
20
9.111349
11
104.266852
21
8.471608
0
LINE
8
boundary
62
5
39
2
10
104.266852
20
8.471608
11
104.804801
21
7.923934
0
LINE
8
boundary
62
5
39
2
10
104.804801
20
7.923934
11
105.411301
21
7.471843
0
LINE
8
boundary
62
5
39
2
10
105.411301
20
7.471843
11
105.908740
21
7.189975
0
LINE
8
boundary
62
5
39
2
10
105.908740
20
7.189975
11
106.691411
21
6.898196
0
LINE
8
boundary
62
5
39
2
10
106.691411
20
6.898196
11
107.539160
21
6.724819
0
LINE
8
boundary
62
5
39
2
10
107.539160
20
6.724819
11
108.446234
21
6.667500
0
LINE
8
boundary
62
5
39
2
10
108.446234
20
6.667500
11
109.406832
21
6.724095
0
LINE
8
boundary
62
5
39
2
10
109.406832
20
6.724095
11
110.415132
21
6.892525
0
LINE
8
annotation
62
1
39
211
10
120.513130
20
20.119002
11
120.513130
21
20.119002
0
LINE
8
annotation
62
1
39
211
10
120.513130
20
20.119002
11
120.817945
21
20.232591
0
LINE
8
annotation
62
1
39
211
10
120.817945
20
20.232591
11
121.097728
21
20.386128
0
LINE
8
annotation
62
1
39
211
10
121.097728
20
20.386128
11
121.349586
21
20.575699
0
LINE
8
annotation
62
1
39
211
10
121.349586
20
20.575699
11
121.570630
21
20.797394
0
LINE
8
annotation
62
1
39
211
10
121.570630
20
20.797394
11
121.757967
21
21.047300
0
LINE
8
annotation
62
1
39
211
10
121.757967
20
21.047300
11
121.908707
21
21.321505
0
LINE
8
annotation
62
1
39
211
10
121.908707
20
21.321505
11
122.019957
21
21.616098
0
LINE
8
annotation
62
1
39
211
10
122.019957
20
21.616098
11
122.088828
21
21.927166
0
LINE
8
annotation
62
1
39
211
10
122.088828
20
21.927166
11
122.112428
21
22.250797
0
LINE
8
annotation
62
1
39
211
10
122.112428
20
22.250797
11
122.112428
21
23.851600
0
LINE
8
annotation
62
1
39
211
10
122.112428
20
23.851600
11
122.112428
21
23.851600
0
LINE
8
annotation
62
1
39
211
10
122.112428
20
23.851600
11
122.095268
21
24.043356
0
LINE
8
annotation
62
1
39
211
10
122.095268
20
24.043356
11
122.045789
21
24.223881
0
LINE
8
annotation
62
1
39
211
10
122.045789
20
24.223881
11
121.966992
21
24.390151
0
LINE
8
annotation
62
1
39
211
10
121.966992
20
24.390151
11
121.861877
21
24.539140
0
LINE
8
annotation
62
1
39
211
10
121.861877
20
24.539140
11
121.733443
21
24.667824
0
LINE
8
annotation
62
1
39
211
10
121.733443
20
24.667824
11
121.584691
21
24.773177
0
LINE
8
annotation
62
1
39
211
10
121.584691
20
24.773177
11
121.418621
21
24.852174
0
LINE
8
annotation
62
1
39
211
10
121.418621
20
24.852174
11
121.238234
21
24.901791
0
LINE
8
annotation
62
1
39
211
10
121.238234
20
24.901791
11
121.046530
21
24.919002
0
LINE
8
annotation
62
1
39
211
10
121.046530
20
24.919002
11
121.046530
21
24.919002
0
LINE
8
annotation
62
1
39
211
10
121.046530
20
24.919002
11
120.855222
21
24.901791
0
LINE
8
annotation
62
1
39
211
10
120.855222
20
24.901791
11
120.675046
21
24.852174
0
LINE
8
annotation
62
1
39
211
10
120.675046
20
24.852174
11
120.509038
21
24.773177
0
LINE
8
annotation
62
1
39
211
10
120.509038
20
24.773177
11
120.360237
21
24.667824
0
LINE
8
annotation
62
1
39
211
10
120.360237
20
24.667824
11
120.231679
21
24.539140
0
LINE
8
annotation
62
1
39
211
10
120.231679
20
24.539140
11
120.126402
21
24.390151
0
LINE
8
annotation
62
1
39
211
10
120.126402
20
24.390151
11
120.047444
21
24.223881
0
LINE
8
annotation
62
1
39
211
10
120.047444
20
24.223881
11
119.997842
21
24.043356
0
LINE
8
annotation
62
1
39
211
10
119.997842
20
24.043356
11
119.980633
21
23.851600
0
LINE
8
annotation
62
1
39
211
10
119.980633
20
23.851600
11
119.980633
21
23.317899
0
LINE
8
annotation
62
1
39
211
10
119.980633
20
23.317899
11
119.980633
21
23.317899
0
LINE
8
annotation
62
1
39
211
10
119.980633
20
23.317899
11
119.997842
21
23.126153
0
LINE
8
annotation
62
1
39
211
10
119.997842
20
23.126153
11
120.047444
21
22.945655
0
LINE
8
annotation
62
1
39
211
10
120.047444
20
22.945655
11
120.126402
21
22.779426
0
LINE
8
annotation
62
1
39
211
10
120.126402
20
22.779426
11
120.231679
21
22.630484
0
LINE
8
annotation
62
1
39
211
10
120.231679
20
22.630484
11
120.360237
21
22.501850
0
LINE
8
annotation
62
1
39
211
10
120.360237
20
22.501850
11
120.509038
21
22.396544
0
LINE
8
annotation
62
1
39
211
10
120.509038
20
22.396544
11
120.675046
21
22.317587
0
LINE
8
annotation
62
1
39
211
10
120.675046
20
22.317587
11
120.855222
21
22.267998
0
LINE
8
annotation
62
1
39
211
10
120.855222
20
22.267998
11
121.046530
21
22.250797
0
LINE
8
annotation
62
1
39
211
10
121.046530
20
22.250797
11
122.112428
21
22.250797
0
LINE
8
annotation
62
1
39
211
10
119.847433
20
19.519002
11
122.247433
21
19.519002
0
LINE
8
annotation
62
1
39
211
10
124.753448
20
39.086896
11
124.753448
21
43.704616
0
LINE
8
annotation
62
1
39
211
10
124.753448
20
43.704616
11
123.726870
21
42.677748
0
LINE
8
annotation
62
1
39
211
10
127.226677
20
39.147805
11
127.226677
21
39.147805
0
LINE
8
annotation
62
1
39
211
10
127.226677
20
39.147805
11
127.333998
21
39.107686
0
LINE
8
annotation
62
1
39
211
10
127.333998
20
39.107686
11
127.444065
21
39.087754
0
LINE
8
annotation
62
1
39
211
10
127.444065
20
39.087754
11
127.554390
21
39.087196
0
LINE
8
annotation
62
1
39
211
10
127.554390
20
39.087196
11
127.662484
21
39.105201
0
LINE
8
annotation
62
1
39
211
10
127.662484
20
39.105201
11
127.765859
21
39.140955
0
LINE
8
annotation
62
1
39
211
10
127.765859
20
39.140955
11
127.862026
21
39.193646
0
LINE
8
annotation
62
1
39
211
10
127.862026
20
39.193646
11
127.948497
21
39.262460
0
LINE
8
annotation
62
1
39
211
10
127.948497
20
39.262460
11
128.022785
21
39.346585
0
LINE
8
annotation
62
1
39
211
10
128.022785
20
39.346585
11
128.082400
21
39.445209
0
LINE
8
annotation
62
1
39
211
10
128.082400
20
39.445209
11
128.082400
21
39.445209
0
LINE
8
annotation
62
1
39
211
10
128.082400
20
39.445209
11
128.260269
21
39.861556
0
LINE
8
annotation
62
1
39
211
10
128.260269
20
39.861556
11
128.393671
21
40.289954
0
LINE
8
annotation
62
1
39
211
10
128.393671
20
40.289954
11
128.482606
21
40.726987
0
LINE
8
annotation
62
1
39
211
10
128.482606
20
40.726987
11
128.527073
21
41.169239
0
LINE
8
annotation
62
1
39
211
10
128.527073
20
41.169239
11
128.527073
21
41.613296
0
LINE
8
annotation
62
1
39
211
10
128.527073
20
41.613296
11
128.482606
21
42.055741
0
LINE
8
annotation
62
1
39
211
10
128.482606
20
42.055741
11
128.393671
21
42.493160
0
LINE
8
annotation
62
1
39
211
10
128.393671
20
42.493160
11
128.260269
21
42.922137
0
LINE
8
annotation
62
1
39
211
10
128.260269
20
42.922137
11
128.082400
21
43.339256
0
LINE
8
annotation
62
1
39
211
10
128.082400
20
43.339256
11
128.082400
21
43.339256
0
LINE
8
annotation
62
1
39
211
10
128.082400
20
43.339256
11
128.059780
21
43.381353
0
LINE
8
annotation
62
1
39
211
10
128.059780
20
43.381353
11
128.034136
21
43.421599
0
LINE
8
annotation
62
1
39
211
10
128.034136
20
43.421599
11
128.005660
21
43.459799
0
LINE
8
annotation
62
1
39
211
10
128.005660
20
43.459799
11
127.974546
21
43.495753
0
LINE
8
annotation
62
1
39
211
10
127.974546
20
43.495753
11
127.940986
21
43.529264
0
LINE
8
annotation
62
1
39
211
10
127.940986
20
43.529264
11
127.905174
21
43.560135
0
LINE
8
annotation
62
1
39
211
10
127.905174
20
43.560135
11
127.867303
21
43.588166
0
LINE
8
annotation
62
1
39
211
10
127.867303
20
43.588166
11
127.827565
21
43.613162
0
LINE
8
annotation
62
1
39
211
10
127.827565
20
43.613162
11
127.786155
21
43.634922
0
LINE
8
annotation
62
1
39
211
10
127.786155
20
43.634922
11
127.786155
21
43.634922
0
LINE
8
annotation
62
1
39
211
10
127.786155
20
43.634922
11
127.677981
21
43.675912
0
LINE
8
annotation
62
1
39
211
10
127.677981
20
43.675912
11
127.567269
21
43.696525
0
LINE
8
annotation
62
1
39
211
10
127.567269
20
43.696525
11
127.456478
21
43.697580
0
LINE
8
annotation
62
1
39
211
10
127.456478
20
43.697580
11
127.348069
21
43.679894
0
LINE
8
annotation
62
1
39
211
10
127.348069
20
43.679894
11
127.244500
21
43.644285
0
LINE
8
annotation
62
1
39
211
10
127.244500
20
43.644285
11
127.148231
21
43.591571
0
LINE
8
annotation
62
1
39
211
10
127.148231
20
43.591571
11
127.061723
21
43.522568
0
LINE
8
annotation
62
1
39
211
10
127.061723
20
43.522568
11
126.987434
21
43.438094
0
LINE
8
annotation
62
1
39
211
10
126.987434
20
43.438094
11
126.927825
21
43.338967
0
LINE
8
annotation
62
1
39
211
10
126.927825
20
43.338967
11
126.927825
21
43.338967
0
LINE
8
annotation
62
1
39
211
10
126.927825
20
43.338967
11
126.750814
21
42.922705
0
LINE
8
annotation
62
1
39
211
10
126.750814
20
42.922705
11
126.618055
21
42.494372
0
LINE
8
annotation
62
1
39
211
10
126.618055
20
42.494372
11
126.529549
21
42.057382
0
LINE
8
annotation
62
1
39
211
10
126.529549
20
42.057382
11
126.485297
21
41.615151
0
LINE
8
annotation
62
1
39
211
10
126.485297
20
41.615151
11
126.485297
21
41.171095
0
LINE
8
annotation
62
1
39
211
10
126.485297
20
41.171095
11
126.529549
21
40.728628
0
LINE
8
annotation
62
1
39
211
10
126.529549
20
40.728628
11
126.618055
21
40.291166
0
LINE
8
annotation
62
1
39
211
10
126.618055
20
40.291166
11
126.750814
21
39.862125
0
LINE
8
annotation
62
1
39
211
10
126.750814
20
39.862125
11
126.927825
21
39.444920
0
LINE
8
annotation
62
1
39
211
10
126.927825
20
39.444920
11
126.927825
21
39.444920
0
LINE
8
annotation
62
1
39
211
10
126.927825
20
39.444920
11
126.950363
21
39.402907
0
LINE
8
annotation
62
1
39
211
10
126.950363
20
39.402907
11
126.975818
21
39.362861
0
LINE
8
annotation
62
1
39
211
10
126.975818
20
39.362861
11
127.004082
21
39.324903
0
LINE
8
annotation
62
1
39
211
10
127.004082
20
39.324903
11
127.035050
21
39.289154
0
LINE
8
annotation
62
1
39
211
10
127.035050
20
39.289154
11
127.068613
21
39.255736
0
LINE
8
annotation
62
1
39
211
10
127.068613
20
39.255736
11
127.104665
21
39.224771
0
LINE
8
annotation
62
1
39
211
10
127.104665
20
39.224771
11
127.143097
21
39.196379
0
LINE
8
annotation
62
1
39
211
10
127.143097
20
39.196379
11
127.183804
21
39.170684
0
LINE
8
annotation
62
1
39
211
10
127.183804
20
39.170684
11
127.226677
21
39.147805
0
LINE
8
annotation
62
1
39
211
10
128.844118
20
57.872510
11
128.844118
21
62.672510
0
LINE
8
annotation
62
1
39
211
10
128.844118
20
62.672510
11
127.777016
21
61.605107
0
LINE
8
annotation
62
1
39
211
10
131.711219
20
57.872510
11
131.711219
21
62.672510
0
LINE
8
annotation
62
1
39
211
10
131.711219
20
62.672510
11
130.644118
21
61.605107
0
LINE
8
annotation
62
1
39
211
10
131.615805
20
76.845089
11
131.615805
21
81.453438
0
LINE
8
annotation
62
1
39
211
10
131.615805
20
81.453438
11
130.591310
21
80.428654
0
LINE
8
annotation
62
1
39
211
10
135.390818
20
76.845051
11
133.344140
21
76.845051
0
LINE
8
annotation
62
1
39
211
10
133.344140
20
76.845051
11
135.235337
21
79.889637
0
LINE
8
annotation
62
1
39
211
10
135.235337
20
79.889637
11
135.235337
21
79.889637
0
LINE
8
annotation
62
1
39
211
10
135.235337
20
79.889637
11
135.237598
21
79.892435
0
LINE
8
annotation
62
1
39
211
10
135.237598
20
79.892435
11
135.239766
21
79.895256
0
LINE
8
annotation
62
1
39
211
10
135.239766
20
79.895256
11
135.241856
21
79.898125
0
LINE
8
annotation
62
1
39
211
10
135.241856
20
79.898125
11
135.243881
21
79.901065
0
LINE
8
annotation
62
1
39
211
10
135.243881
20
79.901065
11
135.245857
21
79.904101
0
LINE
8
annotation
62
1
39
211
10
135.245857
20
79.904101
11
135.247796
21
79.907255
0
LINE
8
annotation
62
1
39
211
10
135.247796
20
79.907255
11
135.249715
21
79.910552
0
LINE
8
annotation
62
1
39
211
10
135.249715
20
79.910552
11
135.251626
21
79.914016
0
LINE
8
annotation
62
1
39
211
10
135.251626
20
79.914016
11
135.253544
21
79.917670
0
LINE
8
annotation
62
1
39
211
10
135.253544
20
79.917670
11
135.253544
21
79.917670
0
LINE
8
annotation
62
1
39
211
10
135.253544
20
79.917670
11
135.331631
21
80.085329
0
LINE
8
annotation
62
1
39
211
10
135.331631
20
80.085329
11
135.377249
21
80.259123
0
LINE
8
annotation
62
1
39
211
10
135.377249
20
80.259123
11
135.391514
21
80.435125
0
LINE
8
annotation
62
1
39
211
10
135.391514
20
80.435125
11
135.375545
21
80.609406
0
LINE
8
annotation
62
1
39
211
10
135.375545
20
80.609406
11
135.330460
21
80.778041
0
LINE
8
annotation
62
1
39
211
10
135.330460
20
80.778041
11
135.257376
21
80.937102
0
LINE
8
annotation
62
1
39
211
10
135.257376
20
80.937102
11
135.157413
21
81.082662
0
LINE
8
annotation
62
1
39
211
10
135.157413
20
81.082662
11
135.031686
21
81.210795
0
LINE
8
annotation
62
1
39
211
10
135.031686
20
81.210795
11
134.881316
21
81.317572
0
LINE
8
annotation
62
1
39
211
10
134.881316
20
81.317572
11
134.881316
21
81.317572
0
LINE
8
annotation
62
1
39
211
10
134.881316
20
81.317572
11
134.713190
21
81.394550
0
LINE
8
annotation
62
1
39
211
10
134.713190
20
81.394550
11
134.539130
21
81.439464
0
LINE
8
annotation
62
1
39
211
10
134.539130
20
81.439464
11
134.363026
21
81.453326
0
LINE
8
annotation
62
1
39
211
10
134.363026
20
81.453326
11
134.188771
21
81.437146
0
LINE
8
annotation
62
1
39
211
10
134.188771
20
81.437146
11
134.020255
21
81.391936
0
LINE
8
annotation
62
1
39
211
10
134.020255
20
81.391936
11
133.861370
21
81.318707
0
LINE
8
annotation
62
1
39
211
10
133.861370
20
81.318707
11
133.716007
21
81.218468
0
LINE
8
annotation
62
1
39
211
10
133.716007
20
81.218468
11
133.588058
21
81.092232
0
LINE
8
annotation
62
1
39
211
10
133.588058
20
81.092232
11
133.481413
21
80.941009
0
LINE
8
annotation
62
1
39
211
10
133.481413
20
80.941009
11
133.347030
21
80.683223
0
LINE
8
annotation
62
1
39
211
10
134.817565
20
95.721509
11
134.817565
21
100.330526
0
LINE
8
annotation
62
1
39
211
10
134.817565
20
100.330526
11
133.792922
21
99.305593
0
LINE
8
annotation
62
1
39
211
10
136.545802
20
95.721653
11
137.569290
21
95.721653
0
LINE
8
annotation
62
1
39
211
10
137.569290
20
95.721653
11
137.569290
21
95.721653
0
LINE
8
annotation
62
1
39
211
10
137.569290
20
95.721653
11
137.753366
21
95.738166
0
LINE
8
annotation
62
1
39
211
10
137.753366
20
95.738166
11
137.926576
21
95.785757
0
LINE
8
annotation
62
1
39
211
10
137.926576
20
95.785757
11
138.086038
21
95.861505
0
LINE
8
annotation
62
1
39
211
10
138.086038
20
95.861505
11
138.228871
21
95.962489
0
LINE
8
annotation
62
1
39
211
10
138.228871
20
95.962489
11
138.352195
21
96.085787
0
LINE
8
annotation
62
1
39
211
10
138.352195
20
96.085787
11
138.453128
21
96.228478
0
LINE
8
annotation
62
1
39
211
10
138.453128
20
96.228478
11
138.528790
21
96.387641
0
LINE
8
annotation
62
1
39
211
10
138.528790
20
96.387641
11
138.576300
21
96.560353
0
LINE
8
annotation
62
1
39
211
10
138.576300
20
96.560353
11
138.592777
21
96.743695
0
LINE
8
annotation
62
1
39
211
10
138.592777
20
96.743695
11
138.592777
21
97.256162
0
LINE
8
annotation
62
1
39
211
10
138.592777
20
97.256162
11
138.592777
21
97.256162
0
LINE
8
annotation
62
1
39
211
10
138.592777
20
97.256162
11
138.576300
21
97.439428
0
LINE
8
annotation
62
1
39
211
10
138.576300
20
97.439428
11
138.528790
21
97.612100
0
LINE
8
annotation
62
1
39
211
10
138.528790
20
97.612100
11
138.453128
21
97.771251
0
LINE
8
annotation
62
1
39
211
10
138.453128
20
97.771251
11
138.352195
21
97.913951
0
LINE
8
annotation
62
1
39
211
10
138.352195
20
97.913951
11
138.228871
21
98.037273
0
LINE
8
annotation
62
1
39
211
10
138.228871
20
98.037273
11
138.086038
21
98.138288
0
LINE
8
annotation
62
1
39
211
10
138.086038
20
98.138288
11
137.926576
21
98.214067
0
LINE
8
annotation
62
1
39
211
10
137.926576
20
98.214067
11
137.753366
21
98.261682
0
LINE
8
annotation
62
1
39
211
10
137.753366
20
98.261682
11
137.569290
21
98.278204
0
LINE
8
annotation
62
1
39
211
10
137.569290
20
98.278204
11
137.056823
21
98.278204
0
LINE
8
annotation
62
1
39
211
10
137.056823
20
98.278204
11
137.569290
21
98.278204
0
LINE
8
annotation
62
1
39
211
10
137.569290
20
98.278204
11
137.569290
21
98.278204
0
LINE
8
annotation
62
1
39
211
10
137.569290
20
98.278204
11
137.753366
21
98.294730
0
LINE
8
annotation
62
1
39
211
10
137.753366
20
98.294730
11
137.926576
21
98.342373
0
LINE
8
annotation
62
1
39
211
10
137.926576
20
98.342373
11
138.086038
21
98.418227
0
LINE
8
annotation
62
1
39
211
10
138.086038
20
98.418227
11
138.228871
21
98.519389
0
LINE
8
annotation
62
1
39
211
10
138.228871
20
98.519389
11
138.352195
21
98.642952
0
LINE
8
annotation
62
1
39
211
10
138.352195
20
98.642952
11
138.453128
21
98.786014
0
LINE
8
annotation
62
1
39
211
10
138.453128
20
98.786014
11
138.528790
21
98.945668
0
LINE
8
annotation
62
1
39
211
10
138.528790
20
98.945668
11
138.576300
21
99.119010
0
LINE
8
annotation
62
1
39
211
10
138.576300
20
99.119010
11
138.592777
21
99.303137
0
LINE
8
annotation
62
1
39
211
10
138.592777
20
99.303137
11
138.592777
21
99.303137
0
LINE
8
annotation
62
1
39
211
10
138.592777
20
99.303137
11
138.576300
21
99.486402
0
LINE
8
annotation
62
1
39
211
10
138.576300
20
99.486402
11
138.528790
21
99.659075
0
LINE
8
annotation
62
1
39
211
10
138.528790
20
99.659075
11
138.453128
21
99.818226
0
LINE
8
annotation
62
1
39
211
10
138.453128
20
99.818226
11
138.352195
21
99.960926
0
LINE
8
annotation
62
1
39
211
10
138.352195
20
99.960926
11
138.228871
21
100.084248
0
LINE
8
annotation
62
1
39
211
10
138.228871
20
100.084248
11
138.086038
21
100.185263
0
LINE
8
annotation
62
1
39
211
10
138.086038
20
100.185263
11
137.926576
21
100.261042
0
LINE
8
annotation
62
1
39
211
10
137.926576
20
100.261042
11
137.753366
21
100.308656
0
LINE
8
annotation
62
1
39
211
10
137.753366
20
100.308656
11
137.569290
21
100.325179
0
LINE
8
annotation
62
1
39
211
10
137.569290
20
100.325179
11
136.545802
21
100.325179
0
LINE
8
annotation
62
1
39
211
10
138.026681
20
114.820453
11
138.026681
21
118.985089
0
LINE
8
annotation
62
1
39
211
10
138.026681
20
118.985089
11
137.100829
21
118.058976
0
LINE
8
annotation
62
1
39
211
10
141.900699
20
115.746305
11
139.588289
21
115.746305
0
LINE
8
annotation
62
1
39
211
10
139.588289
20
115.746305
11
140.511790
21
118.985089
0
LINE
8
annotation
62
1
39
211
10
141.207550
20
114.820453
11
141.207550
21
116.670068
0
LINE
8
annotation
62
1
39
211
10
141.690152
20
133.475016
11
141.690152
21
138.084034
0
LINE
8
annotation
62
1
39
211
10
141.690152
20
138.084034
11
140.665508
21
137.059101
0
LINE
8
annotation
62
1
39
211
10
143.418389
20
133.475016
11
144.441877
21
133.475016
0
LINE
8
annotation
62
1
39
211
10
144.441877
20
133.475016
11
144.441877
21
133.475016
0
LINE
8
annotation
62
1
39
211
10
144.441877
20
133.475016
11
144.625573
21
133.491533
0
LINE
8
annotation
62
1
39
211
10
144.625573
20
133.491533
11
144.798580
21
133.539149
0
LINE
8
annotation
62
1
39
211
10
144.798580
20
133.539149
11
144.957983
21
133.614965
0
LINE
8
annotation
62
1
39
211
10
144.957983
20
133.614965
11
145.100863
21
133.716080
0
LINE
8
annotation
62
1
39
211
10
145.100863
20
133.716080
11
145.224306
21
133.839596
0
LINE
8
annotation
62
1
39
211
10
145.224306
20
133.839596
11
145.325394
21
133.982612
0
LINE
8
annotation
62
1
39
211
10
145.325394
20
133.982612
11
145.401211
21
134.142228
0
LINE
8
annotation
62
1
39
211
10
145.401211
20
134.142228
11
145.448840
21
134.315544
0
LINE
8
annotation
62
1
39
211
10
145.448840
20
134.315544
11
145.465364
21
134.499660
0
LINE
8
annotation
62
1
39
211
10
145.465364
20
134.499660
11
145.465364
21
135.009525
0
LINE
8
annotation
62
1
39
211
10
145.465364
20
135.009525
11
145.465364
21
135.009525
0
LINE
8
annotation
62
1
39
211
10
145.465364
20
135.009525
11
145.448849
21
135.193552
0
LINE
8
annotation
62
1
39
211
10
145.448849
20
135.193552
11
145.401244
21
135.366629
0
LINE
8
annotation
62
1
39
211
10
145.401244
20
135.366629
11
145.325458
21
135.525899
0
LINE
8
annotation
62
1
39
211
10
145.325458
20
135.525899
11
145.224401
21
135.668504
0
LINE
8
annotation
62
1
39
211
10
145.224401
20
135.668504
11
145.100982
21
135.791588
0
LINE
8
annotation
62
1
39
211
10
145.100982
20
135.791588
11
144.958111
21
135.892293
0
LINE
8
annotation
62
1
39
211
10
144.958111
20
135.892293
11
144.798697
21
135.967763
0
LINE
8
annotation
62
1
39
211
10
144.798697
20
135.967763
11
144.625649
21
136.015140
0
LINE
8
annotation
62
1
39
211
10
144.625649
20
136.015140
11
144.441877
21
136.031567
0
LINE
8
annotation
62
1
39
211
10
144.441877
20
136.031567
11
143.418389
21
136.031567
0
LINE
8
annotation
62
1
39
211
10
143.418389
20
136.031567
11
143.418389
21
138.084034
0
LINE
8
annotation
62
1
39
211
10
143.418389
20
138.084034
11
145.465364
21
138.084034
0
LINE
8
annotation
62
1
39
211
10
145.593398
20
152.351770
11
145.593398
21
156.960787
0
LINE
8
annotation
62
1
39
211
10
145.593398
20
156.960787
11
144.568755
21
155.935855
0
LINE
8
annotation
62
1
39
211
10
148.859034
20
156.960787
11
148.859034
21
156.960787
0
LINE
8
annotation
62
1
39
211
10
148.859034
20
156.960787
11
148.565831
21
156.850854
0
LINE
8
annotation
62
1
39
211
10
148.565831
20
156.850854
11
148.296778
21
156.702731
0
LINE
8
annotation
62
1
39
211
10
148.296778
20
156.702731
11
148.054638
21
156.520131
0
LINE
8
annotation
62
1
39
211
10
148.054638
20
156.520131
11
147.842173
21
156.306765
0
LINE
8
annotation
62
1
39
211
10
147.842173
20
156.306765
11
147.662145
21
156.066342
0
LINE
8
annotation
62
1
39
211
10
147.662145
20
156.066342
11
147.517315
21
155.802576
0
LINE
8
annotation
62
1
39
211
10
147.517315
20
155.802576
11
147.410445
21
155.519176
0
LINE
8
annotation
62
1
39
211
10
147.410445
20
155.519176
11
147.344298
21
155.219854
0
LINE
8
annotation
62
1
39
211
10
147.344298
20
155.219854
11
147.321635
21
154.908321
0
LINE
8
annotation
62
1
39
211
10
147.321635
20
154.908321
11
147.321635
21
153.376414
0
LINE
8
annotation
62
1
39
211
10
147.321635
20
153.376414
11
147.321635
21
153.376414
0
LINE
8
annotation
62
1
39
211
10
147.321635
20
153.376414
11
147.338160
21
153.192297
0
LINE
8
annotation
62
1
39
211
10
147.338160
20
153.192297
11
147.385788
21
153.018981
0
LINE
8
annotation
62
1
39
211
10
147.385788
20
153.018981
11
147.461605
21
152.859366
0
LINE
8
annotation
62
1
39
211
10
147.461605
20
152.859366
11
147.562693
21
152.716350
0
LINE
8
annotation
62
1
39
211
10
147.562693
20
152.716350
11
147.686136
21
152.592834
0
LINE
8
annotation
62
1
39
211
10
147.686136
20
152.592834
11
147.829017
21
152.491719
0
LINE
8
annotation
62
1
39
211
10
147.829017
20
152.491719
11
147.988419
21
152.415903
0
LINE
8
annotation
62
1
39
211
10
147.988419
20
152.415903
11
148.161427
21
152.368287
0
LINE
8
annotation
62
1
39
211
10
148.161427
20
152.368287
11
148.345123
21
152.351770
0
LINE
8
annotation
62
1
39
211
10
148.345123
20
152.351770
11
148.345123
21
152.351770
0
LINE
8
annotation
62
1
39
211
10
148.345123
20
152.351770
11
148.529199
21
152.368287
0
LINE
8
annotation
62
1
39
211
10
148.529199
20
152.368287
11
148.702409
21
152.415903
0
LINE
8
annotation
62
1
39
211
10
148.702409
20
152.415903
11
148.861871
21
152.491719
0
LINE
8
annotation
62
1
39
211
10
148.861871
20
152.491719
11
149.004704
21
152.592834
0
LINE
8
annotation
62
1
39
211
10
149.004704
20
152.592834
11
149.128028
21
152.716350
0
LINE
8
annotation
62
1
39
211
10
149.128028
20
152.716350
11
149.228961
21
152.859366
0
LINE
8
annotation
62
1
39
211
10
149.228961
20
152.859366
11
149.304623
21
153.018981
0
LINE
8
annotation
62
1
39
211
10
149.304623
20
153.018981
11
149.352133
21
153.192297
0
LINE
8
annotation
62
1
39
211
10
149.352133
20
153.192297
11
149.368610
21
153.376414
0
LINE
8
annotation
62
1
39
211
10
149.368610
20
153.376414
11
149.368610
21
153.886279
0
LINE
8
annotation
62
1
39
211
10
149.368610
20
153.886279
11
149.368610
21
153.886279
0
LINE
8
annotation
62
1
39
211
10
149.368610
20
153.886279
11
149.352133
21
154.070306
0
LINE
8
annotation
62
1
39
211
10
149.352133
20
154.070306
11
149.304623
21
154.243383
0
LINE
8
annotation
62
1
39
211
10
149.304623
20
154.243383
11
149.228961
21
154.402652
0
LINE
8
annotation
62
1
39
211
10
149.228961
20
154.402652
11
149.128028
21
154.545258
0
LINE
8
annotation
62
1
39
211
10
149.128028
20
154.545258
11
149.004704
21
154.668342
0
LINE
8
annotation
62
1
39
211
10
149.004704
20
154.668342
11
148.861871
21
154.769047
0
LINE
8
annotation
62
1
39
211
10
148.861871
20
154.769047
11
148.702409
21
154.844517
0
LINE
8
annotation
62
1
39
211
10
148.702409
20
154.844517
11
148.529199
21
154.891894
0
LINE
8
annotation
62
1
39
211
10
148.529199
20
154.891894
11
148.345123
21
154.908321
0
LINE
8
annotation
62
1
39
211
10
148.345123
20
154.908321
11
147.321635
21
154.908321
0
LINE
8
annotation
62
1
39
211
10
147.193446
20
151.775643
11
149.497955
21
151.775643
0
LINE
8
annotation
62
1
39
211
10
149.782149
20
171.229772
11
149.782149
21
175.836293
0
LINE
8
annotation
62
1
39
211
10
149.782149
20
175.836293
11
148.758061
21
174.811916
0
LINE
8
annotation
62
1
39
211
10
152.533683
20
171.229772
11
153.557772
21
175.836293
0
LINE
8
annotation
62
1
39
211
10
153.557772
20
175.836293
11
151.509306
21
175.836293
0
LINE
8
annotation
62
1
39
211
10
153.557772
20
173.784938
11
152.533683
21
173.784938
0
LINE
8
annotation
62
1
39
211
10
154.155922
20
190.105278
11
154.155922
21
194.714295
0
LINE
8
annotation
62
1
39
211
10
154.155922
20
194.714295
11
153.131279
21
193.689362
0
LINE
8
annotation
62
1
39
211
10
155.884159
20
191.127175
11
155.884159
21
191.127175
0
LINE
8
annotation
62
1
39
211
10
155.884159
20
191.127175
11
155.900684
21
190.943148
0
LINE
8
annotation
62
1
39
211
10
155.900684
20
190.943148
11
155.948312
21
190.770071
0
LINE
8
annotation
62
1
39
211
10
155.948312
20
190.770071
11
156.024129
21
190.610802
0
LINE
8
annotation
62
1
39
211
10
156.024129
20
190.610802
11
156.125217
21
190.468196
0
LINE
8
annotation
62
1
39
211
10
156.125217
20
190.468196
11
156.248660
21
190.345112
0
LINE
8
annotation
62
1
39
211
10
156.248660
20
190.345112
11
156.391541
21
190.244407
0
LINE
8
annotation
62
1
39
211
10
156.391541
20
190.244407
11
156.550943
21
190.168937
0
LINE
8
annotation
62
1
39
211
10
156.550943
20
190.168937
11
156.723951
21
190.121560
0
LINE
8
annotation
62
1
39
211
10
156.723951
20
190.121560
11
156.907647
21
190.105133
0
LINE
8
annotation
62
1
39
211
10
156.907647
20
190.105133
11
156.907647
21
190.105133
0
LINE
8
annotation
62
1
39
211
10
156.907647
20
190.105133
11
157.091343
21
190.121560
0
LINE
8
annotation
62
1
39
211
10
157.091343
20
190.121560
11
157.264350
21
190.168937
0
LINE
8
annotation
62
1
39
211
10
157.264350
20
190.168937
11
157.423753
21
190.244407
0
LINE
8
annotation
62
1
39
211
10
157.423753
20
190.244407
11
157.566634
21
190.345112
0
LINE
8
annotation
62
1
39
211
10
157.566634
20
190.345112
11
157.690076
21
190.468196
0
LINE
8
annotation
62
1
39
211
10
157.690076
20
190.468196
11
157.791164
21
190.610802
0
LINE
8
annotation
62
1
39
211
10
157.791164
20
190.610802
11
157.866981
21
190.770071
0
LINE
8
annotation
62
1
39
211
10
157.866981
20
190.770071
11
157.914610
21
190.943148
0
LINE
8
annotation
62
1
39
211
10
157.914610
20
190.943148
11
157.931134
21
191.127175
0
LINE
8
annotation
62
1
39
211
10
157.931134
20
191.127175
11
157.931134
21
191.637040
0
LINE
8
annotation
62
1
39
211
10
157.931134
20
191.637040
11
157.931134
21
191.637040
0
LINE
8
annotation
62
1
39
211
10
157.931134
20
191.637040
11
157.914619
21
191.821157
0
LINE
8
annotation
62
1
39
211
10
157.914619
20
191.821157
11
157.867014
21
191.994473
0
LINE
8
annotation
62
1
39
211
10
157.867014
20
191.994473
11
157.791228
21
192.154088
0
LINE
8
annotation
62
1
39
211
10
157.791228
20
192.154088
11
157.690171
21
192.297104
0
LINE
8
annotation
62
1
39
211
10
157.690171
20
192.297104
11
157.566752
21
192.420620
0
LINE
8
annotation
62
1
39
211
10
157.566752
20
192.420620
11
157.423881
21
192.521735
0
LINE
8
annotation
62
1
39
211
10
157.423881
20
192.521735
11
157.264467
21
192.597551
0
LINE
8
annotation
62
1
39
211
10
157.264467
20
192.597551
11
157.091419
21
192.645167
0
LINE
8
annotation
62
1
39
211
10
157.091419
20
192.645167
11
156.907647
21
192.661684
0
LINE
8
annotation
62
1
39
211
10
156.907647
20
192.661684
11
156.907647
21
192.661684
0
LINE
8
annotation
62
1
39
211
10
156.907647
20
192.661684
11
156.723874
21
192.645158
0
LINE
8
annotation
62
1
39
211
10
156.723874
20
192.645158
11
156.550826
21
192.597518
0
LINE
8
annotation
62
1
39
211
10
156.550826
20
192.597518
11
156.391412
21
192.521671
0
LINE
8
annotation
62
1
39
211
10
156.391412
20
192.521671
11
156.248541
21
192.420525
0
LINE
8
annotation
62
1
39
211
10
156.248541
20
192.420525
11
156.125122
21
192.296985
0
LINE
8
annotation
62
1
39
211
10
156.125122
20
192.296985
11
156.024065
21
192.153960
0
LINE
8
annotation
62
1
39
211
10
156.024065
20
192.153960
11
155.948279
21
191.994356
0
LINE
8
annotation
62
1
39
211
10
155.948279
20
191.994356
11
155.900674
21
191.821081
0
LINE
8
annotation
62
1
39
211
10
155.900674
20
191.821081
11
155.884159
21
191.637040
0
LINE
8
annotation
62
1
39
211
10
155.884159
20
191.637040
11
155.884159
21
191.127175
0
LINE
8
annotation
62
1
39
211
10
157.931134
20
193.686617
11
157.931134
21
193.686617
0
LINE
8
annotation
62
1
39
211
10
157.931134
20
193.686617
11
157.914619
21
193.869882
0
LINE
8
annotation
62
1
39
211
10
157.914619
20
193.869882
11
157.867014
21
194.042555
0
LINE
8
annotation
62
1
39
211
10
157.867014
20
194.042555
11
157.791228
21
194.201706
0
LINE
8
annotation
62
1
39
211
10
157.791228
20
194.201706
11
157.690171
21
194.344406
0
LINE
8
annotation
62
1
39
211
10
157.690171
20
194.344406
11
157.566752
21
194.467728
0
LINE
8
annotation
62
1
39
211
10
157.566752
20
194.467728
11
157.423881
21
194.568742
0
LINE
8
annotation
62
1
39
211
10
157.423881
20
194.568742
11
157.264467
21
194.644521
0
LINE
8
annotation
62
1
39
211
10
157.264467
20
194.644521
11
157.091419
21
194.692136
0
LINE
8
annotation
62
1
39
211
10
157.091419
20
194.692136
11
156.907647
21
194.708659
0
LINE
8
annotation
62
1
39
211
10
156.907647
20
194.708659
11
156.907647
21
194.708659
0
LINE
8
annotation
62
1
39
211
10
156.907647
20
194.708659
11
156.723874
21
194.692136
0
LINE
8
annotation
62
1
39
211
10
156.723874
20
194.692136
11
156.550826
21
194.644521
0
LINE
8
annotation
62
1
39
211
10
156.550826
20
194.644521
11
156.391412
21
194.568742
0
LINE
8
annotation
62
1
39
211
10
156.391412
20
194.568742
11
156.248541
21
194.467728
0
LINE
8
annotation
62
1
39
211
10
156.248541
20
194.467728
11
156.125122
21
194.344406
0
LINE
8
annotation
62
1
39
211
10
156.125122
20
194.344406
11
156.024065
21
194.201706
0
LINE
8
annotation
62
1
39
211
10
156.024065
20
194.201706
11
155.948279
21
194.042555
0
LINE
8
annotation
62
1
39
211
10
155.948279
20
194.042555
11
155.900674
21
193.869882
0
LINE
8
annotation
62
1
39
211
10
155.900674
20
193.869882
11
155.884159
21
193.686617
0
LINE
8
annotation
62
1
39
211
10
155.884159
20
193.686617
11
155.884159
21
193.686617
0
LINE
8
annotation
62
1
39
211
10
155.884159
20
193.686617
11
155.900684
21
193.502490
0
LINE
8
annotation
62
1
39
211
10
155.900684
20
193.502490
11
155.948312
21
193.329148
0
LINE
8
annotation
62
1
39
211
10
155.948312
20
193.329148
11
156.024129
21
193.169494
0
LINE
8
annotation
62
1
39
211
10
156.024129
20
193.169494
11
156.125217
21
193.026432
0
LINE
8
annotation
62
1
39
211
10
156.125217
20
193.026432
11
156.248660
21
192.902869
0
LINE
8
annotation
62
1
39
211
10
156.248660
20
192.902869
11
156.391541
21
192.801707
0
LINE
8
annotation
62
1
39
211
10
156.391541
20
192.801707
11
156.550943
21
192.725853
0
LINE
8
annotation
62
1
39
211
10
156.550943
20
192.725853
11
156.723951
21
192.678210
0
LINE
8
annotation
62
1
39
211
10
156.723951
20
192.678210
11
156.907647
21
192.661684
0
LINE
8
annotation
62
1
39
211
10
156.907647
20
192.661684
11
156.907647
21
192.661684
0
LINE
8
annotation
62
1
39
211
10
156.907647
20
192.661684
11
157.091343
21
192.678210
0
LINE
8
annotation
62
1
39
211
10
157.091343
20
192.678210
11
157.264350
21
192.725853
0
LINE
8
annotation
62
1
39
211
10
157.264350
20
192.725853
11
157.423753
21
192.801707
0
LINE
8
annotation
62
1
39
211
10
157.423753
20
192.801707
11
157.566634
21
192.902869
0
LINE
8
annotation
62
1
39
211
10
157.566634
20
192.902869
11
157.690076
21
193.026432
0
LINE
8
annotation
62
1
39
211
10
157.690076
20
193.026432
11
157.791164
21
193.169494
0
LINE
8
annotation
62
1
39
211
10
157.791164
20
193.169494
11
157.866981
21
193.329148
0
LINE
8
annotation
62
1
39
211
10
157.866981
20
193.329148
11
157.914610
21
193.502490
0
LINE
8
annotation
62
1
39
211
10
157.914610
20
193.502490
11
157.931134
21
193.686617
0
LINE
8
annotation
62
1
39
211
10
158.574603
20
208.982031
11
158.574603
21
213.591049
0
LINE
8
annotation
62
1
39
211
10
158.574603
20
213.591049
11
157.549959
21
212.566116
0
LINE
8
annotation
62
1
39
211
10
160.813861
20
208.982031
11
160.813861
21
208.982031
0
LINE
8
annotation
62
1
39
211
10
160.813861
20
208.982031
11
161.106548
21
209.091101
0
LINE
8
annotation
62
1
39
211
10
161.106548
20
209.091101
11
161.375199
21
209.238528
0
LINE
8
annotation
62
1
39
211
10
161.375199
20
209.238528
11
161.617037
21
209.420557
0
LINE
8
annotation
62
1
39
211
10
161.617037
20
209.420557
11
161.829285
21
209.633431
0
LINE
8
annotation
62
1
39
211
10
161.829285
20
209.633431
11
162.009169
21
209.873394
0
LINE
8
annotation
62
1
39
211
10
162.009169
20
209.873394
11
162.153911
21
210.136689
0
LINE
8
annotation
62
1
39
211
10
162.153911
20
210.136689
11
162.260735
21
210.419560
0
LINE
8
annotation
62
1
39
211
10
162.260735
20
210.419560
11
162.326865
21
210.718252
0
LINE
8
annotation
62
1
39
211
10
162.326865
20
210.718252
11
162.349526
21
211.029006
0
LINE
8
annotation
62
1
39
211
10
162.349526
20
211.029006
11
162.349526
21
212.566116
0
LINE
8
annotation
62
1
39
211
10
162.349526
20
212.566116
11
162.349526
21
212.566116
0
LINE
8
annotation
62
1
39
211
10
162.349526
20
212.566116
11
162.333049
21
212.750242
0
LINE
8
annotation
62
1
39
211
10
162.333049
20
212.750242
11
162.285539
21
212.923585
0
LINE
8
annotation
62
1
39
211
10
162.285539
20
212.923585
11
162.209877
21
213.083239
0
LINE
8
annotation
62
1
39
211
10
162.209877
20
213.083239
11
162.108944
21
213.226301
0
LINE
8
annotation
62
1
39
211
10
162.108944
20
213.226301
11
161.985620
21
213.349864
0
LINE
8
annotation
62
1
39
211
10
161.985620
20
213.349864
11
161.842787
21
213.451025
0
LINE
8
annotation
62
1
39
211
10
161.842787
20
213.451025
11
161.683325
21
213.526880
0
LINE
8
annotation
62
1
39
211
10
161.683325
20
213.526880
11
161.510115
21
213.574522
0
LINE
8
annotation
62
1
39
211
10
161.510115
20
213.574522
11
161.326038
21
213.591049
0
LINE
8
annotation
62
1
39
211
10
161.326038
20
213.591049
11
161.326038
21
213.591049
0
LINE
8
annotation
62
1
39
211
10
161.326038
20
213.591049
11
161.142342
21
213.574522
0
LINE
8
annotation
62
1
39
211
10
161.142342
20
213.574522
11
160.969335
21
213.526880
0
LINE
8
annotation
62
1
39
211
10
160.969335
20
213.526880
11
160.809932
21
213.451025
0
LINE
8
annotation
62
1
39
211
10
160.809932
20
213.451025
11
160.667051
21
213.349864
0
LINE
8
annotation
62
1
39
211
10
160.667051
20
213.349864
11
160.543609
21
213.226301
0
LINE
8
annotation
62
1
39
211
10
160.543609
20
213.226301
11
160.442521
21
213.083239
0
LINE
8
annotation
62
1
39
211
10
160.442521
20
213.083239
11
160.366704
21
212.923585
0
LINE
8
annotation
62
1
39
211
10
160.366704
20
212.923585
11
160.319075
21
212.750242
0
LINE
8
annotation
62
1
39
211
10
160.319075
20
212.750242
11
160.302551
21
212.566116
0
LINE
8
annotation
62
1
39
211
10
160.302551
20
212.566116
11
160.302551
21
212.053650
0
LINE
8
annotation
62
1
39
211
10
160.302551
20
212.053650
11
160.302551
21
212.053650
0
LINE
8
annotation
62
1
39
211
10
160.302551
20
212.053650
11
160.319075
21
211.869534
0
LINE
8
annotation
62
1
39
211
10
160.319075
20
211.869534
11
160.366704
21
211.696218
0
LINE
8
annotation
62
1
39
211
10
160.366704
20
211.696218
11
160.442521
21
211.536602
0
LINE
8
annotation
62
1
39
211
10
160.442521
20
211.536602
11
160.543609
21
211.393586
0
LINE
8
annotation
62
1
39
211
10
160.543609
20
211.393586
11
160.667051
21
211.270070
0
LINE
8
annotation
62
1
39
211
10
160.667051
20
211.270070
11
160.809932
21
211.168955
0
LINE
8
annotation
62
1
39
211
10
160.809932
20
211.168955
11
160.969335
21
211.093139
0
LINE
8
annotation
62
1
39
211
10
160.969335
20
211.093139
11
161.142342
21
211.045523
0
LINE
8
annotation
62
1
39
211
10
161.142342
20
211.045523
11
161.326038
21
211.029006
0
LINE
8
annotation
62
1
39
211
10
161.326038
20
211.029006
11
162.349526
21
211.029006
0
LINE
8
annotation
62
1
39
211
10
160.174651
20
208.405904
11
162.479160
21
208.405904
0
LINE
8
annotation
62
1
39
211
10
163.754948
20
228.260670
11
162.064973
21
228.260670
0
LINE
8
annotation
62
1
39
211
10
162.064973
20
228.260670
11
163.626565
21
230.774632
0
LINE
8
annotation
62
1
39
211
10
163.626565
20
230.774632
11
163.626565
21
230.774632
0
LINE
8
annotation
62
1
39
211
10
163.626565
20
230.774632
11
163.628432
21
230.776942
0
LINE
8
annotation
62
1
39
211
10
163.628432
20
230.776942
11
163.630222
21
230.779272
0
LINE
8
annotation
62
1
39
211
10
163.630222
20
230.779272
11
163.631948
21
230.781641
0
LINE
8
annotation
62
1
39
211
10
163.631948
20
230.781641
11
163.633620
21
230.784068
0
LINE
8
annotation
62
1
39
211
10
163.633620
20
230.784068
11
163.635251
21
230.786575
0
LINE
8
annotation
62
1
39
211
10
163.635251
20
230.786575
11
163.636853
21
230.789179
0
LINE
8
annotation
62
1
39
211
10
163.636853
20
230.789179
11
163.638437
21
230.791902
0
LINE
8
annotation
62
1
39
211
10
163.638437
20
230.791902
11
163.640015
21
230.794762
0
LINE
8
annotation
62
1
39
211
10
163.640015
20
230.794762
11
163.641599
21
230.797779
0
LINE
8
annotation
62
1
39
211
10
163.641599
20
230.797779
11
163.641599
21
230.797779
0
LINE
8
annotation
62
1
39
211
10
163.641599
20
230.797779
11
163.706077
21
230.936218
0
LINE
8
annotation
62
1
39
211
10
163.706077
20
230.936218
11
163.743743
21
231.079723
0
LINE
8
annotation
62
1
39
211
10
163.743743
20
231.079723
11
163.755522
21
231.225050
0
LINE
8
annotation
62
1
39
211
10
163.755522
20
231.225050
11
163.742337
21
231.368957
0
LINE
8
annotation
62
1
39
211
10
163.742337
20
231.368957
11
163.705109
21
231.508201
0
LINE
8
annotation
62
1
39
211
10
163.705109
20
231.508201
11
163.644763
21
231.639540
0
LINE
8
annotation
62
1
39
211
10
163.644763
20
231.639540
11
163.562221
21
231.759732
0
LINE
8
annotation
62
1
39
211
10
163.562221
20
231.759732
11
163.458407
21
231.865533
0
LINE
8
annotation
62
1
39
211
10
163.458407
20
231.865533
11
163.334244
21
231.953700
0
LINE
8
annotation
62
1
39
211
10
163.334244
20
231.953700
11
163.334244
21
231.953700
0
LINE
8
annotation
62
1
39
211
10
163.334244
20
231.953700
11
163.195420
21
232.017262
0
LINE
8
annotation
62
1
39
211
10
163.195420
20
232.017262
11
163.051696
21
232.054348
0
LINE
8
annotation
62
1
39
211
10
163.051696
20
232.054348
11
162.906284
21
232.065794
0
LINE
8
annotation
62
1
39
211
10
162.906284
20
232.065794
11
162.762399
21
232.052435
0
LINE
8
annotation
62
1
39
211
10
162.762399
20
232.052435
11
162.623252
21
232.015104
0
LINE
8
annotation
62
1
39
211
10
162.623252
20
232.015104
11
162.492058
21
231.954637
0
LINE
8
annotation
62
1
39
211
10
162.492058
20
231.954637
11
162.372030
21
231.871869
0
LINE
8
annotation
62
1
39
211
10
162.372030
20
231.871869
11
162.266380
21
231.767634
0
LINE
8
annotation
62
1
39
211
10
162.266380
20
231.767634
11
162.178323
21
231.642766
0
LINE
8
annotation
62
1
39
211
10
162.178323
20
231.642766
11
162.067360
21
231.429909
0
LINE
8
annotation
62
1
39
211
10
165.793394
20
228.310892
11
165.793394
21
228.310892
0
LINE
8
annotation
62
1
39
211
10
165.793394
20
228.310892
11
165.881832
21
228.277832
0
LINE
8
annotation
62
1
39
211
10
165.881832
20
228.277832
11
165.972531
21
228.261407
0
LINE
8
annotation
62
1
39
211
10
165.972531
20
228.261407
11
166.063443
21
228.260948
0
LINE
8
annotation
62
1
39
211
10
166.063443
20
228.260948
11
166.152517
21
228.275785
0
LINE
8
annotation
62
1
39
211
10
166.152517
20
228.275785
11
166.237702
21
228.305247
0
LINE
8
annotation
62
1
39
211
10
166.237702
20
228.305247
11
166.316948
21
228.348667
0
LINE
8
annotation
62
1
39
211
10
166.316948
20
228.348667
11
166.388203
21
228.405372
0
LINE
8
annotation
62
1
39
211
10
166.388203
20
228.405372
11
166.449419
21
228.474695
0
LINE
8
annotation
62
1
39
211
10
166.449419
20
228.474695
11
166.498545
21
228.555965
0
LINE
8
annotation
62
1
39
211
10
166.498545
20
228.555965
11
166.498545
21
228.555965
0
LINE
8
annotation
62
1
39
211
10
166.498545
20
228.555965
11
166.645116
21
228.899052
0
LINE
8
annotation
62
1
39
211
10
166.645116
20
228.899052
11
166.755045
21
229.252069
0
LINE
8
annotation
62
1
39
211
10
166.755045
20
229.252069
11
166.828331
21
229.612201
0
LINE
8
annotation
62
1
39
211
10
166.828331
20
229.612201
11
166.864973
21
229.976635
0
LINE
8
annotation
62
1
39
211
10
166.864973
20
229.976635
11
166.864973
21
230.342555
0
LINE
8
annotation
62
1
39
211
10
166.864973
20
230.342555
11
166.828331
21
230.707148
0
LINE
8
annotation
62
1
39
211
10
166.828331
20
230.707148
11
166.755045
21
231.067599
0
LINE
8
annotation
62
1
39
211
10
166.755045
20
231.067599
11
166.645116
21
231.421093
0
LINE
8
annotation
62
1
39
211
10
166.645116
20
231.421093
11
166.498545
21
231.764816
0
LINE
8
annotation
62
1
39
211
10
166.498545
20
231.764816
11
166.498545
21
231.764816
0
LINE
8
annotation
62
1
39
211
10
166.498545
20
231.764816
11
166.479905
21
231.799505
0
LINE
8
annotation
62
1
39
211
10
166.479905
20
231.799505
11
166.458773
21
231.832670
0
LINE
8
annotation
62
1
39
211
10
166.458773
20
231.832670
11
166.435308
21
231.864148
0
LINE
8
annotation
62
1
39
211
10
166.435308
20
231.864148
11
166.409668
21
231.893776
0
LINE
8
annotation
62
1
39
211
10
166.409668
20
231.893776
11
166.382014
21
231.921390
0
LINE
8
annotation
62
1
39
211
10
166.382014
20
231.921390
11
166.352503
21
231.946829
0
LINE
8
annotation
62
1
39
211
10
166.352503
20
231.946829
11
166.321296
21
231.969928
0
LINE
8
annotation
62
1
39
211
10
166.321296
20
231.969928
11
166.288551
21
231.990525
0
LINE
8
annotation
62
1
39
211
10
166.288551
20
231.990525
11
166.254427
21
232.008457
0
LINE
8
annotation
62
1
39
211
10
166.254427
20
232.008457
11
166.254427
21
232.008457
0
LINE
8
annotation
62
1
39
211
10
166.254427
20
232.008457
11
166.165287
21
232.042234
0
LINE
8
annotation
62
1
39
211
10
166.165287
20
232.042234
11
166.074056
21
232.059220
0
LINE
8
annotation
62
1
39
211
10
166.074056
20
232.059220
11
165.982760
21
232.060089
0
LINE
8
annotation
62
1
39
211
10
165.982760
20
232.060089
11
165.893426
21
232.045516
0
LINE
8
annotation
62
1
39
211
10
165.893426
20
232.045516
11
165.808081
21
232.016172
0
LINE
8
annotation
62
1
39
211
10
165.808081
20
232.016172
11
165.728752
21
231.972733
0
LINE
8
annotation
62
1
39
211
10
165.728752
20
231.972733
11
165.657466
21
231.915872
0
LINE
8
annotation
62
1
39
211
10
165.657466
20
231.915872
11
165.596249
21
231.846262
0
LINE
8
annotation
62
1
39
211
10
165.596249
20
231.846262
11
165.547129
21
231.764578
0
LINE
8
annotation
62
1
39
211
10
165.547129
20
231.764578
11
165.547129
21
231.764578
0
LINE
8
annotation
62
1
39
211
10
165.547129
20
231.764578
11
165.401264
21
231.421562
0
LINE
8
annotation
62
1
39
211
10
165.401264
20
231.421562
11
165.291866
21
231.068598
0
LINE
8
annotation
62
1
39
211
10
165.291866
20
231.068598
11
165.218933
21
230.708501
0
LINE
8
annotation
62
1
39
211
10
165.218933
20
230.708501
11
165.182467
21
230.344084
0
LINE
8
annotation
62
1
39
211
10
165.182467
20
230.344084
11
165.182467
21
229.978164
0
LINE
8
annotation
62
1
39
211
10
165.182467
20
229.978164
11
165.218933
21
229.613553
0
LINE
8
annotation
62
1
39
211
10
165.218933
20
229.613553
11
165.291866
21
229.253067
0
LINE
8
annotation
62
1
39
211
10
165.291866
20
229.253067
11
165.401264
21
228.899520
0
LINE
8
annotation
62
1
39
211
10
165.401264
20
228.899520
11
165.547129
21
228.555726
0
LINE
8
annotation
62
1
39
211
10
165.547129
20
228.555726
11
165.547129
21
228.555726
0
LINE
8
annotation
62
1
39
211
10
165.547129
20
228.555726
11
165.565700
21
228.521106
0
LINE
8
annotation
62
1
39
211
10
165.565700
20
228.521106
11
165.586676
21
228.488107
0
LINE
8
annotation
62
1
39
211
10
165.586676
20
228.488107
11
165.609968
21
228.456828
0
LINE
8
annotation
62
1
39
211
10
165.609968
20
228.456828
11
165.635486
21
228.427369
0
LINE
8
annotation
62
1
39
211
10
165.635486
20
228.427369
11
165.663144
21
228.399831
0
LINE
8
annotation
62
1
39
211
10
165.663144
20
228.399831
11
165.692852
21
228.374315
0
LINE
8
annotation
62
1
39
211
10
165.692852
20
228.374315
11
165.724522
21
228.350919
0
LINE
8
annotation
62
1
39
211
10
165.724522
20
228.350919
11
165.758065
21
228.329745
0
LINE
8
annotation
62
1
39
211
10
165.758065
20
228.329745
11
165.793394
21
228.310892
0
LINE
8
annotation
62
1
39
211
10
168.801890
20
246.735836
11
166.755212
21
246.735836
0
LINE
8
annotation
62
1
39
211
10
166.755212
20
246.735836
11
168.646409
21
249.780421
0
LINE
8
annotation
62
1
39
211
10
168.646409
20
249.780421
11
168.646409
21
249.780421
0
LINE
8
annotation
62
1
39
211
10
168.646409
20
249.780421
11
168.648670
21
249.783219
0
LINE
8
annotation
62
1
39
211
10
168.648670
20
249.783219
11
168.650838
21
249.786040
0
LINE
8
annotation
62
1
39
211
10
168.650838
20
249.786040
11
168.652928
21
249.788909
0
LINE
8
annotation
62
1
39
211
10
168.652928
20
249.788909
11
168.654953
21
249.791849
0
LINE
8
annotation
62
1
39
211
10
168.654953
20
249.791849
11
168.656929
21
249.794885
0
LINE
8
annotation
62
1
39
211
10
168.656929
20
249.794885
11
168.658868
21
249.798039
0
LINE
8
annotation
62
1
39
211
10
168.658868
20
249.798039
11
168.660787
21
249.801336
0
LINE
8
annotation
62
1
39
211
10
168.660787
20
249.801336
11
168.662698
21
249.804800
0
LINE
8
annotation
62
1
39
211
10
168.662698
20
249.804800
11
168.664616
21
249.808454
0
LINE
8
annotation
62
1
39
211
10
168.664616
20
249.808454
11
168.664616
21
249.808454
0
LINE
8
annotation
62
1
39
211
10
168.664616
20
249.808454
11
168.742703
21
249.976113
0
LINE
8
annotation
62
1
39
211
10
168.742703
20
249.976113
11
168.788321
21
250.149907
0
LINE
8
annotation
62
1
39
211
10
168.788321
20
250.149907
11
168.802586
21
250.325909
0
LINE
8
annotation
62
1
39
211
10
168.802586
20
250.325909
11
168.786617
21
250.500190
0
LINE
8
annotation
62
1
39
211
10
168.786617
20
250.500190
11
168.741532
21
250.668825
0
LINE
8
annotation
62
1
39
211
10
168.741532
20
250.668825
11
168.668448
21
250.827886
0
LINE
8
annotation
62
1
39
211
10
168.668448
20
250.827886
11
168.568484
21
250.973446
0
LINE
8
annotation
62
1
39
211
10
168.568484
20
250.973446
11
168.442758
21
251.101579
0
LINE
8
annotation
62
1
39
211
10
168.442758
20
251.101579
11
168.292388
21
251.208356
0
LINE
8
annotation
62
1
39
211
10
168.292388
20
251.208356
11
168.292388
21
251.208356
0
LINE
8
annotation
62
1
39
211
10
168.292388
20
251.208356
11
168.124262
21
251.285334
0
LINE
8
annotation
62
1
39
211
10
168.124262
20
251.285334
11
167.950202
21
251.330248
0
LINE
8
annotation
62
1
39
211
10
167.950202
20
251.330248
11
167.774098
21
251.344110
0
LINE
8
annotation
62
1
39
211
10
167.774098
20
251.344110
11
167.599843
21
251.327931
0
LINE
8
annotation
62
1
39
211
10
167.599843
20
251.327931
11
167.431327
21
251.282721
0
LINE
8
annotation
62
1
39
211
10
167.431327
20
251.282721
11
167.272442
21
251.209491
0
LINE
8
annotation
62
1
39
211
10
167.272442
20
251.209491
11
167.127079
21
251.109252
0
LINE
8
annotation
62
1
39
211
10
167.127079
20
251.109252
11
166.999130
21
250.983016
0
LINE
8
annotation
62
1
39
211
10
166.999130
20
250.983016
11
166.892485
21
250.831793
0
LINE
8
annotation
62
1
39
211
10
166.892485
20
250.831793
11
166.758102
21
250.574007
0
LINE
8
annotation
62
1
39
211
10
171.555008
20
246.735873
11
171.555008
21
251.344222
0
LINE
8
annotation
62
1
39
211
10
171.555008
20
251.344222
11
170.530513
21
250.319438
0
LINE
8
annotation
62
1
39
211
10
173.397139
20
266.017360
11
171.709992
21
266.017360
0
LINE
8
annotation
62
1
39
211
10
171.709992
20
266.017360
11
173.268972
21
268.527117
0
LINE
8
annotation
62
1
39
211
10
173.268972
20
268.527117
11
173.268972
21
268.527117
0
LINE
8
annotation
62
1
39
211
10
173.268972
20
268.527117
11
173.270835
21
268.529423
0
LINE
8
annotation
62
1
39
211
10
173.270835
20
268.529423
11
173.272622
21
268.531749
0
LINE
8
annotation
62
1
39
211
10
173.272622
20
268.531749
11
173.274345
21
268.534114
0
LINE
8
annotation
62
1
39
211
10
173.274345
20
268.534114
11
173.276015
21
268.536538
0
LINE
8
annotation
62
1
39
211
10
173.276015
20
268.536538
11
173.277643
21
268.539040
0
LINE
8
annotation
62
1
39
211
10
173.277643
20
268.539040
11
173.279242
21
268.541640
0
LINE
8
annotation
62
1
39
211
10
173.279242
20
268.541640
11
173.280823
21
268.544358
0
LINE
8
annotation
62
1
39
211
10
173.280823
20
268.544358
11
173.282399
21
268.547213
0
LINE
8
annotation
62
1
39
211
10
173.282399
20
268.547213
11
173.283980
21
268.550225
0
LINE
8
annotation
62
1
39
211
10
173.283980
20
268.550225
11
173.283980
21
268.550225
0
LINE
8
annotation
62
1
39
211
10
173.283980
20
268.550225
11
173.348350
21
268.688433
0
LINE
8
annotation
62
1
39
211
10
173.348350
20
268.688433
11
173.385954
21
268.831697
0
LINE
8
annotation
62
1
39
211
10
173.385954
20
268.831697
11
173.397713
21
268.976781
0
LINE
8
annotation
62
1
39
211
10
173.397713
20
268.976781
11
173.384549
21
269.120447
0
LINE
8
annotation
62
1
39
211
10
173.384549
20
269.120447
11
173.347384
21
269.259459
0
LINE
8
annotation
62
1
39
211
10
173.347384
20
269.259459
11
173.287139
21
269.390578
0
LINE
8
annotation
62
1
39
211
10
173.287139
20
269.390578
11
173.204735
21
269.510569
0
LINE
8
annotation
62
1
39
211
10
173.204735
20
269.510569
11
173.101095
21
269.616193
0
LINE
8
annotation
62
1
39
211
10
173.101095
20
269.616193
11
172.977139
21
269.704213
0
LINE
8
annotation
62
1
39
211
10
172.977139
20
269.704213
11
172.977139
21
269.704213
0
LINE
8
annotation
62
1
39
211
10
172.977139
20
269.704213
11
172.838547
21
269.767668
0
LINE
8
annotation
62
1
39
211
10
172.838547
20
269.767668
11
172.695063
21
269.804693
0
LINE
8
annotation
62
1
39
211
10
172.695063
20
269.804693
11
172.549895
21
269.816120
0
LINE
8
annotation
62
1
39
211
10
172.549895
20
269.816120
11
172.406251
21
269.802782
0
LINE
8
annotation
62
1
39
211
10
172.406251
20
269.802782
11
172.267337
21
269.765514
0
LINE
8
annotation
62
1
39
211
10
172.267337
20
269.765514
11
172.136363
21
269.705148
0
LINE
8
annotation
62
1
39
211
10
172.136363
20
269.705148
11
172.016535
21
269.622518
0
LINE
8
annotation
62
1
39
211
10
172.016535
20
269.622518
11
171.911062
21
269.518457
0
LINE
8
annotation
62
1
39
211
10
171.911062
20
269.518457
11
171.823151
21
269.393799
0
LINE
8
annotation
62
1
39
211
10
171.823151
20
269.393799
11
171.712374
21
269.181297
0
LINE
8
annotation
62
1
39
211
10
176.509419
20
266.017360
11
174.822271
21
266.017360
0
LINE
8
annotation
62
1
39
211
10
174.822271
20
266.017360
11
176.381251
21
268.527117
0
LINE
8
annotation
62
1
39
211
10
176.381251
20
268.527117
11
176.381251
21
268.527117
0
LINE
8
annotation
62
1
39
211
10
176.381251
20
268.527117
11
176.383114
21
268.529423
0
LINE
8
annotation
62
1
39
211
10
176.383114
20
268.529423
11
176.384901
21
268.531749
0
LINE
8
annotation
62
1
39
211
10
176.384901
20
268.531749
11
176.386624
21
268.534114
0
LINE
8
annotation
62
1
39
211
10
176.386624
20
268.534114
11
176.388294
21
268.536538
0
LINE
8
annotation
62
1
39
211
10
176.388294
20
268.536538
11
176.389922
21
268.539040
0
LINE
8
annotation
62
1
39
211
10
176.389922
20
268.539040
11
176.391521
21
268.541640
0
LINE
8
annotation
62
1
39
211
10
176.391521
20
268.541640
11
176.393102
21
268.544358
0
LINE
8
annotation
62
1
39
211
10
176.393102
20
268.544358
11
176.394678
21
268.547213
0
LINE
8
annotation
62
1
39
211
10
176.394678
20
268.547213
11
176.396259
21
268.550225
0
LINE
8
annotation
62
1
39
211
10
176.396259
20
268.550225
11
176.396259
21
268.550225
0
LINE
8
annotation
62
1
39
211
10
176.396259
20
268.550225
11
176.460629
21
268.688433
0
LINE
8
annotation
62
1
39
211
10
176.460629
20
268.688433
11
176.498233
21
268.831697
0
LINE
8
annotation
62
1
39
211
10
176.498233
20
268.831697
11
176.509992
21
268.976781
0
LINE
8
annotation
62
1
39
211
10
176.509992
20
268.976781
11
176.496828
21
269.120447
0
LINE
8
annotation
62
1
39
211
10
176.496828
20
269.120447
11
176.459663
21
269.259459
0
LINE
8
annotation
62
1
39
211
10
176.459663
20
269.259459
11
176.399418
21
269.390578
0
LINE
8
annotation
62
1
39
211
10
176.399418
20
269.390578
11
176.317014
21
269.510569
0
LINE
8
annotation
62
1
39
211
10
176.317014
20
269.510569
11
176.213374
21
269.616193
0
LINE
8
annotation
62
1
39
211
10
176.213374
20
269.616193
11
176.089418
21
269.704213
0
LINE
8
annotation
62
1
39
211
10
176.089418
20
269.704213
11
176.089418
21
269.704213
0
LINE
8
annotation
62
1
39
211
10
176.089418
20
269.704213
11
175.950826
21
269.767668
0
LINE
8
annotation
62
1
39
211
10
175.950826
20
269.767668
11
175.807343
21
269.804693
0
LINE
8
annotation
62
1
39
211
10
175.807343
20
269.804693
11
175.662174
21
269.816120
0
LINE
8
annotation
62
1
39
211
10
175.662174
20
269.816120
11
175.518530
21
269.802782
0
LINE
8
annotation
62
1
39
211
10
175.518530
20
269.802782
11
175.379616
21
269.765514
0
LINE
8
annotation
62
1
39
211
10
175.379616
20
269.765514
11
175.248642
21
269.705148
0
LINE
8
annotation
62
1
39
211
10
175.248642
20
269.705148
11
175.128814
21
269.622518
0
LINE
8
annotation
62
1
39
211
10
175.128814
20
269.622518
11
175.023341
21
269.518457
0
LINE
8
annotation
62
1
39
211
10
175.023341
20
269.518457
11
174.935430
21
269.393799
0
LINE
8
annotation
62
1
39
211
10
174.935430
20
269.393799
11
174.824653
21
269.181297
0
LINE
8
annotation
62
1
39
211
10
178.745602
20
284.893887
11
177.058253
21
284.893887
0
LINE
8
annotation
62
1
39
211
10
177.058253
20
284.893887
11
178.617419
21
287.403944
0
LINE
8
annotation
62
1
39
211
10
178.617419
20
287.403944
11
178.617419
21
287.403944
0
LINE
8
annotation
62
1
39
211
10
178.617419
20
287.403944
11
178.619283
21
287.406250
0
LINE
8
annotation
62
1
39
211
10
178.619283
20
287.406250
11
178.621070
21
287.408576
0
LINE
8
annotation
62
1
39
211
10
178.621070
20
287.408576
11
178.622793
21
287.410941
0
LINE
8
annotation
62
1
39
211
10
178.622793
20
287.410941
11
178.624463
21
287.413365
0
LINE
8
annotation
62
1
39
211
10
178.624463
20
287.413365
11
178.626092
21
287.415868
0
LINE
8
annotation
62
1
39
211
10
178.626092
20
287.415868
11
178.627691
21
287.418469
0
LINE
8
annotation
62
1
39
211
10
178.627691
20
287.418469
11
178.629272
21
287.421187
0
LINE
8
annotation
62
1
39
211
10
178.629272
20
287.421187
11
178.630848
21
287.424042
0
LINE
8
annotation
62
1
39
211
10
178.630848
20
287.424042
11
178.632429
21
287.427055
0
LINE
8
annotation
62
1
39
211
10
178.632429
20
287.427055
11
178.632429
21
287.427055
0
LINE
8
annotation
62
1
39
211
10
178.632429
20
287.427055
11
178.696807
21
287.565279
0
LINE
8
annotation
62
1
39
211
10
178.696807
20
287.565279
11
178.734415
21
287.708560
0
LINE
8
annotation
62
1
39
211
10
178.734415
20
287.708560
11
178.746176
21
287.853662
0
LINE
8
annotation
62
1
39
211
10
178.746176
20
287.853662
11
178.733011
21
287.997345
0
LINE
8
annotation
62
1
39
211
10
178.733011
20
287.997345
11
178.695841
21
288.136373
0
LINE
8
annotation
62
1
39
211
10
178.695841
20
288.136373
11
178.635589
21
288.267508
0
LINE
8
annotation
62
1
39
211
10
178.635589
20
288.267508
11
178.553175
21
288.387513
0
LINE
8
annotation
62
1
39
211
10
178.553175
20
288.387513
11
178.449523
21
288.493150
0
LINE
8
annotation
62
1
39
211
10
178.449523
20
288.493150
11
178.325552
21
288.581180
0
LINE
8
annotation
62
1
39
211
10
178.325552
20
288.581180
11
178.325552
21
288.581180
0
LINE
8
annotation
62
1
39
211
10
178.325552
20
288.581180
11
178.186944
21
288.644643
0
LINE
8
annotation
62
1
39
211
10
178.186944
20
288.644643
11
178.043443
21
288.681672
0
LINE
8
annotation
62
1
39
211
10
178.043443
20
288.681672
11
177.898257
21
288.693100
0
LINE
8
annotation
62
1
39
211
10
177.898257
20
288.693100
11
177.754595
21
288.679761
0
LINE
8
annotation
62
1
39
211
10
177.754595
20
288.679761
11
177.615665
21
288.642489
0
LINE
8
annotation
62
1
39
211
10
177.615665
20
288.642489
11
177.484675
21
288.582116
0
LINE
8
annotation
62
1
39
211
10
177.484675
20
288.582116
11
177.364833
21
288.499476
0
LINE
8
annotation
62
1
39
211
10
177.364833
20
288.499476
11
177.259347
21
288.395403
0
LINE
8
annotation
62
1
39
211
10
177.259347
20
288.395403
11
177.171426
21
288.270729
0
LINE
8
annotation
62
1
39
211
10
177.171426
20
288.270729
11
177.060636
21
288.058202
0
LINE
8
annotation
62
1
39
211
10
180.170617
20
284.894037
11
181.014292
21
284.894037
0
LINE
8
annotation
62
1
39
211
10
181.014292
20
284.894037
11
181.014292
21
284.894037
0
LINE
8
annotation
62
1
39
211
10
181.014292
20
284.894037
11
181.166029
21
284.907649
0
LINE
8
annotation
62
1
39
211
10
181.166029
20
284.907649
11
181.308808
21
284.946879
0
LINE
8
annotation
62
1
39
211
10
181.308808
20
284.946879
11
181.440255
21
285.009319
0
LINE
8
annotation
62
1
39
211
10
181.440255
20
285.009319
11
181.557994
21
285.092561
0
LINE
8
annotation
62
1
39
211
10
181.557994
20
285.092561
11
181.659652
21
285.194197
0
LINE
8
annotation
62
1
39
211
10
181.659652
20
285.194197
11
181.742852
21
285.311819
0
LINE
8
annotation
62
1
39
211
10
181.742852
20
285.311819
11
181.805221
21
285.443019
0
LINE
8
annotation
62
1
39
211
10
181.805221
20
285.443019
11
181.844384
21
285.585389
0
LINE
8
annotation
62
1
39
211
10
181.844384
20
285.585389
11
181.857967
21
285.736520
0
LINE
8
annotation
62
1
39
211
10
181.857967
20
285.736520
11
181.857967
21
286.158953
0
LINE
8
annotation
62
1
39
211
10
181.857967
20
286.158953
11
181.857967
21
286.158953
0
LINE
8
annotation
62
1
39
211
10
181.857967
20
286.158953
11
181.844384
21
286.310021
0
LINE
8
annotation
62
1
39
211
10
181.844384
20
286.310021
11
181.805221
21
286.452358
0
LINE
8
annotation
62
1
39
211
10
181.805221
20
286.452358
11
181.742852
21
286.583548
0
LINE
8
annotation
62
1
39
211
10
181.742852
20
286.583548
11
181.659652
21
286.701178
0
LINE
8
annotation
62
1
39
211
10
181.659652
20
286.701178
11
181.557994
21
286.802834
0
LINE
8
annotation
62
1
39
211
10
181.557994
20
286.802834
11
181.440255
21
286.886101
0
LINE
8
annotation
62
1
39
211
10
181.440255
20
286.886101
11
181.308808
21
286.948567
0
LINE
8
annotation
62
1
39
211
10
181.308808
20
286.948567
11
181.166029
21
286.987817
0
LINE
8
annotation
62
1
39
211
10
181.166029
20
286.987817
11
181.014292
21
287.001436
0
LINE
8
annotation
62
1
39
211
10
181.014292
20
287.001436
11
180.591859
21
287.001436
0
LINE
8
annotation
62
1
39
211
10
180.591859
20
287.001436
11
181.014292
21
287.001436
0
LINE
8
annotation
62
1
39
211
10
181.014292
20
287.001436
11
181.014292
21
287.001436
0
LINE
8
annotation
62
1
39
211
10
181.014292
20
287.001436
11
181.166029
21
287.015059
0
LINE
8
annotation
62
1
39
211
10
181.166029
20
287.015059
11
181.308808
21
287.054332
0
LINE
8
annotation
62
1
39
211
10
181.308808
20
287.054332
11
181.440255
21
287.116859
0
LINE
8
annotation
62
1
39
211
10
181.440255
20
287.116859
11
181.557994
21
287.200248
0
LINE
8
annotation
62
1
39
211
10
181.557994
20
287.200248
11
181.659652
21
287.302103
0
LINE
8
annotation
62
1
39
211
10
181.659652
20
287.302103
11
181.742852
21
287.420030
0
LINE
8
annotation
62
1
39
211
10
181.742852
20
287.420030
11
181.805221
21
287.551636
0
LINE
8
annotation
62
1
39
211
10
181.805221
20
287.551636
11
181.844384
21
287.694524
0
LINE
8
annotation
62
1
39
211
10
181.844384
20
287.694524
11
181.857967
21
287.846302
0
LINE
8
annotation
62
1
39
211
10
181.857967
20
287.846302
11
181.857967
21
287.846302
0
LINE
8
annotation
62
1
39
211
10
181.857967
20
287.846302
11
181.844384
21
287.997371
0
LINE
8
annotation
62
1
39
211
10
181.844384
20
287.997371
11
181.805221
21
288.139707
0
LINE
8
annotation
62
1
39
211
10
181.805221
20
288.139707
11
181.742852
21
288.270897
0
LINE
8
annotation
62
1
39
211
10
181.742852
20
288.270897
11
181.659652
21
288.388527
0
LINE
8
annotation
62
1
39
211
10
181.659652
20
288.388527
11
181.557994
21
288.490183
0
LINE
8
annotation
62
1
39
211
10
181.557994
20
288.490183
11
181.440255
21
288.573450
0
LINE
8
annotation
62
1
39
211
10
181.440255
20
288.573450
11
181.308808
21
288.635916
0
LINE
8
annotation
62
1
39
211
10
181.308808
20
288.635916
11
181.166029
21
288.675166
0
LINE
8
annotation
62
1
39
211
10
181.166029
20
288.675166
11
181.014292
21
288.688785
0
LINE
8
annotation
62
1
39
211
10
181.014292
20
288.688785
11
180.170617
21
288.688785
0
LINE
8
annotation
62
1
39
211
10
184.635508
20
303.924222
11
183.084575
21
303.924222
0
LINE
8
annotation
62
1
39
211
10
183.084575
20
303.924222
11
184.517688
21
306.231350
0
LINE
8
annotation
62
1
39
211
10
184.517688
20
306.231350
11
184.517688
21
306.231350
0
LINE
8
annotation
62
1
39
211
10
184.517688
20
306.231350
11
184.519401
21
306.233470
0
LINE
8
annotation
62
1
39
211
10
184.519401
20
306.233470
11
184.521044
21
306.235608
0
LINE
8
annotation
62
1
39
211
10
184.521044
20
306.235608
11
184.522628
21
306.237782
0
LINE
8
annotation
62
1
39
211
10
184.522628
20
306.237782
11
184.524162
21
306.240010
0
LINE
8
annotation
62
1
39
211
10
184.524162
20
306.240010
11
184.525659
21
306.242310
0
LINE
8
annotation
62
1
39
211
10
184.525659
20
306.242310
11
184.527129
21
306.244700
0
LINE
8
annotation
62
1
39
211
10
184.527129
20
306.244700
11
184.528583
21
306.247199
0
LINE
8
annotation
62
1
39
211
10
184.528583
20
306.247199
11
184.530031
21
306.249824
0
LINE
8
annotation
62
1
39
211
10
184.530031
20
306.249824
11
184.531485
21
306.252592
0
LINE
8
annotation
62
1
39
211
10
184.531485
20
306.252592
11
184.531485
21
306.252592
0
LINE
8
annotation
62
1
39
211
10
184.531485
20
306.252592
11
184.590658
21
306.379642
0
LINE
8
annotation
62
1
39
211
10
184.590658
20
306.379642
11
184.625226
21
306.511339
0
LINE
8
annotation
62
1
39
211
10
184.625226
20
306.511339
11
184.636035
21
306.644710
0
LINE
8
annotation
62
1
39
211
10
184.636035
20
306.644710
11
184.623934
21
306.776777
0
LINE
8
annotation
62
1
39
211
10
184.623934
20
306.776777
11
184.589770
21
306.904565
0
LINE
8
annotation
62
1
39
211
10
184.589770
20
306.904565
11
184.534389
21
307.025099
0
LINE
8
annotation
62
1
39
211
10
184.534389
20
307.025099
11
184.458638
21
307.135401
0
LINE
8
annotation
62
1
39
211
10
184.458638
20
307.135401
11
184.363365
21
307.232498
0
LINE
8
annotation
62
1
39
211
10
184.363365
20
307.232498
11
184.249417
21
307.313412
0
LINE
8
annotation
62
1
39
211
10
184.249417
20
307.313412
11
184.249417
21
307.313412
0
LINE
8
annotation
62
1
39
211
10
184.249417
20
307.313412
11
184.122015
21
307.371744
0
LINE
8
annotation
62
1
39
211
10
184.122015
20
307.371744
11
183.990115
21
307.405779
0
LINE
8
annotation
62
1
39
211
10
183.990115
20
307.405779
11
183.856667
21
307.416283
0
LINE
8
annotation
62
1
39
211
10
183.856667
20
307.416283
11
183.724620
21
307.404023
0
LINE
8
annotation
62
1
39
211
10
183.724620
20
307.404023
11
183.596922
21
307.369763
0
LINE
8
annotation
62
1
39
211
10
183.596922
20
307.369763
11
183.476522
21
307.314271
0
LINE
8
annotation
62
1
39
211
10
183.476522
20
307.314271
11
183.366369
21
307.238313
0
LINE
8
annotation
62
1
39
211
10
183.366369
20
307.238313
11
183.269411
21
307.142653
0
LINE
8
annotation
62
1
39
211
10
183.269411
20
307.142653
11
183.188598
21
307.028059
0
LINE
8
annotation
62
1
39
211
10
183.188598
20
307.028059
11
183.086765
21
306.832714
0
LINE
8
annotation
62
1
39
211
10
187.884311
20
304.700593
11
185.945316
21
304.700593
0
LINE
8
annotation
62
1
39
211
10
185.945316
20
304.700593
11
186.719688
21
307.416368
0
LINE
8
annotation
62
1
39
211
10
187.303095
20
303.924250
11
187.303095
21
305.475183
0
LINE
8
annotation
62
1
39
211
10
189.797060
20
323.438641
11
188.812523
21
323.438641
0
LINE
8
annotation
62
1
39
211
10
188.812523
20
323.438641
11
189.722268
21
324.903213
0
LINE
8
annotation
62
1
39
211
10
189.722268
20
324.903213
11
189.722268
21
324.903213
0
LINE
8
annotation
62
1
39
211
10
189.722268
20
324.903213
11
189.723355
21
324.904559
0
LINE
8
annotation
62
1
39
211
10
189.723355
20
324.904559
11
189.724398
21
324.905916
0
LINE
8
annotation
62
1
39
211
10
189.724398
20
324.905916
11
189.725404
21
324.907296
0
LINE
8
annotation
62
1
39
211
10
189.725404
20
324.907296
11
189.726378
21
324.908711
0
LINE
8
annotation
62
1
39
211
10
189.726378
20
324.908711
11
189.727328
21
324.910171
0
LINE
8
annotation
62
1
39
211
10
189.727328
20
324.910171
11
189.728261
21
324.911688
0
LINE
8
annotation
62
1
39
211
10
189.728261
20
324.911688
11
189.729184
21
324.913274
0
LINE
8
annotation
62
1
39
211
10
189.729184
20
324.913274
11
189.730103
21
324.914941
0
LINE
8
annotation
62
1
39
211
10
189.730103
20
324.914941
11
189.731026
21
324.916698
0
LINE
8
annotation
62
1
39
211
10
189.731026
20
324.916698
11
189.731026
21
324.916698
0
LINE
8
annotation
62
1
39
211
10
189.731026
20
324.916698
11
189.768589
21
324.997350
0
LINE
8
annotation
62
1
39
211
10
189.768589
20
324.997350
11
189.790533
21
325.080952
0
LINE
8
annotation
62
1
39
211
10
189.790533
20
325.080952
11
189.797395
21
325.165616
0
LINE
8
annotation
62
1
39
211
10
189.797395
20
325.165616
11
189.789713
21
325.249452
0
LINE
8
annotation
62
1
39
211
10
189.789713
20
325.249452
11
189.768026
21
325.330573
0
LINE
8
annotation
62
1
39
211
10
189.768026
20
325.330573
11
189.732869
21
325.407088
0
LINE
8
annotation
62
1
39
211
10
189.732869
20
325.407088
11
189.684783
21
325.477108
0
LINE
8
annotation
62
1
39
211
10
189.684783
20
325.477108
11
189.624303
21
325.538745
0
LINE
8
annotation
62
1
39
211
10
189.624303
20
325.538745
11
189.551969
21
325.590110
0
LINE
8
annotation
62
1
39
211
10
189.551969
20
325.590110
11
189.551969
21
325.590110
0
LINE
8
annotation
62
1
39
211
10
189.551969
20
325.590110
11
189.471093
21
325.627139
0
LINE
8
annotation
62
1
39
211
10
189.471093
20
325.627139
11
189.387363
21
325.648745
0
LINE
8
annotation
62
1
39
211
10
189.387363
20
325.648745
11
189.302650
21
325.655413
0
LINE
8
annotation
62
1
39
211
10
189.302650
20
325.655413
11
189.218826
21
325.647630
0
LINE
8
annotation
62
1
39
211
10
189.218826
20
325.647630
11
189.137762
21
325.625882
0
LINE
8
annotation
62
1
39
211
10
189.137762
20
325.625882
11
189.061332
21
325.590656
0
LINE
8
annotation
62
1
39
211
10
189.061332
20
325.590656
11
188.991407
21
325.542437
0
LINE
8
annotation
62
1
39
211
10
188.991407
20
325.542437
11
188.929858
21
325.481712
0
LINE
8
annotation
62
1
39
211
10
188.929858
20
325.481712
11
188.878557
21
325.408967
0
LINE
8
annotation
62
1
39
211
10
188.878557
20
325.408967
11
188.813913
21
325.284962
0
LINE
8
annotation
62
1
39
211
10
190.628531
20
323.438659
11
191.120800
21
323.438659
0
LINE
8
annotation
62
1
39
211
10
191.120800
20
323.438659
11
191.120800
21
323.438659
0
LINE
8
annotation
62
1
39
211
10
191.120800
20
323.438659
11
191.209152
21
323.446603
0
LINE
8
annotation
62
1
39
211
10
191.209152
20
323.446603
11
191.292364
21
323.469505
0
LINE
8
annotation
62
1
39
211
10
191.292364
20
323.469505
11
191.369032
21
323.505970
0
LINE
8
annotation
62
1
39
211
10
191.369032
20
323.505970
11
191.437754
21
323.554604
0
LINE
8
annotation
62
1
39
211
10
191.437754
20
323.554604
11
191.497126
21
323.614011
0
LINE
8
annotation
62
1
39
211
10
191.497126
20
323.614011
11
191.545747
21
323.682798
0
LINE
8
annotation
62
1
39
211
10
191.545747
20
323.682798
11
191.582213
21
323.759569
0
LINE
8
annotation
62
1
39
211
10
191.582213
20
323.759569
11
191.605121
21
323.842929
0
LINE
8
annotation
62
1
39
211
10
191.605121
20
323.842929
11
191.613069
21
323.931484
0
LINE
8
annotation
62
1
39
211
10
191.613069
20
323.931484
11
191.613069
21
324.176714
0
LINE
8
annotation
62
1
39
211
10
191.613069
20
324.176714
11
191.613069
21
324.176714
0
LINE
8
annotation
62
1
39
211
10
191.613069
20
324.176714
11
191.605125
21
324.265226
0
LINE
8
annotation
62
1
39
211
10
191.605125
20
324.265226
11
191.582229
21
324.348471
0
LINE
8
annotation
62
1
39
211
10
191.582229
20
324.348471
11
191.545778
21
324.425076
0
LINE
8
annotation
62
1
39
211
10
191.545778
20
324.425076
11
191.497172
21
324.493665
0
LINE
8
annotation
62
1
39
211
10
191.497172
20
324.493665
11
191.437811
21
324.552865
0
LINE
8
annotation
62
1
39
211
10
191.437811
20
324.552865
11
191.369094
21
324.601301
0
LINE
8
annotation
62
1
39
211
10
191.369094
20
324.601301
11
191.292420
21
324.637600
0
LINE
8
annotation
62
1
39
211
10
191.292420
20
324.637600
11
191.209189
21
324.660387
0
LINE
8
annotation
62
1
39
211
10
191.209189
20
324.660387
11
191.120800
21
324.668288
0
LINE
8
annotation
62
1
39
211
10
191.120800
20
324.668288
11
190.628531
21
324.668288
0
LINE
8
annotation
62
1
39
211
10
190.628531
20
324.668288
11
190.628531
21
325.655467
0
LINE
8
annotation
62
1
39
211
10
190.628531
20
325.655467
11
191.613069
21
325.655467
0
LINE
8
annotation
62
1
39
211
10
124.676169
20
72.314141
11
122.746905
21
69.523637
0
LINE
8
annotation
62
1
39
211
10
122.746905
20
69.523637
11
120.817278
21
72.314141
0
LINE
8
annotation
62
1
39
211
10
122.746905
20
69.748198
11
122.746905
21
66.528887
0
LINE
8
annotation
62
1
39
211
10
130.009308
20
69.421514
11
126.846229
21
69.421514
0
LINE
8
annotation
62
1
39
211
10
132.178098
20
67.811678
11
132.178098
21
67.811678
0
LINE
8
annotation
62
1
39
211
10
132.178098
20
67.811678
11
132.198838
21
67.580701
0
LINE
8
annotation
62
1
39
211
10
132.198838
20
67.580701
11
132.258618
21
67.363468
0
LINE
8
annotation
62
1
39
211
10
132.258618
20
67.363468
11
132.353777
21
67.163564
0
LINE
8
annotation
62
1
39
211
10
132.353777
20
67.163564
11
132.480655
21
66.984577
0
LINE
8
annotation
62
1
39
211
10
132.480655
20
66.984577
11
132.635591
21
66.830091
0
LINE
8
annotation
62
1
39
211
10
132.635591
20
66.830091
11
132.814925
21
66.703694
0
LINE
8
annotation
62
1
39
211
10
132.814925
20
66.703694
11
133.014995
21
66.608970
0
LINE
8
annotation
62
1
39
211
10
133.014995
20
66.608970
11
133.232141
21
66.549506
0
LINE
8
annotation
62
1
39
211
10
133.232141
20
66.549506
11
133.462702
21
66.528887
0
LINE
8
annotation
62
1
39
211
10
133.462702
20
66.528887
11
133.462702
21
66.528887
0
LINE
8
annotation
62
1
39
211
10
133.462702
20
66.528887
11
133.693263
21
66.549506
0
LINE
8
annotation
62
1
39
211
10
133.693263
20
66.549506
11
133.910409
21
66.608970
0
LINE
8
annotation
62
1
39
211
10
133.910409
20
66.608970
11
134.110479
21
66.703694
0
LINE
8
annotation
62
1
39
211
10
134.110479
20
66.703694
11
134.289813
21
66.830091
0
LINE
8
annotation
62
1
39
211
10
134.289813
20
66.830091
11
134.444749
21
66.984577
0
LINE
8
annotation
62
1
39
211
10
134.444749
20
66.984577
11
134.571627
21
67.163564
0
LINE
8
annotation
62
1
39
211
10
134.571627
20
67.163564
11
134.666786
21
67.363468
0
LINE
8
annotation
62
1
39
211
10
134.666786
20
67.363468
11
134.726566
21
67.580701
0
LINE
8
annotation
62
1
39
211
10
134.726566
20
67.580701
11
134.747306
21
67.811678
0
LINE
8
annotation
62
1
39
211
10
134.747306
20
67.811678
11
134.747306
21
68.451622
0
LINE
8
annotation
62
1
39
211
10
134.747306
20
68.451622
11
134.747306
21
68.451622
0
LINE
8
annotation
62
1
39
211
10
134.747306
20
68.451622
11
134.726578
21
68.682711
0
LINE
8
annotation
62
1
39
211
10
134.726578
20
68.682711
11
134.666828
21
68.900244
0
LINE
8
annotation
62
1
39
211
10
134.666828
20
68.900244
11
134.571707
21
69.100582
0
LINE
8
annotation
62
1
39
211
10
134.571707
20
69.100582
11
134.444868
21
69.280084
0
LINE
8
annotation
62
1
39
211
10
134.444868
20
69.280084
11
134.289962
21
69.435112
0
LINE
8
annotation
62
1
39
211
10
134.289962
20
69.435112
11
134.110641
21
69.562024
0
LINE
8
annotation
62
1
39
211
10
134.110641
20
69.562024
11
133.910556
21
69.657183
0
LINE
8
annotation
62
1
39
211
10
133.910556
20
69.657183
11
133.693359
21
69.716947
0
LINE
8
annotation
62
1
39
211
10
133.693359
20
69.716947
11
133.462702
21
69.737677
0
LINE
8
annotation
62
1
39
211
10
133.462702
20
69.737677
11
133.462702
21
69.737677
0
LINE
8
annotation
62
1
39
211
10
133.462702
20
69.737677
11
133.232045
21
69.716935
0
LINE
8
annotation
62
1
39
211
10
133.232045
20
69.716935
11
133.014848
21
69.657141
0
LINE
8
annotation
62
1
39
211
10
133.014848
20
69.657141
11
132.814763
21
69.561944
0
LINE
8
annotation
62
1
39
211
10
132.814763
20
69.561944
11
132.635442
21
69.434992
0
LINE
8
annotation
62
1
39
211
10
132.635442
20
69.434992
11
132.480536
21
69.279935
0
LINE
8
annotation
62
1
39
211
10
132.480536
20
69.279935
11
132.353697
21
69.100420
0
LINE
8
annotation
62
1
39
211
10
132.353697
20
69.100420
11
132.258576
21
68.900098
0
LINE
8
annotation
62
1
39
211
10
132.258576
20
68.900098
11
132.198826
21
68.682615
0
LINE
8
annotation
62
1
39
211
10
132.198826
20
68.682615
11
132.178098
21
68.451622
0
LINE
8
annotation
62
1
39
211
10
132.178098
20
68.451622
11
132.178098
21
67.811678
0
LINE
8
annotation
62
1
39
211
10
134.747306
20
71.024095
11
134.747306
21
71.024095
0
LINE
8
annotation
62
1
39
211
10
134.747306
20
71.024095
11
134.726578
21
71.254117
0
LINE
8
annotation
62
1
39
211
10
134.726578
20
71.254117
11
134.666828
21
71.470842
0
LINE
8
annotation
62
1
39
211
10
134.666828
20
71.470842
11
134.571707
21
71.670596
0
LINE
8
annotation
62
1
39
211
10
134.571707
20
71.670596
11
134.444868
21
71.849703
0
LINE
8
annotation
62
1
39
211
10
134.444868
20
71.849703
11
134.289962
21
72.004487
0
LINE
8
annotation
62
1
39
211
10
134.289962
20
72.004487
11
134.110641
21
72.131273
0
LINE
8
annotation
62
1
39
211
10
134.110641
20
72.131273
11
133.910556
21
72.226385
0
LINE
8
annotation
62
1
39
211
10
133.910556
20
72.226385
11
133.693359
21
72.286148
0
LINE
8
annotation
62
1
39
211
10
133.693359
20
72.286148
11
133.462702
21
72.306885
0
LINE
8
annotation
62
1
39
211
10
133.462702
20
72.306885
11
133.462702
21
72.306885
0
LINE
8
annotation
62
1
39
211
10
133.462702
20
72.306885
11
133.232045
21
72.286148
0
LINE
8
annotation
62
1
39
211
10
133.232045
20
72.286148
11
133.014848
21
72.226385
0
LINE
8
annotation
62
1
39
211
10
133.014848
20
72.226385
11
132.814763
21
72.131273
0
LINE
8
annotation
62
1
39
211
10
132.814763
20
72.131273
11
132.635442
21
72.004487
0
LINE
8
annotation
62
1
39
211
10
132.635442
20
72.004487
11
132.480536
21
71.849703
0
LINE
8
annotation
62
1
39
211
10
132.480536
20
71.849703
11
132.353697
21
71.670596
0
LINE
8
annotation
62
1
39
211
10
132.353697
20
71.670596
11
132.258576
21
71.470842
0
LINE
8
annotation
62
1
39
211
10
132.258576
20
71.470842
11
132.198826
21
71.254117
0
LINE
8
annotation
62
1
39
211
10
132.198826
20
71.254117
11
132.178098
21
71.024095
0
LINE
8
annotation
62
1
39
211
10
132.178098
20
71.024095
11
132.178098
21
71.024095
0
LINE
8
annotation
62
1
39
211
10
132.178098
20
71.024095
11
132.198838
21
70.792994
0
LINE
8
annotation
62
1
39
211
10
132.198838
20
70.792994
11
132.258618
21
70.575427
0
LINE
8
annotation
62
1
39
211
10
132.258618
20
70.575427
11
132.353777
21
70.375041
0
LINE
8
annotation
62
1
39
211
10
132.353777
20
70.375041
11
132.480655
21
70.195482
0
LINE
8
annotation
62
1
39
211
10
132.480655
20
70.195482
11
132.635591
21
70.040394
0
LINE
8
annotation
62
1
39
211
10
132.635591
20
70.040394
11
132.814925
21
69.913424
0
LINE
8
annotation
62
1
39
211
10
132.814925
20
69.913424
11
133.014995
21
69.818217
0
LINE
8
annotation
62
1
39
211
10
133.014995
20
69.818217
11
133.232141
21
69.758420
0
LINE
8
annotation
62
1
39
211
10
133.232141
20
69.758420
11
133.462702
21
69.737677
0
LINE
8
annotation
62
1
39
211
10
133.462702
20
69.737677
11
133.462702
21
69.737677
0
LINE
8
annotation
62
1
39
211
10
133.462702
20
69.737677
11
133.693263
21
69.758420
0
LINE
8
annotation
62
1
39
211
10
133.693263
20
69.758420
11
133.910409
21
69.818217
0
LINE
8
annotation
62
1
39
211
10
133.910409
20
69.818217
11
134.110479
21
69.913424
0
LINE
8
annotation
62
1
39
211
10
134.110479
20
69.913424
11
134.289813
21
70.040394
0
LINE
8
annotation
62
1
39
211
10
134.289813
20
70.040394
11
134.444749
21
70.195482
0
LINE
8
annotation
62
1
39
211
10
134.444749
20
70.195482
11
134.571627
21
70.375041
0
LINE
8
annotation
62
1
39
211
10
134.571627
20
70.375041
11
134.666786
21
70.575427
0
LINE
8
annotation
62
1
39
211
10
134.666786
20
70.575427
11
134.726566
21
70.792994
0
LINE
8
annotation
62
1
39
211
10
134.726566
20
70.792994
11
134.747306
21
71.024095
0
LINE
8
frame
62
5
39
2
10
0.000000
20
0.000000
11
300.000000
21
0.000000
0
LINE
8
frame
62
5
39
2
10
300.000000
20
0.000000
11
300.000000
21
600.000000
0
LINE
8
frame
62
5
39
2
10
300.000000
20
600.000000
11
0.000000
21
600.000000
0
LINE
8
frame
62
5
39
2
10
0.000000
20
600.000000
11
0.000000
21
0.000000
0
ENDSEC
0
EOF
