0
SECTION
2
HEADER
9
$ACADVER
1
AC1009
0
ENDSEC
0
SECTION
2
TABLES
0
TABLE
2
VPORT
70
1
0
VPORT
2
ACTIVE
70
0
10
0.0
20
0.0
11
0.0
21
0.0
12
0.0
22
0.0
13
0.0
23
0.0
14
0.0
24
0.0
15
0.0
25
0.0
16
0.0
26
0.0
36
0.0
17
0.0
27
0.0
37
0.0
40
0.0
41
0.0
42
0.0
43
0.0
44
0.0
50
0.0
51
0.0
71
0
72
1000
73
1
74
3
75
0
76
0
77
0
78
0
0
ENDTAB
0
ENDSEC
0
SECTION
2
ENTITIES
0
LINE
8
boundary
62
5
39
2
10
22.206021
20
7.488164
11
23.154561
21
7.977106
0
LINE
8
boundary
62
5
39
2
10
23.154561
20
7.977106
11
23.858142
21
8.442476
0
LINE
8
boundary
62
5
39
2
10
23.858142
20
8.442476
11
24.505514
21
8.940325
0
LINE
8
boundary
62
5
39
2
10
24.505514
20
8.940325
11
25.227184
21
9.555384
0
LINE
8
boundary
62
5
39
2
10
25.227184
20
9.555384
11
25.839551
21
10.135936
0
LINE
8
boundary
62
5
39
2
10
25.839551
20
10.135936
11
26.253185
21
10.549644
0
LINE
8
boundary
62
5
39
2
10
26.253185
20
10.549644
11
26.668442
21
10.989413
0
LINE
8
boundary
62
5
39
2
10
26.668442
20
10.989413
11
27.035847
21
11.428531
0
LINE
8
boundary
62
5
39
2
10
27.035847
20
11.428531
11
27.365652
21
11.853089
0
LINE
8
boundary
62
5
39
2
10
27.365652
20
11.853089
11
27.718683
21
12.327067
0
LINE
8
boundary
62
5
39
2
10
27.718683
20
12.327067
11
28.211563
21
13.092627
0
LINE
8
boundary
62
5
39
2
10
28.211563
20
13.092627
11
28.492152
21
13.577205
0
LINE
8
boundary
62
5
39
2
10
28.492152
20
13.577205
11
28.758697
21
14.051920
0
LINE
8
boundary
62
5
39
2
10
28.758697
20
14.051920
11
29.020333
21
14.553761
0
LINE
8
boundary
62
5
39
2
10
29.020333
20
14.553761
11
29.285551
21
15.083151
0
LINE
8
boundary
62
5
39
2
10
29.285551
20
15.083151
11
29.551311
21
15.639105
0
LINE
8
boundary
62
5
39
2
10
29.551311
20
15.639105
11
29.812414
21
16.219608
0
LINE
8
boundary
62
5
39
2
10
29.812414
20
16.219608
11
30.054870
21
16.765923
0
LINE
8
boundary
62
5
39
2
10
30.054870
20
16.765923
11
30.335783
21
17.458601
0
LINE
8
boundary
62
5
39
2
10
30.335783
20
17.458601
11
30.549790
21
17.987498
0
LINE
8
boundary
62
5
39
2
10
30.549790
20
17.987498
11
30.853795
21
18.800084
0
LINE
8
boundary
62
5
39
2
10
30.853795
20
18.800084
11
31.109505
21
19.508798
0
LINE
8
boundary
62
5
39
2
10
31.109505
20
19.508798
11
31.289812
21
20.018150
0
LINE
8
boundary
62
5
39
2
10
31.289812
20
20.018150
11
31.613554
21
21.001989
0
LINE
8
boundary
62
5
39
2
10
31.613554
20
21.001989
11
31.842199
21
21.700928
0
LINE
8
boundary
62
5
39
2
10
31.842199
20
21.700928
11
32.112327
21
22.595711
0
LINE
8
boundary
62
5
39
2
10
32.112327
20
22.595711
11
32.359654
21
23.429579
0
LINE
8
boundary
62
5
39
2
10
32.359654
20
23.429579
11
32.525718
21
23.997074
0
LINE
8
boundary
62
5
39
2
10
32.525718
20
23.997074
11
32.847264
21
25.169267
0
LINE
8
boundary
62
5
39
2
10
32.847264
20
25.169267
11
33.066848
21
25.965426
0
LINE
8
boundary
62
5
39
2
10
33.066848
20
25.965426
11
33.377996
21
27.191579
0
LINE
8
boundary
62
5
39
2
10
33.377996
20
27.191579
11
33.598700
21
28.038529
0
LINE
8
boundary
62
5
39
2
10
33.598700
20
28.038529
11
33.748458
21
28.651937
0
LINE
8
boundary
62
5
39
2
10
33.748458
20
28.651937
11
33.945071
21
29.482533
0
LINE
8
boundary
62
5
39
2
10
33.945071
20
29.482533
11
34.127389
21
30.223929
0
LINE
8
boundary
62
5
39
2
10
34.127389
20
30.223929
11
34.351666
21
31.195751
0
LINE
8
boundary
62
5
39
2
10
34.351666
20
31.195751
11
34.536799
21
32.026648
0
LINE
8
boundary
62
5
39
2
10
34.536799
20
32.026648
11
34.653599
21
32.523998
0
LINE
8
boundary
62
5
39
2
10
34.653599
20
32.523998
11
34.864760
21
33.514694
0
LINE
8
boundary
62
5
39
2
10
34.864760
20
33.514694
11
35.185850
21
34.940921
0
LINE
8
boundary
62
5
39
2
10
35.185850
20
34.940921
11
35.472690
21
36.323956
0
LINE
8
boundary
62
5
39
2
10
35.472690
20
36.323956
11
35.582868
21
36.832451
0
LINE
8
boundary
62
5
39
2
10
35.582868
20
36.832451
11
35.745442
21
37.646637
0
LINE
8
boundary
62
5
39
2
10
35.745442
20
37.646637
11
35.986489
21
38.792736
0
LINE
8
boundary
62
5
39
2
10
35.986489
20
38.792736
11
36.116785
21
39.440937
0
LINE
8
boundary
62
5
39
2
10
36.116785
20
39.440937
11
36.298864
21
40.374336
0
LINE
8
boundary
62
5
39
2
10
36.298864
20
40.374336
11
36.571432
21
41.775191
0
LINE
8
boundary
62
5
39
2
10
36.571432
20
41.775191
11
36.801066
21
42.926306
0
LINE
8
boundary
62
5
39
2
10
36.801066
20
42.926306
11
36.962194
21
43.771745
0
LINE
8
boundary
62
5
39
2
10
36.962194
20
43.771745
11
37.126674
21
44.655489
0
LINE
8
boundary
62
5
39
2
10
37.126674
20
44.655489
11
37.399758
21
46.129521
0
LINE
8
boundary
62
5
39
2
10
37.399758
20
46.129521
11
37.632568
21
47.355296
0
LINE
8
boundary
62
5
39
2
10
37.632568
20
47.355296
11
37.778353
21
48.159640
0
LINE
8
boundary
62
5
39
2
10
37.778353
20
48.159640
11
37.954957
21
49.151297
0
LINE
8
boundary
62
5
39
2
10
37.954957
20
49.151297
11
38.054691
21
49.685074
0
LINE
8
boundary
62
5
39
2
10
38.054691
20
49.685074
11
38.228763
21
50.693307
0
LINE
8
boundary
62
5
39
2
10
38.228763
20
50.693307
11
38.482495
21
52.095565
0
LINE
8
boundary
62
5
39
2
10
38.482495
20
52.095565
11
38.781426
21
53.844242
0
LINE
8
boundary
62
5
39
2
10
38.781426
20
53.844242
11
38.913719
21
54.586622
0
LINE
8
boundary
62
5
39
2
10
38.913719
20
54.586622
11
39.055868
21
55.448911
0
LINE
8
boundary
62
5
39
2
10
39.055868
20
55.448911
11
39.311377
21
56.933476
0
LINE
8
boundary
62
5
39
2
10
39.311377
20
56.933476
11
39.603574
21
58.715571
0
LINE
8
boundary
62
5
39
2
10
39.603574
20
58.715571
11
39.791892
21
59.826080
0
LINE
8
boundary
62
5
39
2
10
39.791892
20
59.826080
11
39.878622
21
60.377670
0
LINE
8
boundary
62
5
39
2
10
39.878622
20
60.377670
11
40.021739
21
61.253137
0
LINE
8
boundary
62
5
39
2
10
40.021739
20
61.253137
11
40.151330
21
62.055170
0
LINE
8
boundary
62
5
39
2
10
40.151330
20
62.055170
11
40.238966
21
62.577315
0
LINE
8
boundary
62
5
39
2
10
40.238966
20
62.577315
11
40.421455
21
63.745368
0
LINE
8
boundary
62
5
39
2
10
40.421455
20
63.745368
11
40.692566
21
65.418368
0
LINE
8
boundary
62
5
39
2
10
40.692566
20
65.418368
11
40.967269
21
67.175042
0
LINE
8
boundary
62
5
39
2
10
40.967269
20
67.175042
11
41.156152
21
68.341191
0
LINE
8
boundary
62
5
39
2
10
41.156152
20
68.341191
11
41.242983
21
68.912406
0
LINE
8
boundary
62
5
39
2
10
41.242983
20
68.912406
11
41.369358
21
69.716647
0
LINE
8
boundary
62
5
39
2
10
41.369358
20
69.716647
11
41.518382
21
70.659101
0
LINE
8
boundary
62
5
39
2
10
41.518382
20
70.659101
11
41.631415
21
71.351014
0
LINE
8
boundary
62
5
39
2
10
41.631415
20
71.351014
11
41.795340
21
72.415509
0
LINE
8
boundary
62
5
39
2
10
41.795340
20
72.415509
11
42.024046
21
73.854680
0
LINE
8
boundary
62
5
39
2
10
42.024046
20
73.854680
11
42.120717
21
74.445947
0
LINE
8
boundary
62
5
39
2
10
42.120717
20
74.445947
11
42.335852
21
75.807403
0
LINE
8
boundary
62
5
39
2
10
42.335852
20
75.807403
11
42.543294
21
77.084225
0
LINE
8
boundary
62
5
39
2
10
42.543294
20
77.084225
11
42.676080
21
77.925943
0
LINE
8
boundary
62
5
39
2
10
42.676080
20
77.925943
11
42.856269
21
79.029195
0
LINE
8
boundary
62
5
39
2
10
42.856269
20
79.029195
11
42.981806
21
79.777738
0
LINE
8
boundary
62
5
39
2
10
42.981806
20
79.777738
11
43.122063
21
80.650221
0
LINE
8
boundary
62
5
39
2
10
43.122063
20
80.650221
11
43.333965
21
81.934923
0
LINE
8
boundary
62
5
39
2
10
43.333965
20
81.934923
11
43.435931
21
82.531595
0
LINE
8
boundary
62
5
39
2
10
43.435931
20
82.531595
11
43.667298
21
83.918705
0
LINE
8
boundary
62
5
39
2
10
43.667298
20
83.918705
11
43.910852
21
85.343741
0
LINE
8
boundary
62
5
39
2
10
43.910852
20
85.343741
11
44.000564
21
85.886682
0
LINE
8
boundary
62
5
39
2
10
44.000564
20
85.886682
11
44.360490
21
87.986081
0
LINE
8
boundary
62
5
39
2
10
44.360490
20
87.986081
11
44.679880
21
89.790234
0
LINE
8
boundary
62
5
39
2
10
44.679880
20
89.790234
11
44.777688
21
90.333539
0
LINE
8
boundary
62
5
39
2
10
44.777688
20
90.333539
11
44.932755
21
91.168698
0
LINE
8
boundary
62
5
39
2
10
44.932755
20
91.168698
11
45.200111
21
92.680274
0
LINE
8
boundary
62
5
39
2
10
45.200111
20
92.680274
11
45.378133
21
93.657995
0
LINE
8
boundary
62
5
39
2
10
45.378133
20
93.657995
11
45.634801
21
95.041780
0
LINE
8
boundary
62
5
39
2
10
45.634801
20
95.041780
11
46.065429
21
97.299914
0
LINE
8
boundary
62
5
39
2
10
46.065429
20
97.299914
11
46.545040
21
99.808683
0
LINE
8
boundary
62
5
39
2
10
46.545040
20
99.808683
11
46.842009
21
101.320284
0
LINE
8
boundary
62
5
39
2
10
46.842009
20
101.320284
11
47.022319
21
102.220458
0
LINE
8
boundary
62
5
39
2
10
47.022319
20
102.220458
11
47.347637
21
103.807834
0
LINE
8
boundary
62
5
39
2
10
47.347637
20
103.807834
11
47.514844
21
104.650007
0
LINE
8
boundary
62
5
39
2
10
47.514844
20
104.650007
11
48.018105
21
107.091514
0
LINE
8
boundary
62
5
39
2
10
48.018105
20
107.091514
11
48.406714
21
108.933124
0
LINE
8
boundary
62
5
39
2
10
48.406714
20
108.933124
11
48.543243
21
109.567271
0
LINE
8
boundary
62
5
39
2
10
48.543243
20
109.567271
11
48.809297
21
110.781114
0
LINE
8
boundary
62
5
39
2
10
48.809297
20
110.781114
11
49.083019
21
112.060801
0
LINE
8
boundary
62
5
39
2
10
49.083019
20
112.060801
11
49.230241
21
112.738242
0
LINE
8
boundary
62
5
39
2
10
49.230241
20
112.738242
11
49.638600
21
114.577898
0
LINE
8
boundary
62
5
39
2
10
49.638600
20
114.577898
11
50.083185
21
116.551937
0
LINE
8
boundary
62
5
39
2
10
50.083185
20
116.551937
11
50.216830
21
117.133214
0
LINE
8
boundary
62
5
39
2
10
50.216830
20
117.133214
11
50.499415
21
118.346329
0
LINE
8
boundary
62
5
39
2
10
50.499415
20
118.346329
11
50.811676
21
119.711785
0
LINE
8
boundary
62
5
39
2
10
50.811676
20
119.711785
11
50.965891
21
120.378637
0
LINE
8
boundary
62
5
39
2
10
50.965891
20
120.378637
11
51.424703
21
122.320238
0
LINE
8
boundary
62
5
39
2
10
51.424703
20
122.320238
11
51.879006
21
124.223700
0
LINE
8
boundary
62
5
39
2
10
51.879006
20
124.223700
11
52.061225
21
124.971235
0
LINE
8
boundary
62
5
39
2
10
52.061225
20
124.971235
11
52.481361
21
126.679787
0
LINE
8
boundary
62
5
39
2
10
52.481361
20
126.679787
11
52.717991
21
127.655337
0
LINE
8
boundary
62
5
39
2
10
52.717991
20
127.655337
11
53.393641
21
130.370822
0
LINE
8
boundary
62
5
39
2
10
53.393641
20
130.370822
11
53.798994
21
131.984478
0
LINE
8
boundary
62
5
39
2
10
53.798994
20
131.984478
11
54.093789
21
133.133157
0
LINE
8
boundary
62
5
39
2
10
54.093789
20
133.133157
11
54.809811
21
135.908939
0
LINE
8
boundary
62
5
39
2
10
54.809811
20
135.908939
11
55.562168
21
138.778984
0
LINE
8
boundary
62
5
39
2
10
55.562168
20
138.778984
11
55.845815
21
139.858136
0
LINE
8
boundary
62
5
39
2
10
55.845815
20
139.858136
11
56.124332
21
140.901274
0
LINE
8
boundary
62
5
39
2
10
56.124332
20
140.901274
11
56.376997
21
141.845519
0
LINE
8
boundary
62
5
39
2
10
56.376997
20
141.845519
11
56.576558
21
142.584050
0
LINE
8
boundary
62
5
39
2
10
56.576558
20
142.584050
11
56.916927
21
143.841279
0
LINE
8
boundary
62
5
39
2
10
56.916927
20
143.841279
11
57.465506
21
145.845224
0
LINE
8
boundary
62
5
39
2
10
57.465506
20
145.845224
11
57.735591
21
146.820702
0
LINE
8
boundary
62
5
39
2
10
57.735591
20
146.820702
11
57.978254
21
147.702626
0
LINE
8
boundary
62
5
39
2
10
57.978254
20
147.702626
11
58.457886
21
149.428020
0
LINE
8
boundary
62
5
39
2
10
58.457886
20
149.428020
11
58.945582
21
151.166314
0
LINE
8
boundary
62
5
39
2
10
58.945582
20
151.166314
11
59.152290
21
151.900792
0
LINE
8
boundary
62
5
39
2
10
59.152290
20
151.900792
11
59.441345
21
152.917369
0
LINE
8
boundary
62
5
39
2
10
59.441345
20
152.917369
11
59.730811
21
153.935023
0
LINE
8
boundary
62
5
39
2
10
59.730811
20
153.935023
11
59.945183
21
154.681018
0
LINE
8
boundary
62
5
39
2
10
59.945183
20
154.681018
11
60.317629
21
155.976789
0
LINE
8
boundary
62
5
39
2
10
60.317629
20
155.976789
11
60.912611
21
158.025720
0
LINE
8
boundary
62
5
39
2
10
60.912611
20
158.025720
11
61.432303
21
159.797314
0
LINE
8
boundary
62
5
39
2
10
61.432303
20
159.797314
11
62.088964
21
162.024294
0
LINE
8
boundary
62
5
39
2
10
62.088964
20
162.024294
11
62.684312
21
164.022088
0
LINE
8
boundary
62
5
39
2
10
62.684312
20
164.022088
11
62.878888
21
164.673739
0
LINE
8
boundary
62
5
39
2
10
62.878888
20
164.673739
11
63.289693
21
166.034470
0
LINE
8
boundary
62
5
39
2
10
63.289693
20
166.034470
11
63.575589
21
166.981421
0
LINE
8
boundary
62
5
39
2
10
63.575589
20
166.981421
11
63.904994
21
168.060648
0
LINE
8
boundary
62
5
39
2
10
63.904994
20
168.060648
11
64.282093
21
169.296110
0
LINE
8
boundary
62
5
39
2
10
64.282093
20
169.296110
11
64.530103
21
170.099891
0
LINE
8
boundary
62
5
39
2
10
64.530103
20
170.099891
11
64.998318
21
171.617349
0
LINE
8
boundary
62
5
39
2
10
64.998318
20
171.617349
11
65.164894
21
172.151443
0
LINE
8
boundary
62
5
39
2
10
65.164894
20
172.151443
11
65.724147
21
173.944641
0
LINE
8
boundary
62
5
39
2
10
65.724147
20
173.944641
11
66.459497
21
176.277569
0
LINE
8
boundary
62
5
39
2
10
66.459497
20
176.277569
11
67.124542
21
178.369342
0
LINE
8
boundary
62
5
39
2
10
67.124542
20
178.369342
11
67.795449
21
180.460010
0
LINE
8
boundary
62
5
39
2
10
67.795449
20
180.460010
11
67.957068
21
180.962756
0
LINE
8
boundary
62
5
39
2
10
67.957068
20
180.962756
11
68.475631
21
182.559957
0
LINE
8
boundary
62
5
39
2
10
68.475631
20
182.559957
11
68.720197
21
183.312793
0
LINE
8
boundary
62
5
39
2
10
68.720197
20
183.312793
11
69.164944
21
184.668475
0
LINE
8
boundary
62
5
39
2
10
69.164944
20
184.668475
11
69.492781
21
185.667230
0
LINE
8
boundary
62
5
39
2
10
69.492781
20
185.667230
11
69.863228
21
186.784862
0
LINE
8
boundary
62
5
39
2
10
69.863228
20
186.784862
11
70.274732
21
188.025717
0
LINE
8
boundary
62
5
39
2
10
70.274732
20
188.025717
11
70.570301
21
188.908376
0
LINE
8
boundary
62
5
39
2
10
70.570301
20
188.908376
11
71.065961
21
190.387867
0
LINE
8
boundary
62
5
39
2
10
71.065961
20
190.387867
11
71.285995
21
191.038332
0
LINE
8
boundary
62
5
39
2
10
71.285995
20
191.038332
11
71.866378
21
192.753371
0
LINE
8
boundary
62
5
39
2
10
71.866378
20
192.753371
11
72.131756
21
193.526190
0
LINE
8
boundary
62
5
39
2
10
72.131756
20
193.526190
11
73.377381
21
197.152367
0
LINE
8
boundary
62
5
39
2
10
73.377381
20
197.152367
11
74.847081
21
201.355943
0
LINE
8
boundary
62
5
39
2
10
74.847081
20
201.355943
11
75.160776
21
202.250505
0
LINE
8
boundary
62
5
39
2
10
75.160776
20
202.250505
11
76.245970
21
205.289613
0
LINE
8
boundary
62
5
39
2
10
76.245970
20
205.289613
11
76.863338
21
207.016502
0
LINE
8
boundary
62
5
39
2
10
76.863338
20
207.016502
11
77.667751
21
209.226508
0
LINE
8
boundary
62
5
39
2
10
77.667751
20
209.226508
11
78.601609
21
211.789685
0
LINE
8
boundary
62
5
39
2
10
78.601609
20
211.789685
11
79.109858
21
213.159915
0
LINE
8
boundary
62
5
39
2
10
79.109858
20
213.159915
11
80.374932
21
216.568255
0
LINE
8
boundary
62
5
39
2
10
80.374932
20
216.568255
11
80.569474
21
217.083092
0
LINE
8
boundary
62
5
39
2
10
80.569474
20
217.083092
11
81.444789
21
219.398720
0
LINE
8
boundary
62
5
39
2
10
81.444789
20
219.398720
11
82.047087
21
220.990663
0
LINE
8
boundary
62
5
39
2
10
82.047087
20
220.990663
11
83.542281
21
224.877459
0
LINE
8
boundary
62
5
39
2
10
83.542281
20
224.877459
11
84.034001
21
226.152187
0
LINE
8
boundary
62
5
39
2
10
84.034001
20
226.152187
11
85.047172
21
228.735381
0
LINE
8
boundary
62
5
39
2
10
85.047172
20
228.735381
11
85.917088
21
230.951669
0
LINE
8
boundary
62
5
39
2
10
85.917088
20
230.951669
11
86.558190
21
232.557816
0
LINE
8
boundary
62
5
39
2
10
86.558190
20
232.557816
11
87.833387
21
235.751808
0
LINE
8
boundary
62
5
39
2
10
87.833387
20
235.751808
11
88.108360
21
236.427767
0
LINE
8
boundary
62
5
39
2
10
88.108360
20
236.427767
11
88.910529
21
238.400534
0
LINE
8
boundary
62
5
39
2
10
88.910529
20
238.400534
11
89.851913
21
240.709573
0
LINE
8
boundary
62
5
39
2
10
89.851913
20
240.709573
11
90.183057
21
241.521306
0
LINE
8
boundary
62
5
39
2
10
90.183057
20
241.521306
11
91.592598
21
244.910588
0
LINE
8
boundary
62
5
39
2
10
91.592598
20
244.910588
11
92.584447
21
247.296396
0
LINE
8
boundary
62
5
39
2
10
92.584447
20
247.296396
11
93.315187
21
249.019906
0
LINE
8
boundary
62
5
39
2
10
93.315187
20
249.019906
11
94.985105
21
252.964341
0
LINE
8
boundary
62
5
39
2
10
94.985105
20
252.964341
11
96.702200
21
256.939251
0
LINE
8
boundary
62
5
39
2
10
96.702200
20
256.939251
11
97.518204
21
258.831825
0
LINE
8
boundary
62
5
39
2
10
97.518204
20
258.831825
11
98.352865
21
260.742430
0
LINE
8
boundary
62
5
39
2
10
98.352865
20
260.742430
11
99.866412
21
264.219480
0
LINE
8
boundary
62
5
39
2
10
99.866412
20
264.219480
11
101.539871
21
268.027687
0
LINE
8
boundary
62
5
39
2
10
101.539871
20
268.027687
11
102.512809
21
270.251777
0
LINE
8
boundary
62
5
39
2
10
102.512809
20
270.251777
11
103.065018
21
271.508852
0
LINE
8
boundary
62
5
39
2
10
103.065018
20
271.508852
11
103.895232
21
273.410969
0
LINE
8
boundary
62
5
39
2
10
103.895232
20
273.410969
11
104.541719
21
274.883403
0
LINE
8
boundary
62
5
39
2
10
104.541719
20
274.883403
11
104.969101
21
275.863627
0
LINE
8
boundary
62
5
39
2
10
104.969101
20
275.863627
11
105.966990
21
278.153592
0
LINE
8
boundary
62
5
39
2
10
105.966990
20
278.153592
11
107.300305
21
281.239763
0
LINE
8
boundary
62
5
39
2
10
107.300305
20
281.239763
11
108.367957
21
283.726357
0
LINE
8
boundary
62
5
39
2
10
108.367957
20
283.726357
11
108.902474
21
284.983576
0
LINE
8
boundary
62
5
39
2
10
108.902474
20
284.983576
11
109.362068
21
286.068644
0
LINE
8
boundary
62
5
39
2
10
109.362068
20
286.068644
11
110.194516
21
288.054708
0
LINE
8
boundary
62
5
39
2
10
110.194516
20
288.054708
11
111.247560
21
290.594228
0
LINE
8
boundary
62
5
39
2
10
111.247560
20
290.594228
11
111.816033
21
291.986115
0
LINE
8
boundary
62
5
39
2
10
111.816033
20
291.986115
11
112.136461
21
292.777487
0
LINE
8
boundary
62
5
39
2
10
112.136461
20
292.777487
11
112.674204
21
294.124362
0
LINE
8
boundary
62
5
39
2
10
112.674204
20
294.124362
11
112.988564
21
294.908895
0
LINE
8
boundary
62
5
39
2
10
112.988564
20
294.908895
11
113.695182
21
296.711191
0
LINE
8
boundary
62
5
39
2
10
113.695182
20
296.711191
11
114.128037
21
297.834461
0
LINE
8
boundary
62
5
39
2
10
114.128037
20
297.834461
11
114.344350
21
298.400318
0
LINE
8
boundary
62
5
39
2
10
114.344350
20
298.400318
11
114.807031
21
299.630412
0
LINE
8
boundary
62
5
39
2
10
114.807031
20
299.630412
11
115.038255
21
300.247897
0
LINE
8
boundary
62
5
39
2
10
115.038255
20
300.247897
11
115.563199
21
301.681063
0
LINE
8
boundary
62
5
39
2
10
115.563199
20
301.681063
11
115.893496
21
302.599853
0
LINE
8
boundary
62
5
39
2
10
115.893496
20
302.599853
11
116.132186
21
303.272094
0
LINE
8
boundary
62
5
39
2
10
116.132186
20
303.272094
11
116.628929
21
304.699617
0
LINE
8
boundary
62
5
39
2
10
116.628929
20
304.699617
11
117.186676
21
306.358295
0
LINE
8
boundary
62
5
39
2
10
117.186676
20
306.358295
11
117.432162
21
307.108104
0
LINE
8
boundary
62
5
39
2
10
117.432162
20
307.108104
11
117.671765
21
307.853799
0
LINE
8
boundary
62
5
39
2
10
117.671765
20
307.853799
11
118.113020
21
309.261965
0
LINE
8
boundary
62
5
39
2
10
118.113020
20
309.261965
11
118.556130
21
310.751265
0
LINE
8
boundary
62
5
39
2
10
118.556130
20
310.751265
11
118.725906
21
311.339409
0
LINE
8
boundary
62
5
39
2
10
118.725906
20
311.339409
11
118.954539
21
312.154449
0
LINE
8
boundary
62
5
39
2
10
118.954539
20
312.154449
11
119.279425
21
313.349599
0
LINE
8
boundary
62
5
39
2
10
119.279425
20
313.349599
11
119.423991
21
313.913408
0
LINE
8
boundary
62
5
39
2
10
119.423991
20
313.913408
11
119.664986
21
314.870000
0
LINE
8
boundary
62
5
39
2
10
119.664986
20
314.870000
11
119.974625
21
316.184476
0
LINE
8
boundary
62
5
39
2
10
119.974625
20
316.184476
11
120.189179
21
317.146486
0
LINE
8
boundary
62
5
39
2
10
120.189179
20
317.146486
11
120.405880
21
318.206848
0
LINE
8
boundary
62
5
39
2
10
120.405880
20
318.206848
11
120.509086
21
318.725210
0
LINE
8
boundary
62
5
39
2
10
120.509086
20
318.725210
11
120.728253
21
319.954642
0
LINE
8
boundary
62
5
39
2
10
120.728253
20
319.954642
11
120.845005
21
320.655689
0
LINE
8
boundary
62
5
39
2
10
120.845005
20
320.655689
11
121.083642
21
322.310204
0
LINE
8
boundary
62
5
39
2
10
121.083642
20
322.310204
11
121.213347
21
323.475474
0
LINE
8
boundary
62
5
39
2
10
121.213347
20
323.475474
11
121.313204
21
324.595805
0
LINE
8
boundary
62
5
39
2
10
121.313204
20
324.595805
11
121.372071
21
325.404353
0
LINE
8
boundary
62
5
39
2
10
121.372071
20
325.404353
11
121.399517
21
325.983219
0
LINE
8
boundary
62
5
39
2
10
121.399517
20
325.983219
11
121.430585
21
326.855645
0
LINE
8
boundary
62
5
39
2
10
121.430585
20
326.855645
11
121.427106
21
328.531498
0
LINE
8
boundary
62
5
39
2
10
121.427106
20
328.531498
11
121.370022
21
329.705130
0
LINE
8
boundary
62
5
39
2
10
121.370022
20
329.705130
11
121.325994
21
330.427163
0
LINE
8
boundary
62
5
39
2
10
121.325994
20
330.427163
11
121.227585
21
331.337669
0
LINE
8
boundary
62
5
39
2
10
121.227585
20
331.337669
11
121.145166
21
332.052467
0
LINE
8
boundary
62
5
39
2
10
121.145166
20
332.052467
11
121.020668
21
332.802690
0
LINE
8
boundary
62
5
39
2
10
121.020668
20
332.802690
11
120.888751
21
333.573651
0
LINE
8
boundary
62
5
39
2
10
120.888751
20
333.573651
11
120.751924
21
334.180144
0
LINE
8
boundary
62
5
39
2
10
120.751924
20
334.180144
11
120.625391
21
334.726891
0
LINE
8
boundary
62
5
39
2
10
120.625391
20
334.726891
11
120.372518
21
335.641501
0
LINE
8
boundary
62
5
39
2
10
120.372518
20
335.641501
11
120.174171
21
336.307935
0
LINE
8
boundary
62
5
39
2
10
120.174171
20
336.307935
11
119.917286
21
337.013647
0
LINE
8
boundary
62
5
39
2
10
119.917286
20
337.013647
11
119.727584
21
337.523567
0
LINE
8
boundary
62
5
39
2
10
119.727584
20
337.523567
11
119.432303
21
338.183574
0
LINE
8
boundary
62
5
39
2
10
119.432303
20
338.183574
11
119.055910
21
338.956782
0
LINE
8
boundary
62
5
39
2
10
119.055910
20
338.956782
11
118.679224
21
339.652735
0
LINE
8
boundary
62
5
39
2
10
118.679224
20
339.652735
11
118.207039
21
340.378886
0
LINE
8
boundary
62
5
39
2
10
118.207039
20
340.378886
11
117.730140
21
341.019989
0
LINE
8
boundary
62
5
39
2
10
117.730140
20
341.019989
11
117.226480
21
341.614677
0
LINE
8
boundary
62
5
39
2
10
117.226480
20
341.614677
11
116.777361
21
342.088217
0
LINE
8
boundary
62
5
39
2
10
116.777361
20
342.088217
11
116.370534
21
342.441041
0
LINE
8
boundary
62
5
39
2
10
116.370534
20
342.441041
11
115.549289
21
343.056047
0
LINE
8
boundary
62
5
39
2
10
115.549289
20
343.056047
11
114.934885
21
343.414087
0
LINE
8
boundary
62
5
39
2
10
114.934885
20
343.414087
11
114.291646
21
343.712062
0
LINE
8
boundary
62
5
39
2
10
114.291646
20
343.712062
11
113.769394
21
343.907336
0
LINE
8
boundary
62
5
39
2
10
113.769394
20
343.907336
11
112.952828
21
344.103119
0
LINE
8
boundary
62
5
39
2
10
112.952828
20
344.103119
11
112.171054
21
344.186875
0
LINE
8
boundary
62
5
39
2
10
112.171054
20
344.186875
11
111.392341
21
344.178198
0
LINE
8
boundary
62
5
39
2
10
111.392341
20
344.178198
11
110.580530
21
344.077933
0
LINE
8
boundary
62
5
39
2
10
110.580530
20
344.077933
11
109.734309
21
343.876980
0
LINE
8
boundary
62
5
39
2
10
109.734309
20
343.876980
11
108.852364
21
343.564937
0
LINE
8
boundary
62
5
39
2
10
108.852364
20
343.564937
11
107.933210
21
343.129550
0
LINE
8
boundary
62
5
39
2
10
107.933210
20
343.129550
11
106.975187
21
342.556296
0
LINE
8
boundary
62
5
39
2
10
106.975187
20
342.556296
11
105.976135
21
341.829018
0
LINE
8
boundary
62
5
39
2
10
105.976135
20
341.829018
11
105.226718
21
341.188780
0
LINE
8
boundary
62
5
39
2
10
105.226718
20
341.188780
11
104.050339
21
340.064538
0
LINE
8
boundary
62
5
39
2
10
104.050339
20
340.064538
11
103.128752
21
339.062133
0
LINE
8
boundary
62
5
39
2
10
103.128752
20
339.062133
11
102.625715
21
338.465214
0
LINE
8
boundary
62
5
39
2
10
102.625715
20
338.465214
11
102.204271
21
337.962239
0
LINE
8
boundary
62
5
39
2
10
102.204271
20
337.962239
11
101.359901
21
336.875985
0
LINE
8
boundary
62
5
39
2
10
101.359901
20
336.875985
11
100.345407
21
335.483726
0
LINE
8
boundary
62
5
39
2
10
100.345407
20
335.483726
11
100.038121
21
335.033762
0
LINE
8
boundary
62
5
39
2
10
100.038121
20
335.033762
11
99.410919
21
334.112289
0
LINE
8
boundary
62
5
39
2
10
99.410919
20
334.112289
11
98.631777
21
332.903551
0
LINE
8
boundary
62
5
39
2
10
98.631777
20
332.903551
11
98.207545
21
332.222681
0
LINE
8
boundary
62
5
39
2
10
98.207545
20
332.222681
11
97.722101
21
331.430775
0
LINE
8
boundary
62
5
39
2
10
97.722101
20
331.430775
11
108.975097
21
331.280775
0
LINE
8
boundary
62
5
39
2
10
108.975097
20
331.280775
11
108.975097
21
328.534775
0
LINE
8
boundary
62
5
39
2
10
108.975097
20
328.534775
11
96.043678
21
328.534775
0
LINE
8
boundary
62
5
39
2
10
96.043678
20
328.534775
11
95.648395
21
327.829939
0
LINE
8
boundary
62
5
39
2
10
95.648395
20
327.829939
11
95.324376
21
327.228436
0
LINE
8
boundary
62
5
39
2
10
95.324376
20
327.228436
11
94.702437
21
326.074041
0
LINE
8
boundary
62
5
39
2
10
94.702437
20
326.074041
11
94.119424
21
324.950407
0
LINE
8
boundary
62
5
39
2
10
94.119424
20
324.950407
11
93.755844
21
324.249814
0
LINE
8
boundary
62
5
39
2
10
93.755844
20
324.249814
11
93.304441
21
323.348209
0
LINE
8
boundary
62
5
39
2
10
93.304441
20
323.348209
11
92.808376
21
322.358282
0
LINE
8
boundary
62
5
39
2
10
92.808376
20
322.358282
11
92.450046
21
321.618736
0
LINE
8
boundary
62
5
39
2
10
92.450046
20
321.618736
11
91.860658
21
320.400904
0
LINE
8
boundary
62
5
39
2
10
91.860658
20
320.400904
11
90.917198
21
318.387439
0
LINE
8
boundary
62
5
39
2
10
90.917198
20
318.387439
11
89.966546
21
316.293485
0
LINE
8
boundary
62
5
39
2
10
89.966546
20
316.293485
11
89.474016
21
315.179463
0
LINE
8
boundary
62
5
39
2
10
89.474016
20
315.179463
11
89.256908
21
314.686857
0
LINE
8
boundary
62
5
39
2
10
89.256908
20
314.686857
11
88.547002
21
313.041948
0
LINE
8
boundary
62
5
39
2
10
88.547002
20
313.041948
11
88.342084
21
312.554021
0
LINE
8
boundary
62
5
39
2
10
88.342084
20
312.554021
11
103.113288
21
312.404021
0
LINE
8
boundary
62
5
39
2
10
103.113288
20
312.404021
11
103.113288
21
309.658022
0
LINE
8
boundary
62
5
39
2
10
103.113288
20
309.658022
11
87.134472
21
309.658021
0
LINE
8
boundary
62
5
39
2
10
87.134472
20
309.658021
11
86.770665
21
308.759658
0
LINE
8
boundary
62
5
39
2
10
86.770665
20
308.759658
11
86.422562
21
307.894858
0
LINE
8
boundary
62
5
39
2
10
86.422562
20
307.894858
11
85.714019
21
306.100712
0
LINE
8
boundary
62
5
39
2
10
85.714019
20
306.100712
11
85.320689
21
305.079267
0
LINE
8
boundary
62
5
39
2
10
85.320689
20
305.079267
11
85.005638
21
304.269886
0
LINE
8
boundary
62
5
39
2
10
85.005638
20
304.269886
11
84.337935
21
302.508290
0
LINE
8
boundary
62
5
39
2
10
84.337935
20
302.508290
11
83.878778
21
301.279768
0
LINE
8
boundary
62
5
39
2
10
83.878778
20
301.279768
11
83.585904
21
300.481301
0
LINE
8
boundary
62
5
39
2
10
83.585904
20
300.481301
11
83.386651
21
299.945142
0
LINE
8
boundary
62
5
39
2
10
83.386651
20
299.945142
11
82.875103
21
298.530158
0
LINE
8
boundary
62
5
39
2
10
82.875103
20
298.530158
11
82.383651
21
297.157002
0
LINE
8
boundary
62
5
39
2
10
82.383651
20
297.157002
11
82.199055
21
296.638085
0
LINE
8
boundary
62
5
39
2
10
82.199055
20
296.638085
11
81.602782
21
294.936952
0
LINE
8
boundary
62
5
39
2
10
81.602782
20
294.936952
11
81.168926
21
293.677267
0
LINE
8
boundary
62
5
39
2
10
81.168926
20
293.677267
11
96.118132
21
293.527267
0
LINE
8
boundary
62
5
39
2
10
96.118132
20
293.527267
11
96.118132
21
290.781267
0
LINE
8
boundary
62
5
39
2
10
96.118132
20
290.781267
11
80.187699
21
290.781267
0
LINE
8
boundary
62
5
39
2
10
80.187699
20
290.781267
11
80.020980
21
290.279695
0
LINE
8
boundary
62
5
39
2
10
80.020980
20
290.279695
11
79.813006
21
289.662682
0
LINE
8
boundary
62
5
39
2
10
79.813006
20
289.662682
11
79.305399
21
288.115928
0
LINE
8
boundary
62
5
39
2
10
79.305399
20
288.115928
11
78.760053
21
286.440865
0
LINE
8
boundary
62
5
39
2
10
78.760053
20
286.440865
11
78.589118
21
285.909838
0
LINE
8
boundary
62
5
39
2
10
78.589118
20
285.909838
11
78.017716
21
284.121223
0
LINE
8
boundary
62
5
39
2
10
78.017716
20
284.121223
11
77.417891
21
282.216822
0
LINE
8
boundary
62
5
39
2
10
77.417891
20
282.216822
11
77.154959
21
281.364940
0
LINE
8
boundary
62
5
39
2
10
77.154959
20
281.364940
11
76.817397
21
280.285100
0
LINE
8
boundary
62
5
39
2
10
76.817397
20
280.285100
11
76.436888
21
279.039793
0
LINE
8
boundary
62
5
39
2
10
76.436888
20
279.039793
11
76.216093
21
278.326254
0
LINE
8
boundary
62
5
39
2
10
76.216093
20
278.326254
11
75.718177
21
276.681135
0
LINE
8
boundary
62
5
39
2
10
75.718177
20
276.681135
11
75.151865
21
274.800513
0
LINE
8
boundary
62
5
39
2
10
75.151865
20
274.800513
11
89.091641
21
274.650514
0
LINE
8
boundary
62
5
39
2
10
89.091641
20
274.650514
11
89.091641
21
271.904514
0
LINE
8
boundary
62
5
39
2
10
89.091641
20
271.904514
11
74.294775
21
271.904514
0
LINE
8
boundary
62
5
39
2
10
74.294775
20
271.904514
11
73.805635
21
270.239847
0
LINE
8
boundary
62
5
39
2
10
73.805635
20
270.239847
11
73.562261
21
269.397418
0
LINE
8
boundary
62
5
39
2
10
73.562261
20
269.397418
11
73.201907
21
268.162603
0
LINE
8
boundary
62
5
39
2
10
73.201907
20
268.162603
11
72.843346
21
266.913621
0
LINE
8
boundary
62
5
39
2
10
72.843346
20
266.913621
11
72.327103
21
265.127594
0
LINE
8
boundary
62
5
39
2
10
72.327103
20
265.127594
11
71.276708
21
261.425902
0
LINE
8
boundary
62
5
39
2
10
71.276708
20
261.425902
11
71.043611
21
260.602696
0
LINE
8
boundary
62
5
39
2
10
71.043611
20
260.602696
11
69.768008
21
256.047071
0
LINE
8
boundary
62
5
39
2
10
69.768008
20
256.047071
11
82.283392
21
255.773760
0
LINE
8
boundary
62
5
39
2
10
82.283392
20
255.773760
11
82.283392
21
253.027760
0
LINE
8
boundary
62
5
39
2
10
82.283392
20
253.027760
11
68.931499
21
253.027760
0
LINE
8
boundary
62
5
39
2
10
68.931499
20
253.027760
11
68.578019
21
251.757607
0
LINE
8
boundary
62
5
39
2
10
68.578019
20
251.757607
11
67.585404
21
248.164522
0
LINE
8
boundary
62
5
39
2
10
67.585404
20
248.164522
11
67.326290
21
247.228186
0
LINE
8
boundary
62
5
39
2
10
67.326290
20
247.228186
11
66.466661
21
244.106207
0
LINE
8
boundary
62
5
39
2
10
66.466661
20
244.106207
11
66.161142
21
242.994977
0
LINE
8
boundary
62
5
39
2
10
66.161142
20
242.994977
11
65.410710
21
240.278551
0
LINE
8
boundary
62
5
39
2
10
65.410710
20
240.278551
11
64.741120
21
237.858559
0
LINE
8
boundary
62
5
39
2
10
64.741120
20
237.858559
11
64.515926
21
237.047006
0
LINE
8
boundary
62
5
39
2
10
64.515926
20
237.047006
11
75.765396
21
236.897006
0
LINE
8
boundary
62
5
39
2
10
75.765396
20
236.897006
11
75.765396
21
234.151006
0
LINE
8
boundary
62
5
39
2
10
75.765396
20
234.151006
11
63.708381
21
234.151006
0
LINE
8
boundary
62
5
39
2
10
63.708381
20
234.151006
11
63.324969
21
232.781578
0
LINE
8
boundary
62
5
39
2
10
63.324969
20
232.781578
11
63.106828
21
232.006590
0
LINE
8
boundary
62
5
39
2
10
63.106828
20
232.006590
11
62.684408
21
230.513067
0
LINE
8
boundary
62
5
39
2
10
62.684408
20
230.513067
11
62.072478
21
228.365266
0
LINE
8
boundary
62
5
39
2
10
62.072478
20
228.365266
11
61.908315
21
227.794820
0
LINE
8
boundary
62
5
39
2
10
61.908315
20
227.794820
11
61.459516
21
226.231841
0
LINE
8
boundary
62
5
39
2
10
61.459516
20
226.231841
11
61.201776
21
225.344712
0
LINE
8
boundary
62
5
39
2
10
61.201776
20
225.344712
11
60.845446
21
224.114106
0
LINE
8
boundary
62
5
39
2
10
60.845446
20
224.114106
11
60.496868
21
222.926169
0
LINE
8
boundary
62
5
39
2
10
60.496868
20
222.926169
11
60.230222
21
222.012715
0
LINE
8
boundary
62
5
39
2
10
60.230222
20
222.012715
11
59.793630
21
220.538891
0
LINE
8
boundary
62
5
39
2
10
59.793630
20
220.538891
11
59.613886
21
219.927856
0
LINE
8
boundary
62
5
39
2
10
59.613886
20
219.927856
11
59.092117
21
218.182287
0
LINE
8
boundary
62
5
39
2
10
59.092117
20
218.182287
11
69.394325
21
218.020252
0
LINE
8
boundary
62
5
39
2
10
69.394325
20
218.020252
11
69.394325
21
215.274253
0
LINE
8
boundary
62
5
39
2
10
69.394325
20
215.274253
11
58.215423
21
215.274253
0
LINE
8
boundary
62
5
39
2
10
58.215423
20
215.274253
11
57.755579
21
213.778745
0
LINE
8
boundary
62
5
39
2
10
57.755579
20
213.778745
11
56.828291
21
210.791280
0
LINE
8
boundary
62
5
39
2
10
56.828291
20
210.791280
11
56.514599
21
209.801460
0
LINE
8
boundary
62
5
39
2
10
56.514599
20
209.801460
11
55.860026
21
207.712420
0
LINE
8
boundary
62
5
39
2
10
55.860026
20
207.712420
11
55.349564
21
206.119677
0
LINE
8
boundary
62
5
39
2
10
55.349564
20
206.119677
11
54.889611
21
204.663873
0
LINE
8
boundary
62
5
39
2
10
54.889611
20
204.663873
11
54.193339
21
202.510822
0
LINE
8
boundary
62
5
39
2
10
54.193339
20
202.510822
11
53.918320
21
201.645779
0
LINE
8
boundary
62
5
39
2
10
53.918320
20
201.645779
11
53.152536
21
199.293498
0
LINE
8
boundary
62
5
39
2
10
53.152536
20
199.293498
11
63.020321
21
199.143499
0
LINE
8
boundary
62
5
39
2
10
63.020321
20
199.143499
11
63.020321
21
196.397498
0
LINE
8
boundary
62
5
39
2
10
63.020321
20
196.397498
11
52.206880
21
196.397498
0
LINE
8
boundary
62
5
39
2
10
52.206880
20
196.397498
11
52.029921
21
195.861875
0
LINE
8
boundary
62
5
39
2
10
52.029921
20
195.861875
11
51.186201
21
193.316788
0
LINE
8
boundary
62
5
39
2
10
51.186201
20
193.316788
11
50.771327
21
192.079615
0
LINE
8
boundary
62
5
39
2
10
50.771327
20
192.079615
11
50.342522
21
190.782799
0
LINE
8
boundary
62
5
39
2
10
50.342522
20
190.782799
11
49.651176
21
188.718610
0
LINE
8
boundary
62
5
39
2
10
49.651176
20
188.718610
11
49.029293
21
186.848528
0
LINE
8
boundary
62
5
39
2
10
49.029293
20
186.848528
11
48.662818
21
185.758736
0
LINE
8
boundary
62
5
39
2
10
48.662818
20
185.758736
11
47.831567
21
183.276527
0
LINE
8
boundary
62
5
39
2
10
47.831567
20
183.276527
11
47.447741
21
182.140185
0
LINE
8
boundary
62
5
39
2
10
47.447741
20
182.140185
11
47.006970
21
180.807321
0
LINE
8
boundary
62
5
39
2
10
47.006970
20
180.807321
11
46.886752
21
180.266745
0
LINE
8
boundary
62
5
39
2
10
46.886752
20
180.266745
11
56.729316
21
180.266745
0
LINE
8
boundary
62
5
39
2
10
56.729316
20
180.266745
11
56.729316
21
177.520745
0
LINE
8
boundary
62
5
39
2
10
56.729316
20
177.520745
11
45.916953
21
177.520745
0
LINE
8
boundary
62
5
39
2
10
45.916953
20
177.520745
11
45.597713
21
176.551844
0
LINE
8
boundary
62
5
39
2
10
45.597713
20
176.551844
11
45.385420
21
175.914344
0
LINE
8
boundary
62
5
39
2
10
45.385420
20
175.914344
11
44.903649
21
174.454605
0
LINE
8
boundary
62
5
39
2
10
44.903649
20
174.454605
11
44.455624
21
173.085802
0
LINE
8
boundary
62
5
39
2
10
44.455624
20
173.085802
11
44.280572
21
172.552473
0
LINE
8
boundary
62
5
39
2
10
44.280572
20
172.552473
11
44.012612
21
171.722015
0
LINE
8
boundary
62
5
39
2
10
44.012612
20
171.722015
11
43.771410
21
170.979096
0
LINE
8
boundary
62
5
39
2
10
43.771410
20
170.979096
11
43.574896
21
170.363144
0
LINE
8
boundary
62
5
39
2
10
43.574896
20
170.363144
11
43.269447
21
169.411033
0
LINE
8
boundary
62
5
39
2
10
43.269447
20
169.411033
11
42.774976
21
167.847694
0
LINE
8
boundary
62
5
39
2
10
42.774976
20
167.847694
11
42.349059
21
166.483008
0
LINE
8
boundary
62
5
39
2
10
42.349059
20
166.483008
11
41.876420
21
164.973623
0
LINE
8
boundary
62
5
39
2
10
41.876420
20
164.973623
11
41.463600
21
163.636416
0
LINE
8
boundary
62
5
39
2
10
41.463600
20
163.636416
11
41.057614
21
162.303351
0
LINE
8
boundary
62
5
39
2
10
41.057614
20
162.303351
11
40.853591
21
161.630005
0
LINE
8
boundary
62
5
39
2
10
40.853591
20
161.630005
11
50.810983
21
161.389991
0
LINE
8
boundary
62
5
39
2
10
50.810983
20
161.389991
11
50.810982
21
158.643991
0
LINE
8
boundary
62
5
39
2
10
50.810982
20
158.643991
11
39.974290
21
158.643991
0
LINE
8
boundary
62
5
39
2
10
39.974290
20
158.643991
11
39.546298
21
157.148278
0
LINE
8
boundary
62
5
39
2
10
39.546298
20
157.148278
11
39.129223
21
155.694779
0
LINE
8
boundary
62
5
39
2
10
39.129223
20
155.694779
11
38.758864
21
154.381404
0
LINE
8
boundary
62
5
39
2
10
38.758864
20
154.381404
11
38.395079
21
153.070897
0
LINE
8
boundary
62
5
39
2
10
38.395079
20
153.070897
11
38.195946
21
152.346348
0
LINE
8
boundary
62
5
39
2
10
38.195946
20
152.346348
11
38.037742
21
151.763106
0
LINE
8
boundary
62
5
39
2
10
38.037742
20
151.763106
11
37.777139
21
150.797069
0
LINE
8
boundary
62
5
39
2
10
37.777139
20
150.797069
11
37.365654
21
149.245878
0
LINE
8
boundary
62
5
39
2
10
37.365654
20
149.245878
11
37.220439
21
148.688545
0
LINE
8
boundary
62
5
39
2
10
37.220439
20
148.688545
11
36.996333
21
147.851823
0
LINE
8
boundary
62
5
39
2
10
36.996333
20
147.851823
11
36.652481
21
146.548626
0
LINE
8
boundary
62
5
39
2
10
36.652481
20
146.548626
11
36.313931
21
145.247086
0
LINE
8
boundary
62
5
39
2
10
36.313931
20
145.247086
11
36.141297
21
144.575778
0
LINE
8
boundary
62
5
39
2
10
36.141297
20
144.575778
11
35.867778
21
143.499254
0
LINE
8
boundary
62
5
39
2
10
35.867778
20
143.499254
11
35.657967
21
142.663236
0
LINE
8
boundary
62
5
39
2
10
35.657967
20
142.663236
11
45.617556
21
142.513237
0
LINE
8
boundary
62
5
39
2
10
45.617556
20
142.513237
11
45.617556
21
139.767237
0
LINE
8
boundary
62
5
39
2
10
45.617556
20
139.767237
11
34.931689
21
139.767237
0
LINE
8
boundary
62
5
39
2
10
34.931689
20
139.767237
11
34.754835
21
139.069088
0
LINE
8
boundary
62
5
39
2
10
34.754835
20
139.069088
11
34.561501
21
138.295209
0
LINE
8
boundary
62
5
39
2
10
34.561501
20
138.295209
11
34.206445
21
136.859994
0
LINE
8
boundary
62
5
39
2
10
34.206445
20
136.859994
11
33.784153
21
135.125472
0
LINE
8
boundary
62
5
39
2
10
33.784153
20
135.125472
11
33.434426
21
133.664659
0
LINE
8
boundary
62
5
39
2
10
33.434426
20
133.664659
11
33.136451
21
132.467442
0
LINE
8
boundary
62
5
39
2
10
33.136451
20
132.467442
11
33.005870
21
131.933611
0
LINE
8
boundary
62
5
39
2
10
33.005870
20
131.933611
11
32.598449
21
130.268599
0
LINE
8
boundary
62
5
39
2
10
32.598449
20
130.268599
11
32.226337
21
128.718313
0
LINE
8
boundary
62
5
39
2
10
32.226337
20
128.718313
11
32.073196
21
128.083895
0
LINE
8
boundary
62
5
39
2
10
32.073196
20
128.083895
11
31.767689
21
126.791372
0
LINE
8
boundary
62
5
39
2
10
31.767689
20
126.791372
11
31.546170
21
125.899656
0
LINE
8
boundary
62
5
39
2
10
31.546170
20
125.899656
11
31.027605
21
123.786483
0
LINE
8
boundary
62
5
39
2
10
31.027605
20
123.786483
11
40.907116
21
123.636484
0
LINE
8
boundary
62
5
39
2
10
40.907116
20
123.636484
11
40.907116
21
120.890484
0
LINE
8
boundary
62
5
39
2
10
40.907116
20
120.890484
11
30.329378
21
120.890483
0
LINE
8
boundary
62
5
39
2
10
30.329378
20
120.890483
11
30.164197
21
120.197939
0
LINE
8
boundary
62
5
39
2
10
30.164197
20
120.197939
11
29.951141
21
119.351258
0
LINE
8
boundary
62
5
39
2
10
29.951141
20
119.351258
11
29.404194
21
117.161180
0
LINE
8
boundary
62
5
39
2
10
29.404194
20
117.161180
11
29.030226
21
115.631867
0
LINE
8
boundary
62
5
39
2
10
29.030226
20
115.631867
11
28.869559
21
114.990432
0
LINE
8
boundary
62
5
39
2
10
28.869559
20
114.990432
11
28.579311
21
113.801208
0
LINE
8
boundary
62
5
39
2
10
28.579311
20
113.801208
11
28.308434
21
112.756548
0
LINE
8
boundary
62
5
39
2
10
28.308434
20
112.756548
11
27.709301
21
110.436152
0
LINE
8
boundary
62
5
39
2
10
27.709301
20
110.436152
11
27.345168
21
108.990334
0
LINE
8
boundary
62
5
39
2
10
27.345168
20
108.990334
11
27.155838
21
108.263432
0
LINE
8
boundary
62
5
39
2
10
27.155838
20
108.263432
11
26.664992
21
106.322148
0
LINE
8
boundary
62
5
39
2
10
26.664992
20
106.322148
11
26.288068
21
104.909730
0
LINE
8
boundary
62
5
39
2
10
26.288068
20
104.909730
11
36.400721
21
104.759730
0
LINE
8
boundary
62
5
39
2
10
36.400721
20
104.759730
11
36.400721
21
102.013729
0
LINE
8
boundary
62
5
39
2
10
36.400721
20
102.013729
11
25.518355
21
102.013729
0
LINE
8
boundary
62
5
39
2
10
25.518355
20
102.013729
11
25.245776
21
101.002808
0
LINE
8
boundary
62
5
39
2
10
25.245776
20
101.002808
11
24.996177
21
100.095448
0
LINE
8
boundary
62
5
39
2
10
24.996177
20
100.095448
11
24.662012
21
98.855415
0
LINE
8
boundary
62
5
39
2
10
24.662012
20
98.855415
11
24.523018
21
98.353612
0
LINE
8
boundary
62
5
39
2
10
24.523018
20
98.353612
11
24.143044
21
97.003707
0
LINE
8
boundary
62
5
39
2
10
24.143044
20
97.003707
11
23.789294
21
95.719868
0
LINE
8
boundary
62
5
39
2
10
23.789294
20
95.719868
11
23.625384
21
95.134167
0
LINE
8
boundary
62
5
39
2
10
23.625384
20
95.134167
11
23.279294
21
93.929418
0
LINE
8
boundary
62
5
39
2
10
23.279294
20
93.929418
11
23.049126
21
93.110197
0
LINE
8
boundary
62
5
39
2
10
23.049126
20
93.110197
11
22.844570
21
92.401432
0
LINE
8
boundary
62
5
39
2
10
22.844570
20
92.401432
11
22.565468
21
91.412352
0
LINE
8
boundary
62
5
39
2
10
22.565468
20
91.412352
11
22.369724
21
90.749263
0
LINE
8
boundary
62
5
39
2
10
22.369724
20
90.749263
11
21.806849
21
88.838924
0
LINE
8
boundary
62
5
39
2
10
21.806849
20
88.838924
11
21.567045
21
87.996842
0
LINE
8
boundary
62
5
39
2
10
21.567045
20
87.996842
11
21.259904
21
86.960887
0
LINE
8
boundary
62
5
39
2
10
21.259904
20
86.960887
11
20.995388
21
86.032975
0
LINE
8
boundary
62
5
39
2
10
20.995388
20
86.032975
11
31.949901
21
85.882976
0
LINE
8
boundary
62
5
39
2
10
31.949901
20
85.882976
11
31.949901
21
83.136976
0
LINE
8
boundary
62
5
39
2
10
31.949901
20
83.136976
11
20.153862
21
83.136976
0
LINE
8
boundary
62
5
39
2
10
20.153862
20
83.136976
11
19.364939
21
80.510449
0
LINE
8
boundary
62
5
39
2
10
19.364939
20
80.510449
11
18.745188
21
78.330657
0
LINE
8
boundary
62
5
39
2
10
18.745188
20
78.330657
11
18.566669
21
77.734029
0
LINE
8
boundary
62
5
39
2
10
18.566669
20
77.734029
11
18.324509
21
76.876418
0
LINE
8
boundary
62
5
39
2
10
18.324509
20
76.876418
11
17.756339
21
74.976512
0
LINE
8
boundary
62
5
39
2
10
17.756339
20
74.976512
11
17.439916
21
73.847483
0
LINE
8
boundary
62
5
39
2
10
17.439916
20
73.847483
11
16.985905
21
72.314237
0
LINE
8
boundary
62
5
39
2
10
16.985905
20
72.314237
11
16.362175
21
70.063116
0
LINE
8
boundary
62
5
39
2
10
16.362175
20
70.063116
11
15.895787
21
68.439654
0
LINE
8
boundary
62
5
39
2
10
15.895787
20
68.439654
11
15.550402
21
67.215890
0
LINE
8
boundary
62
5
39
2
10
15.550402
20
67.215890
11
27.714775
21
67.006222
0
LINE
8
boundary
62
5
39
2
10
27.714775
20
67.006222
11
27.714775
21
64.260222
0
LINE
8
boundary
62
5
39
2
10
27.714775
20
64.260222
11
14.742698
21
64.260222
0
LINE
8
boundary
62
5
39
2
10
14.742698
20
64.260222
11
14.591848
21
63.695441
0
LINE
8
boundary
62
5
39
2
10
14.591848
20
63.695441
11
14.273624
21
62.539434
0
LINE
8
boundary
62
5
39
2
10
14.273624
20
62.539434
11
13.968774
21
61.411504
0
LINE
8
boundary
62
5
39
2
10
13.968774
20
61.411504
11
13.675610
21
60.305327
0
LINE
8
boundary
62
5
39
2
10
13.675610
20
60.305327
11
13.490279
21
59.578192
0
LINE
8
boundary
62
5
39
2
10
13.490279
20
59.578192
11
13.149668
21
58.256401
0
LINE
8
boundary
62
5
39
2
10
13.149668
20
58.256401
11
13.010540
21
57.710281
0
LINE
8
boundary
62
5
39
2
10
13.010540
20
57.710281
11
12.840185
21
57.059998
0
LINE
8
boundary
62
5
39
2
10
12.840185
20
57.059998
11
12.555037
21
55.956978
0
LINE
8
boundary
62
5
39
2
10
12.555037
20
55.956978
11
12.279471
21
54.871338
0
LINE
8
boundary
62
5
39
2
10
12.279471
20
54.871338
11
12.012650
21
53.801034
0
LINE
8
boundary
62
5
39
2
10
12.012650
20
53.801034
11
11.862796
21
53.170819
0
LINE
8
boundary
62
5
39
2
10
11.862796
20
53.170819
11
11.563583
21
51.941247
0
LINE
8
boundary
62
5
39
2
10
11.563583
20
51.941247
11
11.271998
21
50.723534
0
LINE
8
boundary
62
5
39
2
10
11.271998
20
50.723534
11
11.025876
21
49.700766
0
LINE
8
boundary
62
5
39
2
10
11.025876
20
49.700766
11
10.873066
21
49.048896
0
LINE
8
boundary
62
5
39
2
10
10.873066
20
49.048896
11
10.694937
21
48.306938
0
LINE
8
boundary
62
5
39
2
10
10.694937
20
48.306938
11
23.766150
21
48.129468
0
LINE
8
boundary
62
5
39
2
10
23.766150
20
48.129468
11
23.766150
21
45.383468
0
LINE
8
boundary
62
5
39
2
10
23.766150
20
45.383468
11
10.013507
21
45.383469
0
LINE
8
boundary
62
5
39
2
10
10.013507
20
45.383469
11
9.861073
21
44.715318
0
LINE
8
boundary
62
5
39
2
10
9.861073
20
44.715318
11
9.745557
21
44.211713
0
LINE
8
boundary
62
5
39
2
10
9.745557
20
44.211713
11
9.592756
21
43.523524
0
LINE
8
boundary
62
5
39
2
10
9.592756
20
43.523524
11
9.427907
21
42.775523
0
LINE
8
boundary
62
5
39
2
10
9.427907
20
42.775523
11
9.171851
21
41.608907
0
LINE
8
boundary
62
5
39
2
10
9.171851
20
41.608907
11
8.989574
21
40.754048
0
LINE
8
boundary
62
5
39
2
10
8.989574
20
40.754048
11
8.822783
21
39.953384
0
LINE
8
boundary
62
5
39
2
10
8.822783
20
39.953384
11
8.632959
21
39.031154
0
LINE
8
boundary
62
5
39
2
10
8.632959
20
39.031154
11
8.433932
21
38.031802
0
LINE
8
boundary
62
5
39
2
10
8.433932
20
38.031802
11
8.269179
21
37.178840
0
LINE
8
boundary
62
5
39
2
10
8.269179
20
37.178840
11
8.146500
21
36.510605
0
LINE
8
boundary
62
5
39
2
10
8.146500
20
36.510605
11
8.032352
21
35.895127
0
LINE
8
boundary
62
5
39
2
10
8.032352
20
35.895127
11
7.845275
21
34.823991
0
LINE
8
boundary
62
5
39
2
10
7.845275
20
34.823991
11
7.710949
21
34.023588
0
LINE
8
boundary
62
5
39
2
10
7.710949
20
34.023588
11
7.571591
21
33.123627
0
LINE
8
boundary
62
5
39
2
10
7.571591
20
33.123627
11
7.467706
21
32.453341
0
LINE
8
boundary
62
5
39
2
10
7.467706
20
32.453341
11
7.346334
21
31.586775
0
LINE
8
boundary
62
5
39
2
10
7.346334
20
31.586775
11
7.251192
21
30.888183
0
LINE
8
boundary
62
5
39
2
10
7.251192
20
30.888183
11
7.098319
21
29.610796
0
LINE
8
boundary
62
5
39
2
10
7.098319
20
29.610796
11
20.223568
21
29.252714
0
LINE
8
boundary
62
5
39
2
10
20.223568
20
29.252714
11
20.223568
21
26.506714
0
LINE
8
boundary
62
5
39
2
10
20.223568
20
26.506714
11
6.810466
21
26.506714
0
LINE
8
boundary
62
5
39
2
10
6.810466
20
26.506714
11
6.728937
21
25.107667
0
LINE
8
boundary
62
5
39
2
10
6.728937
20
25.107667
11
6.690382
21
24.046934
0
LINE
8
boundary
62
5
39
2
10
6.690382
20
24.046934
11
6.667500
21
23.151092
0
LINE
8
boundary
62
5
39
2
10
6.667500
20
23.151092
11
6.670630
21
22.604820
0
LINE
8
boundary
62
5
39
2
10
6.670630
20
22.604820
11
6.674367
21
21.948695
0
LINE
8
boundary
62
5
39
2
10
6.674367
20
21.948695
11
6.705926
21
20.928776
0
LINE
8
boundary
62
5
39
2
10
6.705926
20
20.928776
11
6.735182
21
20.180657
0
LINE
8
boundary
62
5
39
2
10
6.735182
20
20.180657
11
6.805695
21
19.306068
0
LINE
8
boundary
62
5
39
2
10
6.805695
20
19.306068
11
6.850282
21
18.748554
0
LINE
8
boundary
62
5
39
2
10
6.850282
20
18.748554
11
6.951076
21
17.969219
0
LINE
8
boundary
62
5
39
2
10
6.951076
20
17.969219
11
7.025608
21
17.364684
0
LINE
8
boundary
62
5
39
2
10
7.025608
20
17.364684
11
7.224526
21
16.263427
0
LINE
8
boundary
62
5
39
2
10
7.224526
20
16.263427
11
7.462947
21
15.245046
0
LINE
8
boundary
62
5
39
2
10
7.462947
20
15.245046
11
7.699277
21
14.403478
0
LINE
8
boundary
62
5
39
2
10
7.699277
20
14.403478
11
7.958093
21
13.591900
0
LINE
8
boundary
62
5
39
2
10
7.958093
20
13.591900
11
8.280013
21
12.842941
0
LINE
8
boundary
62
5
39
2
10
8.280013
20
12.842941
11
8.628205
21
12.132150
0
LINE
8
boundary
62
5
39
2
10
8.628205
20
12.132150
11
8.963679
21
11.508310
0
LINE
8
boundary
62
5
39
2
10
8.963679
20
11.508310
11
9.429429
21
10.844453
0
LINE
8
boundary
62
5
39
2
10
9.429429
20
10.844453
11
9.795740
21
10.375961
0
LINE
8
boundary
62
5
39
2
10
9.795740
20
10.375961
11
17.088021
21
10.375961
0
LINE
8
boundary
62
5
39
2
10
17.088021
20
10.375961
11
17.088022
21
7.629960
0
LINE
8
boundary
62
5
39
2
10
17.088022
20
7.629960
11
13.752507
21
7.629961
0
LINE
8
boundary
62
5
39
2
10
13.752507
20
7.629961
11
14.336575
21
7.240186
0
LINE
8
boundary
62
5
39
2
10
14.336575
20
7.240186
11
14.985367
21
7.055802
0
LINE
8
boundary
62
5
39
2
10
14.985367
20
7.055802
11
15.624730
21
6.905669
0
LINE
8
boundary
62
5
39
2
10
15.624730
20
6.905669
11
16.264759
21
6.785585
0
LINE
8
boundary
62
5
39
2
10
16.264759
20
6.785585
11
16.909324
21
6.707402
0
LINE
8
boundary
62
5
39
2
10
16.909324
20
6.707402
11
17.561074
21
6.680947
0
LINE
8
boundary
62
5
39
2
10
17.561074
20
6.680947
11
18.204980
21
6.682059
0
LINE
8
boundary
62
5
39
2
10
18.204980
20
6.682059
11
18.836535
21
6.708509
0
LINE
8
boundary
62
5
39
2
10
18.836535
20
6.708509
11
19.473841
21
6.764207
0
LINE
8
boundary
62
5
39
2
10
19.473841
20
6.764207
11
20.264262
21
6.889464
0
LINE
8
boundary
62
5
39
2
10
20.264262
20
6.889464
11
21.218088
21
7.123458
0
LINE
8
boundary
62
5
39
2
10
21.218088
20
7.123458
11
22.206021
21
7.488164
0
LINE
8
annotation
62
1
39
211
10
21.183350
20
7.654943
11
19.985996
21
7.654943
0
LINE
8
annotation
62
1
39
211
10
19.985996
20
7.654943
11
21.092390
21
9.436096
0
LINE
8
annotation
62
1
39
211
10
21.092390
20
9.436096
11
21.092390
21
9.436096
0
LINE
8
annotation
62
1
39
211
10
21.092390
20
9.436096
11
21.093713
21
9.437733
0
LINE
8
annotation
62
1
39
211
10
21.093713
20
9.437733
11
21.094981
21
9.439384
0
LINE
8
annotation
62
1
39
211
10
21.094981
20
9.439384
11
21.096204
21
9.441062
0
LINE
8
annotation
62
1
39
211
10
21.096204
20
9.441062
11
21.097389
21
9.442782
0
LINE
8
annotation
62
1
39
211
10
21.097389
20
9.442782
11
21.098544
21
9.444558
0
LINE
8
annotation
62
1
39
211
10
21.098544
20
9.444558
11
21.099679
21
9.446403
0
LINE
8
annotation
62
1
39
211
10
21.099679
20
9.446403
11
21.100801
21
9.448332
0
LINE
8
annotation
62
1
39
211
10
21.100801
20
9.448332
11
21.101920
21
9.450358
0
LINE
8
annotation
62
1
39
211
10
21.101920
20
9.450358
11
21.103042
21
9.452496
0
LINE
8
annotation
62
1
39
211
10
21.103042
20
9.452496
11
21.103042
21
9.452496
0
LINE
8
annotation
62
1
39
211
10
21.103042
20
9.452496
11
21.148725
21
9.550581
0
LINE
8
annotation
62
1
39
211
10
21.148725
20
9.550581
11
21.175412
21
9.652254
0
LINE
8
annotation
62
1
39
211
10
21.175412
20
9.652254
11
21.183757
21
9.755219
0
LINE
8
annotation
62
1
39
211
10
21.183757
20
9.755219
11
21.174415
21
9.857178
0
LINE
8
annotation
62
1
39
211
10
21.174415
20
9.857178
11
21.148039
21
9.955833
0
LINE
8
annotation
62
1
39
211
10
21.148039
20
9.955833
11
21.105284
21
10.048888
0
LINE
8
annotation
62
1
39
211
10
21.105284
20
10.048888
11
21.046802
21
10.134044
0
LINE
8
annotation
62
1
39
211
10
21.046802
20
10.134044
11
20.973250
21
10.209004
0
LINE
8
annotation
62
1
39
211
10
20.973250
20
10.209004
11
20.885280
21
10.271472
0
LINE
8
annotation
62
1
39
211
10
20.885280
20
10.271472
11
20.885280
21
10.271472
0
LINE
8
annotation
62
1
39
211
10
20.885280
20
10.271472
11
20.786922
21
10.316505
0
LINE
8
annotation
62
1
39
211
10
20.786922
20
10.316505
11
20.685093
21
10.342781
0
LINE
8
annotation
62
1
39
211
10
20.685093
20
10.342781
11
20.582068
21
10.350891
0
LINE
8
annotation
62
1
39
211
10
20.582068
20
10.350891
11
20.480124
21
10.341425
0
LINE
8
annotation
62
1
39
211
10
20.480124
20
10.341425
11
20.381539
21
10.314976
0
LINE
8
annotation
62
1
39
211
10
20.381539
20
10.314976
11
20.288587
21
10.272135
0
LINE
8
annotation
62
1
39
211
10
20.288587
20
10.272135
11
20.203547
21
10.213494
0
LINE
8
annotation
62
1
39
211
10
20.203547
20
10.213494
11
20.128693
21
10.139642
0
LINE
8
annotation
62
1
39
211
10
20.128693
20
10.139642
11
20.066304
21
10.051173
0
LINE
8
annotation
62
1
39
211
10
20.066304
20
10.051173
11
19.987686
21
9.900363
0
LINE
8
annotation
62
1
39
211
10
25.284069
20
25.479865
11
26.349966
21
25.479865
0
LINE
8
annotation
62
1
39
211
10
26.349966
20
25.479865
11
26.349966
21
25.479865
0
LINE
8
annotation
62
1
39
211
10
26.349966
20
25.479865
11
26.541670
21
25.497062
0
LINE
8
annotation
62
1
39
211
10
26.541670
20
25.497062
11
26.722057
21
25.546625
0
LINE
8
annotation
62
1
39
211
10
26.722057
20
25.546625
11
26.888127
21
25.625512
0
LINE
8
annotation
62
1
39
211
10
26.888127
20
25.625512
11
27.036879
21
25.730680
0
LINE
8
annotation
62
1
39
211
10
27.036879
20
25.730680
11
27.165312
21
25.859087
0
LINE
8
annotation
62
1
39
211
10
27.165312
20
25.859087
11
27.270428
21
26.007691
0
LINE
8
annotation
62
1
39
211
10
27.270428
20
26.007691
11
27.349225
21
26.173449
0
LINE
8
annotation
62
1
39
211
10
27.349225
20
26.173449
11
27.398704
21
26.353318
0
LINE
8
annotation
62
1
39
211
10
27.398704
20
26.353318
11
27.415863
21
26.544257
0
LINE
8
annotation
62
1
39
211
10
27.415863
20
26.544257
11
27.415863
21
27.077958
0
LINE
8
annotation
62
1
39
211
10
27.415863
20
27.077958
11
27.415863
21
27.077958
0
LINE
8
annotation
62
1
39
211
10
27.415863
20
27.077958
11
27.398704
21
27.268818
0
LINE
8
annotation
62
1
39
211
10
27.398704
20
27.268818
11
27.349225
21
27.448646
0
LINE
8
annotation
62
1
39
211
10
27.349225
20
27.448646
11
27.270428
21
27.614391
0
LINE
8
annotation
62
1
39
211
10
27.270428
20
27.614391
11
27.165312
21
27.763005
0
LINE
8
annotation
62
1
39
211
10
27.165312
20
27.763005
11
27.036879
21
27.891436
0
LINE
8
annotation
62
1
39
211
10
27.036879
20
27.891436
11
26.888127
21
27.996637
0
LINE
8
annotation
62
1
39
211
10
26.888127
20
27.996637
11
26.722057
21
28.075556
0
LINE
8
annotation
62
1
39
211
10
26.722057
20
28.075556
11
26.541670
21
28.125144
0
LINE
8
annotation
62
1
39
211
10
26.541670
20
28.125144
11
26.349966
21
28.142351
0
LINE
8
annotation
62
1
39
211
10
26.349966
20
28.142351
11
25.816265
21
28.142351
0
LINE
8
annotation
62
1
39
211
10
25.816265
20
28.142351
11
26.349966
21
28.142351
0
LINE
8
annotation
62
1
39
211
10
26.349966
20
28.142351
11
26.349966
21
28.142351
0
LINE
8
annotation
62
1
39
211
10
26.349966
20
28.142351
11
26.541670
21
28.159562
0
LINE
8
annotation
62
1
39
211
10
26.541670
20
28.159562
11
26.722057
21
28.209179
0
LINE
8
annotation
62
1
39
211
10
26.722057
20
28.209179
11
26.888127
21
28.288176
0
LINE
8
annotation
62
1
39
211
10
26.888127
20
28.288176
11
27.036879
21
28.393529
0
LINE
8
annotation
62
1
39
211
10
27.036879
20
28.393529
11
27.165312
21
28.522213
0
LINE
8
annotation
62
1
39
211
10
27.165312
20
28.522213
11
27.270428
21
28.671202
0
LINE
8
annotation
62
1
39
211
10
27.270428
20
28.671202
11
27.349225
21
28.837472
0
LINE
8
annotation
62
1
39
211
10
27.349225
20
28.837472
11
27.398704
21
29.017997
0
LINE
8
annotation
62
1
39
211
10
27.398704
20
29.017997
11
27.415863
21
29.209753
0
LINE
8
annotation
62
1
39
211
10
27.415863
20
29.209753
11
27.415863
21
29.209753
0
LINE
8
annotation
62
1
39
211
10
27.415863
20
29.209753
11
27.398704
21
29.400613
0
LINE
8
annotation
62
1
39
211
10
27.398704
20
29.400613
11
27.349225
21
29.580441
0
LINE
8
annotation
62
1
39
211
10
27.349225
20
29.580441
11
27.270428
21
29.746186
0
LINE
8
annotation
62
1
39
211
10
27.270428
20
29.746186
11
27.165312
21
29.894799
0
LINE
8
annotation
62
1
39
211
10
27.165312
20
29.894799
11
27.036879
21
30.023231
0
LINE
8
annotation
62
1
39
211
10
27.036879
20
30.023231
11
26.888127
21
30.128432
0
LINE
8
annotation
62
1
39
211
10
26.888127
20
30.128432
11
26.722057
21
30.207351
0
LINE
8
annotation
62
1
39
211
10
26.722057
20
30.207351
11
26.541670
21
30.256939
0
LINE
8
annotation
62
1
39
211
10
26.541670
20
30.256939
11
26.349966
21
30.274146
0
LINE
8
annotation
62
1
39
211
10
26.349966
20
30.274146
11
25.284069
21
30.274146
0
LINE
8
annotation
62
1
39
211
10
31.225145
20
45.423570
11
28.559950
21
45.423570
0
LINE
8
annotation
62
1
39
211
10
28.559950
20
45.423570
11
29.624343
21
49.156468
0
LINE
8
annotation
62
1
39
211
10
30.426249
20
44.356468
11
30.426249
21
46.488263
0
LINE
8
annotation
62
1
39
211
10
32.775276
20
63.233222
11
33.841173
21
63.233222
0
LINE
8
annotation
62
1
39
211
10
33.841173
20
63.233222
11
33.841173
21
63.233222
0
LINE
8
annotation
62
1
39
211
10
33.841173
20
63.233222
11
34.032481
21
63.250423
0
LINE
8
annotation
62
1
39
211
10
34.032481
20
63.250423
11
34.212657
21
63.300012
0
LINE
8
annotation
62
1
39
211
10
34.212657
20
63.300012
11
34.378665
21
63.378969
0
LINE
8
annotation
62
1
39
211
10
34.378665
20
63.378969
11
34.527466
21
63.484275
0
LINE
8
annotation
62
1
39
211
10
34.527466
20
63.484275
11
34.656024
21
63.612909
0
LINE
8
annotation
62
1
39
211
10
34.656024
20
63.612909
11
34.761301
21
63.761851
0
LINE
8
annotation
62
1
39
211
10
34.761301
20
63.761851
11
34.840259
21
63.928080
0
LINE
8
annotation
62
1
39
211
10
34.840259
20
63.928080
11
34.889861
21
64.108578
0
LINE
8
annotation
62
1
39
211
10
34.889861
20
64.108578
11
34.907070
21
64.300323
0
LINE
8
annotation
62
1
39
211
10
34.907070
20
64.300323
11
34.907070
21
64.831316
0
LINE
8
annotation
62
1
39
211
10
34.907070
20
64.831316
11
34.907070
21
64.831316
0
LINE
8
annotation
62
1
39
211
10
34.907070
20
64.831316
11
34.889871
21
65.022968
0
LINE
8
annotation
62
1
39
211
10
34.889871
20
65.022968
11
34.840294
21
65.203217
0
LINE
8
annotation
62
1
39
211
10
34.840294
20
65.203217
11
34.761367
21
65.369086
0
LINE
8
annotation
62
1
39
211
10
34.761367
20
65.369086
11
34.656123
21
65.517600
0
LINE
8
annotation
62
1
39
211
10
34.656123
20
65.517600
11
34.527590
21
65.645785
0
LINE
8
annotation
62
1
39
211
10
34.527590
20
65.645785
11
34.378799
21
65.750663
0
LINE
8
annotation
62
1
39
211
10
34.378799
20
65.750663
11
34.212779
21
65.829260
0
LINE
8
annotation
62
1
39
211
10
34.212779
20
65.829260
11
34.032560
21
65.878600
0
LINE
8
annotation
62
1
39
211
10
34.032560
20
65.878600
11
33.841173
21
65.895708
0
LINE
8
annotation
62
1
39
211
10
33.841173
20
65.895708
11
32.775276
21
65.895708
0
LINE
8
annotation
62
1
39
211
10
32.775276
20
65.895708
11
32.775276
21
68.033222
0
LINE
8
annotation
62
1
39
211
10
32.775276
20
68.033222
11
34.907070
21
68.033222
0
LINE
8
annotation
62
1
39
211
10
38.611505
20
86.909976
11
38.611505
21
86.909976
0
LINE
8
annotation
62
1
39
211
10
38.611505
20
86.909976
11
38.306153
21
86.795487
0
LINE
8
annotation
62
1
39
211
10
38.306153
20
86.795487
11
38.025951
21
86.641227
0
LINE
8
annotation
62
1
39
211
10
38.025951
20
86.641227
11
37.773778
21
86.451060
0
LINE
8
annotation
62
1
39
211
10
37.773778
20
86.451060
11
37.552509
21
86.228852
0
LINE
8
annotation
62
1
39
211
10
37.552509
20
86.228852
11
37.365021
21
85.978468
0
LINE
8
annotation
62
1
39
211
10
37.365021
20
85.978468
11
37.214190
21
85.703771
0
LINE
8
annotation
62
1
39
211
10
37.214190
20
85.703771
11
37.102892
21
85.408628
0
LINE
8
annotation
62
1
39
211
10
37.102892
20
85.408628
11
37.034004
21
85.096904
0
LINE
8
annotation
62
1
39
211
10
37.034004
20
85.096904
11
37.010402
21
84.772462
0
LINE
8
annotation
62
1
39
211
10
37.010402
20
84.772462
11
37.010402
21
83.177077
0
LINE
8
annotation
62
1
39
211
10
37.010402
20
83.177077
11
37.010402
21
83.177077
0
LINE
8
annotation
62
1
39
211
10
37.010402
20
83.177077
11
37.027611
21
82.985332
0
LINE
8
annotation
62
1
39
211
10
37.027611
20
82.985332
11
37.077213
21
82.804834
0
LINE
8
annotation
62
1
39
211
10
37.077213
20
82.804834
11
37.156171
21
82.638604
0
LINE
8
annotation
62
1
39
211
10
37.156171
20
82.638604
11
37.261448
21
82.489663
0
LINE
8
annotation
62
1
39
211
10
37.261448
20
82.489663
11
37.390006
21
82.361029
0
LINE
8
annotation
62
1
39
211
10
37.390006
20
82.361029
11
37.538807
21
82.255723
0
LINE
8
annotation
62
1
39
211
10
37.538807
20
82.255723
11
37.704815
21
82.176766
0
LINE
8
annotation
62
1
39
211
10
37.704815
20
82.176766
11
37.884991
21
82.127177
0
LINE
8
annotation
62
1
39
211
10
37.884991
20
82.127177
11
38.076299
21
82.109976
0
LINE
8
annotation
62
1
39
211
10
38.076299
20
82.109976
11
38.076299
21
82.109976
0
LINE
8
annotation
62
1
39
211
10
38.076299
20
82.109976
11
38.268003
21
82.127177
0
LINE
8
annotation
62
1
39
211
10
38.268003
20
82.127177
11
38.448390
21
82.176766
0
LINE
8
annotation
62
1
39
211
10
38.448390
20
82.176766
11
38.614460
21
82.255723
0
LINE
8
annotation
62
1
39
211
10
38.614460
20
82.255723
11
38.763212
21
82.361029
0
LINE
8
annotation
62
1
39
211
10
38.763212
20
82.361029
11
38.891646
21
82.489663
0
LINE
8
annotation
62
1
39
211
10
38.891646
20
82.489663
11
38.996761
21
82.638604
0
LINE
8
annotation
62
1
39
211
10
38.996761
20
82.638604
11
39.075558
21
82.804834
0
LINE
8
annotation
62
1
39
211
10
39.075558
20
82.804834
11
39.125037
21
82.985332
0
LINE
8
annotation
62
1
39
211
10
39.125037
20
82.985332
11
39.142197
21
83.177077
0
LINE
8
annotation
62
1
39
211
10
39.142197
20
83.177077
11
39.142197
21
83.708069
0
LINE
8
annotation
62
1
39
211
10
39.142197
20
83.708069
11
39.142197
21
83.708069
0
LINE
8
annotation
62
1
39
211
10
39.142197
20
83.708069
11
39.125037
21
83.899722
0
LINE
8
annotation
62
1
39
211
10
39.125037
20
83.899722
11
39.075558
21
84.079971
0
LINE
8
annotation
62
1
39
211
10
39.075558
20
84.079971
11
38.996761
21
84.245840
0
LINE
8
annotation
62
1
39
211
10
38.996761
20
84.245840
11
38.891646
21
84.394354
0
LINE
8
annotation
62
1
39
211
10
38.891646
20
84.394354
11
38.763212
21
84.522538
0
LINE
8
annotation
62
1
39
211
10
38.763212
20
84.522538
11
38.614460
21
84.627417
0
LINE
8
annotation
62
1
39
211
10
38.614460
20
84.627417
11
38.448390
21
84.706014
0
LINE
8
annotation
62
1
39
211
10
38.448390
20
84.706014
11
38.268003
21
84.755354
0
LINE
8
annotation
62
1
39
211
10
38.268003
20
84.755354
11
38.076299
21
84.772462
0
LINE
8
annotation
62
1
39
211
10
38.076299
20
84.772462
11
37.010402
21
84.772462
0
LINE
8
annotation
62
1
39
211
10
36.876901
20
81.509976
11
39.276901
21
81.509976
0
LINE
8
annotation
62
1
39
211
10
42.527119
20
100.986730
11
43.594221
21
105.786730
0
LINE
8
annotation
62
1
39
211
10
43.594221
20
105.786730
11
41.459717
21
105.786730
0
LINE
8
annotation
62
1
39
211
10
43.594221
20
103.649215
11
42.527119
21
103.649215
0
LINE
8
annotation
62
1
39
211
10
45.967616
20
120.927725
11
45.967616
21
120.927725
0
LINE
8
annotation
62
1
39
211
10
45.967616
20
120.927725
11
45.984826
21
120.736073
0
LINE
8
annotation
62
1
39
211
10
45.984826
20
120.736073
11
46.034428
21
120.555824
0
LINE
8
annotation
62
1
39
211
10
46.034428
20
120.555824
11
46.113386
21
120.389955
0
LINE
8
annotation
62
1
39
211
10
46.113386
20
120.389955
11
46.218663
21
120.241440
0
LINE
8
annotation
62
1
39
211
10
46.218663
20
120.241440
11
46.347221
21
120.113256
0
LINE
8
annotation
62
1
39
211
10
46.347221
20
120.113256
11
46.496022
21
120.008378
0
LINE
8
annotation
62
1
39
211
10
46.496022
20
120.008378
11
46.662030
21
119.929781
0
LINE
8
annotation
62
1
39
211
10
46.662030
20
119.929781
11
46.842206
21
119.880441
0
LINE
8
annotation
62
1
39
211
10
46.842206
20
119.880441
11
47.033514
21
119.863333
0
LINE
8
annotation
62
1
39
211
10
47.033514
20
119.863333
11
47.033514
21
119.863333
0
LINE
8
annotation
62
1
39
211
10
47.033514
20
119.863333
11
47.224822
21
119.880441
0
LINE
8
annotation
62
1
39
211
10
47.224822
20
119.880441
11
47.404998
21
119.929781
0
LINE
8
annotation
62
1
39
211
10
47.404998
20
119.929781
11
47.571006
21
120.008378
0
LINE
8
annotation
62
1
39
211
10
47.571006
20
120.008378
11
47.719807
21
120.113256
0
LINE
8
annotation
62
1
39
211
10
47.719807
20
120.113256
11
47.848365
21
120.241440
0
LINE
8
annotation
62
1
39
211
10
47.848365
20
120.241440
11
47.953642
21
120.389955
0
LINE
8
annotation
62
1
39
211
10
47.953642
20
120.389955
11
48.032600
21
120.555824
0
LINE
8
annotation
62
1
39
211
10
48.032600
20
120.555824
11
48.082202
21
120.736073
0
LINE
8
annotation
62
1
39
211
10
48.082202
20
120.736073
11
48.099411
21
120.927725
0
LINE
8
annotation
62
1
39
211
10
48.099411
20
120.927725
11
48.099411
21
121.458717
0
LINE
8
annotation
62
1
39
211
10
48.099411
20
121.458717
11
48.099411
21
121.458717
0
LINE
8
annotation
62
1
39
211
10
48.099411
20
121.458717
11
48.082212
21
121.650463
0
LINE
8
annotation
62
1
39
211
10
48.082212
20
121.650463
11
48.032634
21
121.830960
0
LINE
8
annotation
62
1
39
211
10
48.032634
20
121.830960
11
47.953708
21
121.997190
0
LINE
8
annotation
62
1
39
211
10
47.953708
20
121.997190
11
47.848464
21
122.146132
0
LINE
8
annotation
62
1
39
211
10
47.848464
20
122.146132
11
47.719931
21
122.274766
0
LINE
8
annotation
62
1
39
211
10
47.719931
20
122.274766
11
47.571139
21
122.380071
0
LINE
8
annotation
62
1
39
211
10
47.571139
20
122.380071
11
47.405119
21
122.459029
0
LINE
8
annotation
62
1
39
211
10
47.405119
20
122.459029
11
47.224901
21
122.508618
0
LINE
8
annotation
62
1
39
211
10
47.224901
20
122.508618
11
47.033514
21
122.525819
0
LINE
8
annotation
62
1
39
211
10
47.033514
20
122.525819
11
47.033514
21
122.525819
0
LINE
8
annotation
62
1
39
211
10
47.033514
20
122.525819
11
46.842127
21
122.508608
0
LINE
8
annotation
62
1
39
211
10
46.842127
20
122.508608
11
46.661908
21
122.458994
0
LINE
8
annotation
62
1
39
211
10
46.661908
20
122.458994
11
46.495888
21
122.380004
0
LINE
8
annotation
62
1
39
211
10
46.495888
20
122.380004
11
46.347097
21
122.274667
0
LINE
8
annotation
62
1
39
211
10
46.347097
20
122.274667
11
46.218564
21
122.146008
0
LINE
8
annotation
62
1
39
211
10
46.218564
20
122.146008
11
46.113319
21
121.997056
0
LINE
8
annotation
62
1
39
211
10
46.113319
20
121.997056
11
46.034393
21
121.830839
0
LINE
8
annotation
62
1
39
211
10
46.034393
20
121.830839
11
45.984816
21
121.650383
0
LINE
8
annotation
62
1
39
211
10
45.984816
20
121.650383
11
45.967616
21
121.458717
0
LINE
8
annotation
62
1
39
211
10
45.967616
20
121.458717
11
45.967616
21
120.927725
0
LINE
8
annotation
62
1
39
211
10
48.099411
20
123.593221
11
48.099411
21
123.593221
0
LINE
8
annotation
62
1
39
211
10
48.099411
20
123.593221
11
48.082212
21
123.784081
0
LINE
8
annotation
62
1
39
211
10
48.082212
20
123.784081
11
48.032634
21
123.963908
0
LINE
8
annotation
62
1
39
211
10
48.032634
20
123.963908
11
47.953708
21
124.129654
0
LINE
8
annotation
62
1
39
211
10
47.953708
20
124.129654
11
47.848464
21
124.278267
0
LINE
8
annotation
62
1
39
211
10
47.848464
20
124.278267
11
47.719931
21
124.406699
0
LINE
8
annotation
62
1
39
211
10
47.719931
20
124.406699
11
47.571139
21
124.511900
0
LINE
8
annotation
62
1
39
211
10
47.571139
20
124.511900
11
47.405119
21
124.590819
0
LINE
8
annotation
62
1
39
211
10
47.405119
20
124.590819
11
47.224901
21
124.640406
0
LINE
8
annotation
62
1
39
211
10
47.224901
20
124.640406
11
47.033514
21
124.657614
0
LINE
8
annotation
62
1
39
211
10
47.033514
20
124.657614
11
47.033514
21
124.657614
0
LINE
8
annotation
62
1
39
211
10
47.033514
20
124.657614
11
46.842127
21
124.640406
0
LINE
8
annotation
62
1
39
211
10
46.842127
20
124.640406
11
46.661908
21
124.590819
0
LINE
8
annotation
62
1
39
211
10
46.661908
20
124.590819
11
46.495888
21
124.511900
0
LINE
8
annotation
62
1
39
211
10
46.495888
20
124.511900
11
46.347097
21
124.406699
0
LINE
8
annotation
62
1
39
211
10
46.347097
20
124.406699
11
46.218564
21
124.278267
0
LINE
8
annotation
62
1
39
211
10
46.218564
20
124.278267
11
46.113319
21
124.129654
0
LINE
8
annotation
62
1
39
211
10
46.113319
20
124.129654
11
46.034393
21
123.963908
0
LINE
8
annotation
62
1
39
211
10
46.034393
20
123.963908
11
45.984816
21
123.784081
0
LINE
8
annotation
62
1
39
211
10
45.984816
20
123.784081
11
45.967616
21
123.593221
0
LINE
8
annotation
62
1
39
211
10
45.967616
20
123.593221
11
45.967616
21
123.593221
0
LINE
8
annotation
62
1
39
211
10
45.967616
20
123.593221
11
45.984826
21
123.401465
0
LINE
8
annotation
62
1
39
211
10
45.984826
20
123.401465
11
46.034428
21
123.220940
0
LINE
8
annotation
62
1
39
211
10
46.034428
20
123.220940
11
46.113386
21
123.054670
0
LINE
8
annotation
62
1
39
211
10
46.113386
20
123.054670
11
46.218663
21
122.905681
0
LINE
8
annotation
62
1
39
211
10
46.218663
20
122.905681
11
46.347221
21
122.776997
0
LINE
8
annotation
62
1
39
211
10
46.347221
20
122.776997
11
46.496022
21
122.671644
0
LINE
8
annotation
62
1
39
211
10
46.496022
20
122.671644
11
46.662030
21
122.592647
0
LINE
8
annotation
62
1
39
211
10
46.662030
20
122.592647
11
46.842206
21
122.543030
0
LINE
8
annotation
62
1
39
211
10
46.842206
20
122.543030
11
47.033514
21
122.525819
0
LINE
8
annotation
62
1
39
211
10
47.033514
20
122.525819
11
47.033514
21
122.525819
0
LINE
8
annotation
62
1
39
211
10
47.033514
20
122.525819
11
47.224822
21
122.543030
0
LINE
8
annotation
62
1
39
211
10
47.224822
20
122.543030
11
47.404998
21
122.592647
0
LINE
8
annotation
62
1
39
211
10
47.404998
20
122.592647
11
47.571006
21
122.671644
0
LINE
8
annotation
62
1
39
211
10
47.571006
20
122.671644
11
47.719807
21
122.776997
0
LINE
8
annotation
62
1
39
211
10
47.719807
20
122.776997
11
47.848365
21
122.905681
0
LINE
8
annotation
62
1
39
211
10
47.848365
20
122.905681
11
47.953642
21
123.054670
0
LINE
8
annotation
62
1
39
211
10
47.953642
20
123.054670
11
48.032600
21
123.220940
0
LINE
8
annotation
62
1
39
211
10
48.032600
20
123.220940
11
48.082202
21
123.401465
0
LINE
8
annotation
62
1
39
211
10
48.082202
20
123.401465
11
48.099411
21
123.593221
0
LINE
8
annotation
62
1
39
211
10
51.210253
20
138.740237
11
51.210253
21
138.740237
0
LINE
8
annotation
62
1
39
211
10
51.210253
20
138.740237
11
51.515068
21
138.853826
0
LINE
8
annotation
62
1
39
211
10
51.515068
20
138.853826
11
51.794851
21
139.007363
0
LINE
8
annotation
62
1
39
211
10
51.794851
20
139.007363
11
52.046709
21
139.196934
0
LINE
8
annotation
62
1
39
211
10
52.046709
20
139.196934
11
52.267753
21
139.418629
0
LINE
8
annotation
62
1
39
211
10
52.267753
20
139.418629
11
52.455090
21
139.668535
0
LINE
8
annotation
62
1
39
211
10
52.455090
20
139.668535
11
52.605830
21
139.942740
0
LINE
8
annotation
62
1
39
211
10
52.605830
20
139.942740
11
52.717080
21
140.237333
0
LINE
8
annotation
62
1
39
211
10
52.717080
20
140.237333
11
52.785951
21
140.548401
0
LINE
8
annotation
62
1
39
211
10
52.785951
20
140.548401
11
52.809550
21
140.872032
0
LINE
8
annotation
62
1
39
211
10
52.809550
20
140.872032
11
52.809550
21
142.472835
0
LINE
8
annotation
62
1
39
211
10
52.809550
20
142.472835
11
52.809550
21
142.472835
0
LINE
8
annotation
62
1
39
211
10
52.809550
20
142.472835
11
52.792391
21
142.664590
0
LINE
8
annotation
62
1
39
211
10
52.792391
20
142.664590
11
52.742912
21
142.845116
0
LINE
8
annotation
62
1
39
211
10
52.742912
20
142.845116
11
52.664115
21
143.011386
0
LINE
8
annotation
62
1
39
211
10
52.664115
20
143.011386
11
52.559000
21
143.160375
0
LINE
8
annotation
62
1
39
211
10
52.559000
20
143.160375
11
52.430566
21
143.289059
0
LINE
8
annotation
62
1
39
211
10
52.430566
20
143.289059
11
52.281814
21
143.394412
0
LINE
8
annotation
62
1
39
211
10
52.281814
20
143.394412
11
52.115744
21
143.473409
0
LINE
8
annotation
62
1
39
211
10
52.115744
20
143.473409
11
51.935357
21
143.523026
0
LINE
8
annotation
62
1
39
211
10
51.935357
20
143.523026
11
51.743653
21
143.540237
0
LINE
8
annotation
62
1
39
211
10
51.743653
20
143.540237
11
51.743653
21
143.540237
0
LINE
8
annotation
62
1
39
211
10
51.743653
20
143.540237
11
51.552345
21
143.523026
0
LINE
8
annotation
62
1
39
211
10
51.552345
20
143.523026
11
51.372169
21
143.473409
0
LINE
8
annotation
62
1
39
211
10
51.372169
20
143.473409
11
51.206161
21
143.394412
0
LINE
8
annotation
62
1
39
211
10
51.206161
20
143.394412
11
51.057360
21
143.289059
0
LINE
8
annotation
62
1
39
211
10
51.057360
20
143.289059
11
50.928802
21
143.160375
0
LINE
8
annotation
62
1
39
211
10
50.928802
20
143.160375
11
50.823525
21
143.011386
0
LINE
8
annotation
62
1
39
211
10
50.823525
20
143.011386
11
50.744567
21
142.845116
0
LINE
8
annotation
62
1
39
211
10
50.744567
20
142.845116
11
50.694965
21
142.664590
0
LINE
8
annotation
62
1
39
211
10
50.694965
20
142.664590
11
50.677756
21
142.472835
0
LINE
8
annotation
62
1
39
211
10
50.677756
20
142.472835
11
50.677756
21
141.939133
0
LINE
8
annotation
62
1
39
211
10
50.677756
20
141.939133
11
50.677756
21
141.939133
0
LINE
8
annotation
62
1
39
211
10
50.677756
20
141.939133
11
50.694965
21
141.747388
0
LINE
8
annotation
62
1
39
211
10
50.694965
20
141.747388
11
50.744567
21
141.566890
0
LINE
8
annotation
62
1
39
211
10
50.744567
20
141.566890
11
50.823525
21
141.400661
0
LINE
8
annotation
62
1
39
211
10
50.823525
20
141.400661
11
50.928802
21
141.251719
0
LINE
8
annotation
62
1
39
211
10
50.928802
20
141.251719
11
51.057360
21
141.123085
0
LINE
8
annotation
62
1
39
211
10
51.057360
20
141.123085
11
51.206161
21
141.017779
0
LINE
8
annotation
62
1
39
211
10
51.206161
20
141.017779
11
51.372169
21
140.938822
0
LINE
8
annotation
62
1
39
211
10
51.372169
20
140.938822
11
51.552345
21
140.889233
0
LINE
8
annotation
62
1
39
211
10
51.552345
20
140.889233
11
51.743653
21
140.872032
0
LINE
8
annotation
62
1
39
211
10
51.743653
20
140.872032
11
52.809550
21
140.872032
0
LINE
8
annotation
62
1
39
211
10
50.544556
20
138.140237
11
52.944556
21
138.140237
0
LINE
8
annotation
62
1
39
211
10
55.564126
20
157.708131
11
55.564126
21
162.325851
0
LINE
8
annotation
62
1
39
211
10
55.564126
20
162.325851
11
54.537548
21
161.298983
0
LINE
8
annotation
62
1
39
211
10
58.037355
20
157.769040
11
58.037355
21
157.769040
0
LINE
8
annotation
62
1
39
211
10
58.037355
20
157.769040
11
58.144676
21
157.728921
0
LINE
8
annotation
62
1
39
211
10
58.144676
20
157.728921
11
58.254744
21
157.708989
0
LINE
8
annotation
62
1
39
211
10
58.254744
20
157.708989
11
58.365068
21
157.708431
0
LINE
8
annotation
62
1
39
211
10
58.365068
20
157.708431
11
58.473162
21
157.726436
0
LINE
8
annotation
62
1
39
211
10
58.473162
20
157.726436
11
58.576537
21
157.762190
0
LINE
8
annotation
62
1
39
211
10
58.576537
20
157.762190
11
58.672704
21
157.814881
0
LINE
8
annotation
62
1
39
211
10
58.672704
20
157.814881
11
58.759175
21
157.883695
0
LINE
8
annotation
62
1
39
211
10
58.759175
20
157.883695
11
58.833463
21
157.967820
0
LINE
8
annotation
62
1
39
211
10
58.833463
20
157.967820
11
58.893078
21
158.066444
0
LINE
8
annotation
62
1
39
211
10
58.893078
20
158.066444
11
58.893078
21
158.066444
0
LINE
8
annotation
62
1
39
211
10
58.893078
20
158.066444
11
59.070947
21
158.482791
0
LINE
8
annotation
62
1
39
211
10
59.070947
20
158.482791
11
59.204350
21
158.911189
0
LINE
8
annotation
62
1
39
211
10
59.204350
20
158.911189
11
59.293284
21
159.348222
0
LINE
8
annotation
62
1
39
211
10
59.293284
20
159.348222
11
59.337752
21
159.790474
0
LINE
8
annotation
62
1
39
211
10
59.337752
20
159.790474
11
59.337752
21
160.234531
0
LINE
8
annotation
62
1
39
211
10
59.337752
20
160.234531
11
59.293284
21
160.676976
0
LINE
8
annotation
62
1
39
211
10
59.293284
20
160.676976
11
59.204350
21
161.114395
0
LINE
8
annotation
62
1
39
211
10
59.204350
20
161.114395
11
59.070947
21
161.543372
0
LINE
8
annotation
62
1
39
211
10
59.070947
20
161.543372
11
58.893078
21
161.960491
0
LINE
8
annotation
62
1
39
211
10
58.893078
20
161.960491
11
58.893078
21
161.960491
0
LINE
8
annotation
62
1
39
211
10
58.893078
20
161.960491
11
58.870458
21
162.002588
0
LINE
8
annotation
62
1
39
211
10
58.870458
20
162.002588
11
58.844814
21
162.042834
0
LINE
8
annotation
62
1
39
211
10
58.844814
20
162.042834
11
58.816338
21
162.081034
0
LINE
8
annotation
62
1
39
211
10
58.816338
20
162.081034
11
58.785224
21
162.116988
0
LINE
8
annotation
62
1
39
211
10
58.785224
20
162.116988
11
58.751664
21
162.150499
0
LINE
8
annotation
62
1
39
211
10
58.751664
20
162.150499
11
58.715852
21
162.181369
0
LINE
8
annotation
62
1
39
211
10
58.715852
20
162.181369
11
58.677981
21
162.209401
0
LINE
8
annotation
62
1
39
211
10
58.677981
20
162.209401
11
58.638243
21
162.234396
0
LINE
8
annotation
62
1
39
211
10
58.638243
20
162.234396
11
58.596833
21
162.256157
0
LINE
8
annotation
62
1
39
211
10
58.596833
20
162.256157
11
58.596833
21
162.256157
0
LINE
8
annotation
62
1
39
211
10
58.596833
20
162.256157
11
58.488659
21
162.297147
0
LINE
8
annotation
62
1
39
211
10
58.488659
20
162.297147
11
58.377947
21
162.317760
0
LINE
8
annotation
62
1
39
211
10
58.377947
20
162.317760
11
58.267157
21
162.318815
0
LINE
8
annotation
62
1
39
211
10
58.267157
20
162.318815
11
58.158747
21
162.301129
0
LINE
8
annotation
62
1
39
211
10
58.158747
20
162.301129
11
58.055178
21
162.265520
0
LINE
8
annotation
62
1
39
211
10
58.055178
20
162.265520
11
57.958910
21
162.212805
0
LINE
8
annotation
62
1
39
211
10
57.958910
20
162.212805
11
57.872401
21
162.143802
0
LINE
8
annotation
62
1
39
211
10
57.872401
20
162.143802
11
57.798113
21
162.059329
0
LINE
8
annotation
62
1
39
211
10
57.798113
20
162.059329
11
57.738503
21
161.960202
0
LINE
8
annotation
62
1
39
211
10
57.738503
20
161.960202
11
57.738503
21
161.960202
0
LINE
8
annotation
62
1
39
211
10
57.738503
20
161.960202
11
57.561492
21
161.543940
0
LINE
8
annotation
62
1
39
211
10
57.561492
20
161.543940
11
57.428733
21
161.115607
0
LINE
8
annotation
62
1
39
211
10
57.428733
20
161.115607
11
57.340228
21
160.678617
0
LINE
8
annotation
62
1
39
211
10
57.340228
20
160.678617
11
57.295975
21
160.236386
0
LINE
8
annotation
62
1
39
211
10
57.295975
20
160.236386
11
57.295975
21
159.792329
0
LINE
8
annotation
62
1
39
211
10
57.295975
20
159.792329
11
57.340228
21
159.349863
0
LINE
8
annotation
62
1
39
211
10
57.340228
20
159.349863
11
57.428733
21
158.912401
0
LINE
8
annotation
62
1
39
211
10
57.428733
20
158.912401
11
57.561492
21
158.483360
0
LINE
8
annotation
62
1
39
211
10
57.561492
20
158.483360
11
57.738503
21
158.066154
0
LINE
8
annotation
62
1
39
211
10
57.738503
20
158.066154
11
57.738503
21
158.066154
0
LINE
8
annotation
62
1
39
211
10
57.738503
20
158.066154
11
57.761041
21
158.024142
0
LINE
8
annotation
62
1
39
211
10
57.761041
20
158.024142
11
57.786496
21
157.984096
0
LINE
8
annotation
62
1
39
211
10
57.786496
20
157.984096
11
57.814761
21
157.946138
0
LINE
8
annotation
62
1
39
211
10
57.814761
20
157.946138
11
57.845728
21
157.910389
0
LINE
8
annotation
62
1
39
211
10
57.845728
20
157.910389
11
57.879292
21
157.876971
0
LINE
8
annotation
62
1
39
211
10
57.879292
20
157.876971
11
57.915343
21
157.846006
0
LINE
8
annotation
62
1
39
211
10
57.915343
20
157.846006
11
57.953776
21
157.817614
0
LINE
8
annotation
62
1
39
211
10
57.953776
20
157.817614
11
57.994482
21
157.791919
0
LINE
8
annotation
62
1
39
211
10
57.994482
20
157.791919
11
58.037355
21
157.769040
0
LINE
8
annotation
62
1
39
211
10
61.955864
20
176.493745
11
61.955864
21
181.293745
0
LINE
8
annotation
62
1
39
211
10
61.955864
20
181.293745
11
60.888763
21
180.226342
0
LINE
8
annotation
62
1
39
211
10
64.822966
20
176.493745
11
64.822966
21
181.293745
0
LINE
8
annotation
62
1
39
211
10
64.822966
20
181.293745
11
63.755864
21
180.226342
0
LINE
8
annotation
62
1
39
211
10
67.750902
20
195.476529
11
67.750902
21
200.064468
0
LINE
8
annotation
62
1
39
211
10
67.750902
20
200.064468
11
66.730945
21
199.044223
0
LINE
8
annotation
62
1
39
211
10
71.509194
20
195.476492
11
69.471581
21
195.476492
0
LINE
8
annotation
62
1
39
211
10
69.471581
20
195.476492
11
71.354403
21
198.507593
0
LINE
8
annotation
62
1
39
211
10
71.354403
20
198.507593
11
71.354403
21
198.507593
0
LINE
8
annotation
62
1
39
211
10
71.354403
20
198.507593
11
71.356653
21
198.510378
0
LINE
8
annotation
62
1
39
211
10
71.356653
20
198.510378
11
71.358812
21
198.513187
0
LINE
8
annotation
62
1
39
211
10
71.358812
20
198.513187
11
71.360892
21
198.516043
0
LINE
8
annotation
62
1
39
211
10
71.360892
20
198.516043
11
71.362909
21
198.518970
0
LINE
8
annotation
62
1
39
211
10
71.362909
20
198.518970
11
71.364875
21
198.521992
0
LINE
8
annotation
62
1
39
211
10
71.364875
20
198.521992
11
71.366806
21
198.525133
0
LINE
8
annotation
62
1
39
211
10
71.366806
20
198.525133
11
71.368716
21
198.528415
0
LINE
8
annotation
62
1
39
211
10
71.368716
20
198.528415
11
71.370619
21
198.531864
0
LINE
8
annotation
62
1
39
211
10
71.370619
20
198.531864
11
71.372529
21
198.535501
0
LINE
8
annotation
62
1
39
211
10
71.372529
20
198.535501
11
71.372529
21
198.535501
0
LINE
8
annotation
62
1
39
211
10
71.372529
20
198.535501
11
71.450270
21
198.702418
0
LINE
8
annotation
62
1
39
211
10
71.450270
20
198.702418
11
71.495685
21
198.875442
0
LINE
8
annotation
62
1
39
211
10
71.495685
20
198.875442
11
71.509887
21
199.050664
0
LINE
8
annotation
62
1
39
211
10
71.509887
20
199.050664
11
71.493989
21
199.224174
0
LINE
8
annotation
62
1
39
211
10
71.493989
20
199.224174
11
71.449103
21
199.392062
0
LINE
8
annotation
62
1
39
211
10
71.449103
20
199.392062
11
71.376344
21
199.550418
0
LINE
8
annotation
62
1
39
211
10
71.376344
20
199.550418
11
71.276823
21
199.695334
0
LINE
8
annotation
62
1
39
211
10
71.276823
20
199.695334
11
71.151654
21
199.822899
0
LINE
8
annotation
62
1
39
211
10
71.151654
20
199.822899
11
71.001949
21
199.929203
0
LINE
8
annotation
62
1
39
211
10
71.001949
20
199.929203
11
71.001949
21
199.929203
0
LINE
8
annotation
62
1
39
211
10
71.001949
20
199.929203
11
70.834568
21
200.005840
0
LINE
8
annotation
62
1
39
211
10
70.834568
20
200.005840
11
70.661279
21
200.050555
0
LINE
8
annotation
62
1
39
211
10
70.661279
20
200.050555
11
70.485955
21
200.064356
0
LINE
8
annotation
62
1
39
211
10
70.485955
20
200.064356
11
70.312471
21
200.048248
0
LINE
8
annotation
62
1
39
211
10
70.312471
20
200.048248
11
70.144702
21
200.003238
0
LINE
8
annotation
62
1
39
211
10
70.144702
20
200.003238
11
69.986521
21
199.930333
0
LINE
8
annotation
62
1
39
211
10
69.986521
20
199.930333
11
69.841802
21
199.830538
0
LINE
8
annotation
62
1
39
211
10
69.841802
20
199.830538
11
69.714419
21
199.704861
0
LINE
8
annotation
62
1
39
211
10
69.714419
20
199.704861
11
69.608247
21
199.554308
0
LINE
8
annotation
62
1
39
211
10
69.608247
20
199.554308
11
69.474459
21
199.297664
0
LINE
8
annotation
62
1
39
211
10
74.145535
20
214.342744
11
74.145535
21
218.951761
0
LINE
8
annotation
62
1
39
211
10
74.145535
20
218.951761
11
73.120892
21
217.926828
0
LINE
8
annotation
62
1
39
211
10
75.873772
20
214.342888
11
76.897260
21
214.342888
0
LINE
8
annotation
62
1
39
211
10
76.897260
20
214.342888
11
76.897260
21
214.342888
0
LINE
8
annotation
62
1
39
211
10
76.897260
20
214.342888
11
77.081336
21
214.359401
0
LINE
8
annotation
62
1
39
211
10
77.081336
20
214.359401
11
77.254546
21
214.406992
0
LINE
8
annotation
62
1
39
211
10
77.254546
20
214.406992
11
77.414008
21
214.482740
0
LINE
8
annotation
62
1
39
211
10
77.414008
20
214.482740
11
77.556841
21
214.583724
0
LINE
8
annotation
62
1
39
211
10
77.556841
20
214.583724
11
77.680165
21
214.707022
0
LINE
8
annotation
62
1
39
211
10
77.680165
20
214.707022
11
77.781098
21
214.849713
0
LINE
8
annotation
62
1
39
211
10
77.781098
20
214.849713
11
77.856761
21
215.008875
0
LINE
8
annotation
62
1
39
211
10
77.856761
20
215.008875
11
77.904270
21
215.181588
0
LINE
8
annotation
62
1
39
211
10
77.904270
20
215.181588
11
77.920747
21
215.364930
0
LINE
8
annotation
62
1
39
211
10
77.920747
20
215.364930
11
77.920747
21
215.877397
0
LINE
8
annotation
62
1
39
211
10
77.920747
20
215.877397
11
77.920747
21
215.877397
0
LINE
8
annotation
62
1
39
211
10
77.920747
20
215.877397
11
77.904270
21
216.060663
0
LINE
8
annotation
62
1
39
211
10
77.904270
20
216.060663
11
77.856761
21
216.233335
0
LINE
8
annotation
62
1
39
211
10
77.856761
20
216.233335
11
77.781098
21
216.392486
0
LINE
8
annotation
62
1
39
211
10
77.781098
20
216.392486
11
77.680165
21
216.535186
0
LINE
8
annotation
62
1
39
211
10
77.680165
20
216.535186
11
77.556841
21
216.658508
0
LINE
8
annotation
62
1
39
211
10
77.556841
20
216.658508
11
77.414008
21
216.759523
0
LINE
8
annotation
62
1
39
211
10
77.414008
20
216.759523
11
77.254546
21
216.835302
0
LINE
8
annotation
62
1
39
211
10
77.254546
20
216.835302
11
77.081336
21
216.882916
0
LINE
8
annotation
62
1
39
211
10
77.081336
20
216.882916
11
76.897260
21
216.899439
0
LINE
8
annotation
62
1
39
211
10
76.897260
20
216.899439
11
76.384793
21
216.899439
0
LINE
8
annotation
62
1
39
211
10
76.384793
20
216.899439
11
76.897260
21
216.899439
0
LINE
8
annotation
62
1
39
211
10
76.897260
20
216.899439
11
76.897260
21
216.899439
0
LINE
8
annotation
62
1
39
211
10
76.897260
20
216.899439
11
77.081336
21
216.915965
0
LINE
8
annotation
62
1
39
211
10
77.081336
20
216.915965
11
77.254546
21
216.963608
0
LINE
8
annotation
62
1
39
211
10
77.254546
20
216.963608
11
77.414008
21
217.039462
0
LINE
8
annotation
62
1
39
211
10
77.414008
20
217.039462
11
77.556841
21
217.140624
0
LINE
8
annotation
62
1
39
211
10
77.556841
20
217.140624
11
77.680165
21
217.264187
0
LINE
8
annotation
62
1
39
211
10
77.680165
20
217.264187
11
77.781098
21
217.407248
0
LINE
8
annotation
62
1
39
211
10
77.781098
20
217.407248
11
77.856761
21
217.566903
0
LINE
8
annotation
62
1
39
211
10
77.856761
20
217.566903
11
77.904270
21
217.740245
0
LINE
8
annotation
62
1
39
211
10
77.904270
20
217.740245
11
77.920747
21
217.924372
0
LINE
8
annotation
62
1
39
211
10
77.920747
20
217.924372
11
77.920747
21
217.924372
0
LINE
8
annotation
62
1
39
211
10
77.920747
20
217.924372
11
77.904270
21
218.107637
0
LINE
8
annotation
62
1
39
211
10
77.904270
20
218.107637
11
77.856761
21
218.280310
0
LINE
8
annotation
62
1
39
211
10
77.856761
20
218.280310
11
77.781098
21
218.439461
0
LINE
8
annotation
62
1
39
211
10
77.781098
20
218.439461
11
77.680165
21
218.582161
0
LINE
8
annotation
62
1
39
211
10
77.680165
20
218.582161
11
77.556841
21
218.705483
0
LINE
8
annotation
62
1
39
211
10
77.556841
20
218.705483
11
77.414008
21
218.806497
0
LINE
8
annotation
62
1
39
211
10
77.414008
20
218.806497
11
77.254546
21
218.882276
0
LINE
8
annotation
62
1
39
211
10
77.254546
20
218.882276
11
77.081336
21
218.929891
0
LINE
8
annotation
62
1
39
211
10
77.081336
20
218.929891
11
76.897260
21
218.946414
0
LINE
8
annotation
62
1
39
211
10
76.897260
20
218.946414
11
75.873772
21
218.946414
0
LINE
8
annotation
62
1
39
211
10
80.417856
20
233.441688
11
80.417856
21
237.606324
0
LINE
8
annotation
62
1
39
211
10
80.417856
20
237.606324
11
79.492004
21
236.680211
0
LINE
8
annotation
62
1
39
211
10
84.291874
20
234.367540
11
81.979464
21
234.367540
0
LINE
8
annotation
62
1
39
211
10
81.979464
20
234.367540
11
82.902965
21
237.606324
0
LINE
8
annotation
62
1
39
211
10
83.598725
20
233.441688
11
83.598725
21
235.291303
0
LINE
8
annotation
62
1
39
211
10
87.034602
20
252.096251
11
87.034602
21
256.705269
0
LINE
8
annotation
62
1
39
211
10
87.034602
20
256.705269
11
86.009959
21
255.680336
0
LINE
8
annotation
62
1
39
211
10
88.762839
20
252.096251
11
89.786327
21
252.096251
0
LINE
8
annotation
62
1
39
211
10
89.786327
20
252.096251
11
89.786327
21
252.096251
0
LINE
8
annotation
62
1
39
211
10
89.786327
20
252.096251
11
89.970023
21
252.112768
0
LINE
8
annotation
62
1
39
211
10
89.970023
20
252.112768
11
90.143030
21
252.160384
0
LINE
8
annotation
62
1
39
211
10
90.143030
20
252.160384
11
90.302433
21
252.236200
0
LINE
8
annotation
62
1
39
211
10
90.302433
20
252.236200
11
90.445314
21
252.337315
0
LINE
8
annotation
62
1
39
211
10
90.445314
20
252.337315
11
90.568756
21
252.460831
0
LINE
8
annotation
62
1
39
211
10
90.568756
20
252.460831
11
90.669844
21
252.603847
0
LINE
8
annotation
62
1
39
211
10
90.669844
20
252.603847
11
90.745661
21
252.763462
0
LINE
8
annotation
62
1
39
211
10
90.745661
20
252.763462
11
90.793290
21
252.936778
0
LINE
8
annotation
62
1
39
211
10
90.793290
20
252.936778
11
90.809814
21
253.120895
0
LINE
8
annotation
62
1
39
211
10
90.809814
20
253.120895
11
90.809814
21
253.630760
0
LINE
8
annotation
62
1
39
211
10
90.809814
20
253.630760
11
90.809814
21
253.630760
0
LINE
8
annotation
62
1
39
211
10
90.809814
20
253.630760
11
90.793299
21
253.814787
0
LINE
8
annotation
62
1
39
211
10
90.793299
20
253.814787
11
90.745694
21
253.987864
0
LINE
8
annotation
62
1
39
211
10
90.745694
20
253.987864
11
90.669908
21
254.147133
0
LINE
8
annotation
62
1
39
211
10
90.669908
20
254.147133
11
90.568851
21
254.289739
0
LINE
8
annotation
62
1
39
211
10
90.568851
20
254.289739
11
90.445433
21
254.412823
0
LINE
8
annotation
62
1
39
211
10
90.445433
20
254.412823
11
90.302561
21
254.513528
0
LINE
8
annotation
62
1
39
211
10
90.302561
20
254.513528
11
90.143147
21
254.588998
0
LINE
8
annotation
62
1
39
211
10
90.143147
20
254.588998
11
89.970099
21
254.636375
0
LINE
8
annotation
62
1
39
211
10
89.970099
20
254.636375
11
89.786327
21
254.652802
0
LINE
8
annotation
62
1
39
211
10
89.786327
20
254.652802
11
88.762839
21
254.652802
0
LINE
8
annotation
62
1
39
211
10
88.762839
20
254.652802
11
88.762839
21
256.705269
0
LINE
8
annotation
62
1
39
211
10
88.762839
20
256.705269
11
90.809814
21
256.705269
0
LINE
8
annotation
62
1
39
211
10
93.842851
20
270.973005
11
93.842851
21
275.582022
0
LINE
8
annotation
62
1
39
211
10
93.842851
20
275.582022
11
92.818207
21
274.557090
0
LINE
8
annotation
62
1
39
211
10
97.108487
20
275.582022
11
97.108487
21
275.582022
0
LINE
8
annotation
62
1
39
211
10
97.108487
20
275.582022
11
96.815283
21
275.472089
0
LINE
8
annotation
62
1
39
211
10
96.815283
20
275.472089
11
96.546231
21
275.323966
0
LINE
8
annotation
62
1
39
211
10
96.546231
20
275.323966
11
96.304091
21
275.141366
0
LINE
8
annotation
62
1
39
211
10
96.304091
20
275.141366
11
96.091626
21
274.927999
0
LINE
8
annotation
62
1
39
211
10
96.091626
20
274.927999
11
95.911597
21
274.687577
0
LINE
8
annotation
62
1
39
211
10
95.911597
20
274.687577
11
95.766767
21
274.423811
0
LINE
8
annotation
62
1
39
211
10
95.766767
20
274.423811
11
95.659898
21
274.140411
0
LINE
8
annotation
62
1
39
211
10
95.659898
20
274.140411
11
95.593751
21
273.841089
0
LINE
8
annotation
62
1
39
211
10
95.593751
20
273.841089
11
95.571088
21
273.529556
0
LINE
8
annotation
62
1
39
211
10
95.571088
20
273.529556
11
95.571088
21
271.997649
0
LINE
8
annotation
62
1
39
211
10
95.571088
20
271.997649
11
95.571088
21
271.997649
0
LINE
8
annotation
62
1
39
211
10
95.571088
20
271.997649
11
95.587612
21
271.813532
0
LINE
8
annotation
62
1
39
211
10
95.587612
20
271.813532
11
95.635241
21
271.640216
0
LINE
8
annotation
62
1
39
211
10
95.635241
20
271.640216
11
95.711058
21
271.480600
0
LINE
8
annotation
62
1
39
211
10
95.711058
20
271.480600
11
95.812146
21
271.337585
0
LINE
8
annotation
62
1
39
211
10
95.812146
20
271.337585
11
95.935588
21
271.214069
0
LINE
8
annotation
62
1
39
211
10
95.935588
20
271.214069
11
96.078469
21
271.112953
0
LINE
8
annotation
62
1
39
211
10
96.078469
20
271.112953
11
96.237872
21
271.037138
0
LINE
8
annotation
62
1
39
211
10
96.237872
20
271.037138
11
96.410879
21
270.989521
0
LINE
8
annotation
62
1
39
211
10
96.410879
20
270.989521
11
96.594575
21
270.973005
0
LINE
8
annotation
62
1
39
211
10
96.594575
20
270.973005
11
96.594575
21
270.973005
0
LINE
8
annotation
62
1
39
211
10
96.594575
20
270.973005
11
96.778652
21
270.989521
0
LINE
8
annotation
62
1
39
211
10
96.778652
20
270.989521
11
96.951862
21
271.037138
0
LINE
8
annotation
62
1
39
211
10
96.951862
20
271.037138
11
97.111324
21
271.112953
0
LINE
8
annotation
62
1
39
211
10
97.111324
20
271.112953
11
97.254157
21
271.214069
0
LINE
8
annotation
62
1
39
211
10
97.254157
20
271.214069
11
97.377481
21
271.337585
0
LINE
8
annotation
62
1
39
211
10
97.377481
20
271.337585
11
97.478414
21
271.480600
0
LINE
8
annotation
62
1
39
211
10
97.478414
20
271.480600
11
97.554076
21
271.640216
0
LINE
8
annotation
62
1
39
211
10
97.554076
20
271.640216
11
97.601586
21
271.813532
0
LINE
8
annotation
62
1
39
211
10
97.601586
20
271.813532
11
97.618063
21
271.997649
0
LINE
8
annotation
62
1
39
211
10
97.618063
20
271.997649
11
97.618063
21
272.507514
0
LINE
8
annotation
62
1
39
211
10
97.618063
20
272.507514
11
97.618063
21
272.507514
0
LINE
8
annotation
62
1
39
211
10
97.618063
20
272.507514
11
97.601586
21
272.691541
0
LINE
8
annotation
62
1
39
211
10
97.601586
20
272.691541
11
97.554076
21
272.864618
0
LINE
8
annotation
62
1
39
211
10
97.554076
20
272.864618
11
97.478414
21
273.023887
0
LINE
8
annotation
62
1
39
211
10
97.478414
20
273.023887
11
97.377481
21
273.166493
0
LINE
8
annotation
62
1
39
211
10
97.377481
20
273.166493
11
97.254157
21
273.289576
0
LINE
8
annotation
62
1
39
211
10
97.254157
20
273.289576
11
97.111324
21
273.390282
0
LINE
8
annotation
62
1
39
211
10
97.111324
20
273.390282
11
96.951862
21
273.465751
0
LINE
8
annotation
62
1
39
211
10
96.951862
20
273.465751
11
96.778652
21
273.513129
0
LINE
8
annotation
62
1
39
211
10
96.778652
20
273.513129
11
96.594575
21
273.529556
0
LINE
8
annotation
62
1
39
211
10
96.594575
20
273.529556
11
95.571088
21
273.529556
0
LINE
8
annotation
62
1
39
211
10
95.442899
20
270.396878
11
97.747408
21
270.396878
0
LINE
8
annotation
62
1
39
211
10
100.868787
20
289.851007
11
100.868787
21
294.457528
0
LINE
8
annotation
62
1
39
211
10
100.868787
20
294.457528
11
99.844698
21
293.433150
0
LINE
8
annotation
62
1
39
211
10
103.620321
20
289.851007
11
104.644410
21
294.457528
0
LINE
8
annotation
62
1
39
211
10
104.644410
20
294.457528
11
102.595943
21
294.457528
0
LINE
8
annotation
62
1
39
211
10
104.644410
20
292.406173
11
103.620321
21
292.406173
0
LINE
8
annotation
62
1
39
211
10
107.864498
20
308.726513
11
107.864498
21
313.335530
0
LINE
8
annotation
62
1
39
211
10
107.864498
20
313.335530
11
106.839854
21
312.310597
0
LINE
8
annotation
62
1
39
211
10
109.592735
20
309.748410
11
109.592735
21
309.748410
0
LINE
8
annotation
62
1
39
211
10
109.592735
20
309.748410
11
109.609259
21
309.564383
0
LINE
8
annotation
62
1
39
211
10
109.609259
20
309.564383
11
109.656888
21
309.391306
0
LINE
8
annotation
62
1
39
211
10
109.656888
20
309.391306
11
109.732704
21
309.232037
0
LINE
8
annotation
62
1
39
211
10
109.732704
20
309.232037
11
109.833792
21
309.089431
0
LINE
8
annotation
62
1
39
211
10
109.833792
20
309.089431
11
109.957235
21
308.966347
0
LINE
8
annotation
62
1
39
211
10
109.957235
20
308.966347
11
110.100116
21
308.865642
0
LINE
8
annotation
62
1
39
211
10
110.100116
20
308.865642
11
110.259518
21
308.790172
0
LINE
8
annotation
62
1
39
211
10
110.259518
20
308.790172
11
110.432526
21
308.742795
0
LINE
8
annotation
62
1
39
211
10
110.432526
20
308.742795
11
110.616222
21
308.726368
0
LINE
8
annotation
62
1
39
211
10
110.616222
20
308.726368
11
110.616222
21
308.726368
0
LINE
8
annotation
62
1
39
211
10
110.616222
20
308.726368
11
110.799918
21
308.742795
0
LINE
8
annotation
62
1
39
211
10
110.799918
20
308.742795
11
110.972926
21
308.790172
0
LINE
8
annotation
62
1
39
211
10
110.972926
20
308.790172
11
111.132328
21
308.865642
0
LINE
8
annotation
62
1
39
211
10
111.132328
20
308.865642
11
111.275209
21
308.966347
0
LINE
8
annotation
62
1
39
211
10
111.275209
20
308.966347
11
111.398652
21
309.089431
0
LINE
8
annotation
62
1
39
211
10
111.398652
20
309.089431
11
111.499740
21
309.232037
0
LINE
8
annotation
62
1
39
211
10
111.499740
20
309.232037
11
111.575556
21
309.391306
0
LINE
8
annotation
62
1
39
211
10
111.575556
20
309.391306
11
111.623185
21
309.564383
0
LINE
8
annotation
62
1
39
211
10
111.623185
20
309.564383
11
111.639709
21
309.748410
0
LINE
8
annotation
62
1
39
211
10
111.639709
20
309.748410
11
111.639709
21
310.258275
0
LINE
8
annotation
62
1
39
211
10
111.639709
20
310.258275
11
111.639709
21
310.258275
0
LINE
8
annotation
62
1
39
211
10
111.639709
20
310.258275
11
111.623195
21
310.442392
0
LINE
8
annotation
62
1
39
211
10
111.623195
20
310.442392
11
111.575590
21
310.615708
0
LINE
8
annotation
62
1
39
211
10
111.575590
20
310.615708
11
111.499804
21
310.775323
0
LINE
8
annotation
62
1
39
211
10
111.499804
20
310.775323
11
111.398747
21
310.918339
0
LINE
8
annotation
62
1
39
211
10
111.398747
20
310.918339
11
111.275328
21
311.041855
0
LINE
8
annotation
62
1
39
211
10
111.275328
20
311.041855
11
111.132456
21
311.142970
0
LINE
8
annotation
62
1
39
211
10
111.132456
20
311.142970
11
110.973042
21
311.218786
0
LINE
8
annotation
62
1
39
211
10
110.973042
20
311.218786
11
110.799994
21
311.266402
0
LINE
8
annotation
62
1
39
211
10
110.799994
20
311.266402
11
110.616222
21
311.282919
0
LINE
8
annotation
62
1
39
211
10
110.616222
20
311.282919
11
110.616222
21
311.282919
0
LINE
8
annotation
62
1
39
211
10
110.616222
20
311.282919
11
110.432450
21
311.266393
0
LINE
8
annotation
62
1
39
211
10
110.432450
20
311.266393
11
110.259402
21
311.218753
0
LINE
8
annotation
62
1
39
211
10
110.259402
20
311.218753
11
110.099987
21
311.142906
0
LINE
8
annotation
62
1
39
211
10
110.099987
20
311.142906
11
109.957116
21
311.041760
0
LINE
8
annotation
62
1
39
211
10
109.957116
20
311.041760
11
109.833697
21
310.918220
0
LINE
8
annotation
62
1
39
211
10
109.833697
20
310.918220
11
109.732640
21
310.775195
0
LINE
8
annotation
62
1
39
211
10
109.732640
20
310.775195
11
109.656854
21
310.615591
0
LINE
8
annotation
62
1
39
211
10
109.656854
20
310.615591
11
109.609249
21
310.442315
0
LINE
8
annotation
62
1
39
211
10
109.609249
20
310.442315
11
109.592735
21
310.258275
0
LINE
8
annotation
62
1
39
211
10
109.592735
20
310.258275
11
109.592735
21
309.748410
0
LINE
8
annotation
62
1
39
211
10
111.639709
20
312.307851
11
111.639709
21
312.307851
0
LINE
8
annotation
62
1
39
211
10
111.639709
20
312.307851
11
111.623195
21
312.491117
0
LINE
8
annotation
62
1
39
211
10
111.623195
20
312.491117
11
111.575590
21
312.663790
0
LINE
8
annotation
62
1
39
211
10
111.575590
20
312.663790
11
111.499804
21
312.822941
0
LINE
8
annotation
62
1
39
211
10
111.499804
20
312.822941
11
111.398747
21
312.965641
0
LINE
8
annotation
62
1
39
211
10
111.398747
20
312.965641
11
111.275328
21
313.088963
0
LINE
8
annotation
62
1
39
211
10
111.275328
20
313.088963
11
111.132456
21
313.189977
0
LINE
8
annotation
62
1
39
211
10
111.132456
20
313.189977
11
110.973042
21
313.265756
0
LINE
8
annotation
62
1
39
211
10
110.973042
20
313.265756
11
110.799994
21
313.313371
0
LINE
8
annotation
62
1
39
211
10
110.799994
20
313.313371
11
110.616222
21
313.329894
0
LINE
8
annotation
62
1
39
211
10
110.616222
20
313.329894
11
110.616222
21
313.329894
0
LINE
8
annotation
62
1
39
211
10
110.616222
20
313.329894
11
110.432450
21
313.313371
0
LINE
8
annotation
62
1
39
211
10
110.432450
20
313.313371
11
110.259402
21
313.265756
0
LINE
8
annotation
62
1
39
211
10
110.259402
20
313.265756
11
110.099987
21
313.189977
0
LINE
8
annotation
62
1
39
211
10
110.099987
20
313.189977
11
109.957116
21
313.088963
0
LINE
8
annotation
62
1
39
211
10
109.957116
20
313.088963
11
109.833697
21
312.965641
0
LINE
8
annotation
62
1
39
211
10
109.833697
20
312.965641
11
109.732640
21
312.822941
0
LINE
8
annotation
62
1
39
211
10
109.732640
20
312.822941
11
109.656854
21
312.663790
0
LINE
8
annotation
62
1
39
211
10
109.656854
20
312.663790
11
109.609249
21
312.491117
0
LINE
8
annotation
62
1
39
211
10
109.609249
20
312.491117
11
109.592735
21
312.307851
0
LINE
8
annotation
62
1
39
211
10
109.592735
20
312.307851
11
109.592735
21
312.307851
0
LINE
8
annotation
62
1
39
211
10
109.592735
20
312.307851
11
109.609259
21
312.123725
0
LINE
8
annotation
62
1
39
211
10
109.609259
20
312.123725
11
109.656888
21
311.950383
0
LINE
8
annotation
62
1
39
211
10
109.656888
20
311.950383
11
109.732704
21
311.790728
0
LINE
8
annotation
62
1
39
211
10
109.732704
20
311.790728
11
109.833792
21
311.647667
0
LINE
8
annotation
62
1
39
211
10
109.833792
20
311.647667
11
109.957235
21
311.524104
0
LINE
8
annotation
62
1
39
211
10
109.957235
20
311.524104
11
110.100116
21
311.422942
0
LINE
8
annotation
62
1
39
211
10
110.100116
20
311.422942
11
110.259518
21
311.347088
0
LINE
8
annotation
62
1
39
211
10
110.259518
20
311.347088
11
110.432526
21
311.299445
0
LINE
8
annotation
62
1
39
211
10
110.432526
20
311.299445
11
110.616222
21
311.282919
0
LINE
8
annotation
62
1
39
211
10
110.616222
20
311.282919
11
110.616222
21
311.282919
0
LINE
8
annotation
62
1
39
211
10
110.616222
20
311.282919
11
110.799918
21
311.299445
0
LINE
8
annotation
62
1
39
211
10
110.799918
20
311.299445
11
110.972926
21
311.347088
0
LINE
8
annotation
62
1
39
211
10
110.972926
20
311.347088
11
111.132328
21
311.422942
0
LINE
8
annotation
62
1
39
211
10
111.132328
20
311.422942
11
111.275209
21
311.524104
0
LINE
8
annotation
62
1
39
211
10
111.275209
20
311.524104
11
111.398652
21
311.647667
0
LINE
8
annotation
62
1
39
211
10
111.398652
20
311.647667
11
111.499740
21
311.790728
0
LINE
8
annotation
62
1
39
211
10
111.499740
20
311.790728
11
111.575556
21
311.950383
0
LINE
8
annotation
62
1
39
211
10
111.575556
20
311.950383
11
111.623185
21
312.123725
0
LINE
8
annotation
62
1
39
211
10
111.623185
20
312.123725
11
111.639709
21
312.307851
0
LINE
8
annotation
62
1
39
211
10
113.726307
20
327.603266
11
113.726307
21
332.212284
0
LINE
8
annotation
62
1
39
211
10
113.726307
20
332.212284
11
112.701664
21
331.187351
0
LINE
8
annotation
62
1
39
211
10
115.965565
20
327.603266
11
115.965565
21
327.603266
0
LINE
8
annotation
62
1
39
211
10
115.965565
20
327.603266
11
116.258253
21
327.712336
0
LINE
8
annotation
62
1
39
211
10
116.258253
20
327.712336
11
116.526903
21
327.859763
0
LINE
8
annotation
62
1
39
211
10
116.526903
20
327.859763
11
116.768741
21
328.041792
0
LINE
8
annotation
62
1
39
211
10
116.768741
20
328.041792
11
116.980990
21
328.254666
0
LINE
8
annotation
62
1
39
211
10
116.980990
20
328.254666
11
117.160873
21
328.494629
0
LINE
8
annotation
62
1
39
211
10
117.160873
20
328.494629
11
117.305615
21
328.757924
0
LINE
8
annotation
62
1
39
211
10
117.305615
20
328.757924
11
117.412439
21
329.040795
0
LINE
8
annotation
62
1
39
211
10
117.412439
20
329.040795
11
117.478570
21
329.339487
0
LINE
8
annotation
62
1
39
211
10
117.478570
20
329.339487
11
117.501230
21
329.650241
0
LINE
8
annotation
62
1
39
211
10
117.501230
20
329.650241
11
117.501230
21
331.187351
0
LINE
8
annotation
62
1
39
211
10
117.501230
20
331.187351
11
117.501230
21
331.187351
0
LINE
8
annotation
62
1
39
211
10
117.501230
20
331.187351
11
117.484753
21
331.371477
0
LINE
8
annotation
62
1
39
211
10
117.484753
20
331.371477
11
117.437244
21
331.544820
0
LINE
8
annotation
62
1
39
211
10
117.437244
20
331.544820
11
117.361581
21
331.704474
0
LINE
8
annotation
62
1
39
211
10
117.361581
20
331.704474
11
117.260648
21
331.847535
0
LINE
8
annotation
62
1
39
211
10
117.260648
20
331.847535
11
117.137324
21
331.971099
0
LINE
8
annotation
62
1
39
211
10
117.137324
20
331.971099
11
116.994491
21
332.072260
0
LINE
8
annotation
62
1
39
211
10
116.994491
20
332.072260
11
116.835029
21
332.148115
0
LINE
8
annotation
62
1
39
211
10
116.835029
20
332.148115
11
116.661819
21
332.195757
0
LINE
8
annotation
62
1
39
211
10
116.661819
20
332.195757
11
116.477743
21
332.212284
0
LINE
8
annotation
62
1
39
211
10
116.477743
20
332.212284
11
116.477743
21
332.212284
0
LINE
8
annotation
62
1
39
211
10
116.477743
20
332.212284
11
116.294047
21
332.195757
0
LINE
8
annotation
62
1
39
211
10
116.294047
20
332.195757
11
116.121039
21
332.148115
0
LINE
8
annotation
62
1
39
211
10
116.121039
20
332.148115
11
115.961637
21
332.072260
0
LINE
8
annotation
62
1
39
211
10
115.961637
20
332.072260
11
115.818756
21
331.971099
0
LINE
8
annotation
62
1
39
211
10
115.818756
20
331.971099
11
115.695313
21
331.847535
0
LINE
8
annotation
62
1
39
211
10
115.695313
20
331.847535
11
115.594225
21
331.704474
0
LINE
8
annotation
62
1
39
211
10
115.594225
20
331.704474
11
115.518409
21
331.544820
0
LINE
8
annotation
62
1
39
211
10
115.518409
20
331.544820
11
115.470780
21
331.371477
0
LINE
8
annotation
62
1
39
211
10
115.470780
20
331.371477
11
115.454255
21
331.187351
0
LINE
8
annotation
62
1
39
211
10
115.454255
20
331.187351
11
115.454255
21
330.674885
0
LINE
8
annotation
62
1
39
211
10
115.454255
20
330.674885
11
115.454255
21
330.674885
0
LINE
8
annotation
62
1
39
211
10
115.454255
20
330.674885
11
115.470780
21
330.490768
0
LINE
8
annotation
62
1
39
211
10
115.470780
20
330.490768
11
115.518409
21
330.317452
0
LINE
8
annotation
62
1
39
211
10
115.518409
20
330.317452
11
115.594225
21
330.157837
0
LINE
8
annotation
62
1
39
211
10
115.594225
20
330.157837
11
115.695313
21
330.014821
0
LINE
8
annotation
62
1
39
211
10
115.695313
20
330.014821
11
115.818756
21
329.891305
0
LINE
8
annotation
62
1
39
211
10
115.818756
20
329.891305
11
115.961637
21
329.790190
0
LINE
8
annotation
62
1
39
211
10
115.961637
20
329.790190
11
116.121039
21
329.714374
0
LINE
8
annotation
62
1
39
211
10
116.121039
20
329.714374
11
116.294047
21
329.666758
0
LINE
8
annotation
62
1
39
211
10
116.294047
20
329.666758
11
116.477743
21
329.650241
0
LINE
8
annotation
62
1
39
211
10
116.477743
20
329.650241
11
117.501230
21
329.650241
0
LINE
8
annotation
62
1
39
211
10
115.326356
20
327.027139
11
117.630864
21
327.027139
0
LINE
8
annotation
62
1
39
211
10
87.979997
20
286.592167
11
85.953631
21
283.661214
0
LINE
8
annotation
62
1
39
211
10
85.953631
20
283.661214
11
83.926884
21
286.592167
0
LINE
8
annotation
62
1
39
211
10
85.953631
20
283.897077
11
85.953631
21
280.515736
0
LINE
8
annotation
62
1
39
211
10
93.581558
20
283.553951
11
90.259278
21
283.553951
0
LINE
8
annotation
62
1
39
211
10
97.210480
20
280.515926
11
97.210480
21
286.591976
0
LINE
8
annotation
62
1
39
211
10
97.210480
20
286.591976
11
95.859696
21
285.240811
0
LINE
8
annotation
62
1
39
211
10
101.515555
20
286.591976
11
101.515555
21
286.591976
0
LINE
8
annotation
62
1
39
211
10
101.515555
20
286.591976
11
101.129026
21
286.447051
0
LINE
8
annotation
62
1
39
211
10
101.129026
20
286.447051
11
100.774335
21
286.251782
0
LINE
8
annotation
62
1
39
211
10
100.774335
20
286.251782
11
100.455123
21
286.011061
0
LINE
8
annotation
62
1
39
211
10
100.455123
20
286.011061
11
100.175031
21
285.729780
0
LINE
8
annotation
62
1
39
211
10
100.175031
20
285.729780
11
99.937700
21
285.412833
0
LINE
8
annotation
62
1
39
211
10
99.937700
20
285.412833
11
99.746771
21
285.065110
0
LINE
8
annotation
62
1
39
211
10
99.746771
20
285.065110
11
99.605886
21
284.691505
0
LINE
8
annotation
62
1
39
211
10
99.605886
20
284.691505
11
99.518684
21
284.296910
0
LINE
8
annotation
62
1
39
211
10
99.518684
20
284.296910
11
99.488808
21
283.886217
0
LINE
8
annotation
62
1
39
211
10
99.488808
20
283.886217
11
99.488808
21
281.866710
0
LINE
8
annotation
62
1
39
211
10
99.488808
20
281.866710
11
99.488808
21
281.866710
0
LINE
8
annotation
62
1
39
211
10
99.488808
20
281.866710
11
99.510592
21
281.623990
0
LINE
8
annotation
62
1
39
211
10
99.510592
20
281.623990
11
99.573381
21
281.395508
0
LINE
8
annotation
62
1
39
211
10
99.573381
20
281.395508
11
99.673330
21
281.185087
0
LINE
8
annotation
62
1
39
211
10
99.673330
20
281.185087
11
99.806594
21
280.996550
0
LINE
8
annotation
62
1
39
211
10
99.806594
20
280.996550
11
99.969328
21
280.833720
0
LINE
8
annotation
62
1
39
211
10
99.969328
20
280.833720
11
100.157687
21
280.700420
0
LINE
8
annotation
62
1
39
211
10
100.157687
20
280.700420
11
100.367827
21
280.600472
0
LINE
8
annotation
62
1
39
211
10
100.367827
20
280.600472
11
100.595902
21
280.537700
0
LINE
8
annotation
62
1
39
211
10
100.595902
20
280.537700
11
100.838068
21
280.515926
0
LINE
8
annotation
62
1
39
211
10
100.838068
20
280.515926
11
100.838068
21
280.515926
0
LINE
8
annotation
62
1
39
211
10
100.838068
20
280.515926
11
101.080735
21
280.537700
0
LINE
8
annotation
62
1
39
211
10
101.080735
20
280.537700
11
101.309077
21
280.600472
0
LINE
8
annotation
62
1
39
211
10
101.309077
20
280.600472
11
101.519295
21
280.700420
0
LINE
8
annotation
62
1
39
211
10
101.519295
20
280.700420
11
101.707592
21
280.833720
0
LINE
8
annotation
62
1
39
211
10
101.707592
20
280.833720
11
101.870169
21
280.996550
0
LINE
8
annotation
62
1
39
211
10
101.870169
20
280.996550
11
102.003229
21
281.185087
0
LINE
8
annotation
62
1
39
211
10
102.003229
20
281.185087
11
102.102974
21
281.395508
0
LINE
8
annotation
62
1
39
211
10
102.102974
20
281.395508
11
102.165606
21
281.623990
0
LINE
8
annotation
62
1
39
211
10
102.165606
20
281.623990
11
102.187327
21
281.866710
0
LINE
8
annotation
62
1
39
211
10
102.187327
20
281.866710
11
102.187327
21
282.538863
0
LINE
8
annotation
62
1
39
211
10
102.187327
20
282.538863
11
102.187327
21
282.538863
0
LINE
8
annotation
62
1
39
211
10
102.187327
20
282.538863
11
102.165606
21
282.781465
0
LINE
8
annotation
62
1
39
211
10
102.165606
20
282.781465
11
102.102974
21
283.009632
0
LINE
8
annotation
62
1
39
211
10
102.102974
20
283.009632
11
102.003229
21
283.219596
0
LINE
8
annotation
62
1
39
211
10
102.003229
20
283.219596
11
101.870169
21
283.407592
0
LINE
8
annotation
62
1
39
211
10
101.870169
20
283.407592
11
101.707592
21
283.569853
0
LINE
8
annotation
62
1
39
211
10
101.707592
20
283.569853
11
101.519295
21
283.702613
0
LINE
8
annotation
62
1
39
211
10
101.519295
20
283.702613
11
101.309077
21
283.802104
0
LINE
8
annotation
62
1
39
211
10
101.309077
20
283.802104
11
101.080735
21
283.864561
0
LINE
8
annotation
62
1
39
211
10
101.080735
20
283.864561
11
100.838068
21
283.886217
0
LINE
8
annotation
62
1
39
211
10
100.838068
20
283.886217
11
99.488808
21
283.886217
0
LINE
8
annotation
62
1
39
211
10
99.319817
20
279.756420
11
102.357842
21
279.756420
0
LINE
8
boundary
62
5
39
2
10
132.671992
20
6.667500
11
133.248522
21
6.706913
0
LINE
8
boundary
62
5
39
2
10
133.248522
20
6.706913
11
134.306460
21
6.823395
0
LINE
8
boundary
62
5
39
2
10
134.306460
20
6.823395
11
135.444764
21
7.052442
0
LINE
8
boundary
62
5
39
2
10
135.444764
20
7.052442
11
136.669236
21
7.411384
0
LINE
8
boundary
62
5
39
2
10
136.669236
20
7.411384
11
137.987056
21
7.922002
0
LINE
8
boundary
62
5
39
2
10
137.987056
20
7.922002
11
138.509382
21
8.169701
0
LINE
8
boundary
62
5
39
2
10
138.509382
20
8.169701
11
139.233312
21
8.532611
0
LINE
8
boundary
62
5
39
2
10
139.233312
20
8.532611
11
140.394321
21
9.218848
0
LINE
8
boundary
62
5
39
2
10
140.394321
20
9.218848
11
141.000829
21
9.638778
0
LINE
8
boundary
62
5
39
2
10
141.000829
20
9.638778
11
141.560141
21
10.018881
0
LINE
8
boundary
62
5
39
2
10
141.560141
20
10.018881
11
142.717106
21
10.929247
0
LINE
8
boundary
62
5
39
2
10
142.717106
20
10.929247
11
143.884991
21
11.980573
0
LINE
8
boundary
62
5
39
2
10
143.884991
20
11.980573
11
144.670277
21
12.781126
0
LINE
8
boundary
62
5
39
2
10
144.670277
20
12.781126
11
145.033836
21
13.148592
0
LINE
8
boundary
62
5
39
2
10
145.033836
20
13.148592
11
145.451046
21
13.623109
0
LINE
8
boundary
62
5
39
2
10
145.451046
20
13.623109
11
146.166738
21
14.447700
0
LINE
8
boundary
62
5
39
2
10
146.166738
20
14.447700
11
146.901363
21
15.394114
0
LINE
8
boundary
62
5
39
2
10
146.901363
20
15.394114
11
147.278879
21
15.878214
0
LINE
8
boundary
62
5
39
2
10
147.278879
20
15.878214
11
147.575400
21
16.302696
0
LINE
8
boundary
62
5
39
2
10
147.575400
20
16.302696
11
148.364865
21
17.444322
0
LINE
8
boundary
62
5
39
2
10
148.364865
20
17.444322
11
149.349149
21
19.029311
0
LINE
8
boundary
62
5
39
2
10
149.349149
20
19.029311
11
150.438231
21
20.981750
0
LINE
8
boundary
62
5
39
2
10
150.438231
20
20.981750
11
150.857899
21
21.826470
0
LINE
8
boundary
62
5
39
2
10
150.857899
20
21.826470
11
151.414497
21
22.953066
0
LINE
8
boundary
62
5
39
2
10
151.414497
20
22.953066
11
151.840798
21
23.920777
0
LINE
8
boundary
62
5
39
2
10
151.840798
20
23.920777
11
152.341371
21
25.057238
0
LINE
8
boundary
62
5
39
2
10
152.341371
20
25.057238
11
152.554978
21
25.588942
0
LINE
8
boundary
62
5
39
2
10
152.554978
20
25.588942
11
152.774109
21
26.138556
0
LINE
8
boundary
62
5
39
2
10
152.774109
20
26.138556
11
153.005185
21
26.719917
0
LINE
8
boundary
62
5
39
2
10
153.005185
20
26.719917
11
153.235933
21
27.351733
0
LINE
8
boundary
62
5
39
2
10
153.235933
20
27.351733
11
153.530782
21
28.157978
0
LINE
8
boundary
62
5
39
2
10
153.530782
20
28.157978
11
154.037031
21
29.641273
0
LINE
8
boundary
62
5
39
2
10
154.037031
20
29.641273
11
154.241535
21
30.248371
0
LINE
8
boundary
62
5
39
2
10
154.241535
20
30.248371
11
154.457060
21
30.943426
0
LINE
8
boundary
62
5
39
2
10
154.457060
20
30.943426
11
154.819746
21
32.107380
0
LINE
8
boundary
62
5
39
2
10
154.819746
20
32.107380
11
154.986802
21
32.686468
0
LINE
8
boundary
62
5
39
2
10
154.986802
20
32.686468
11
155.257957
21
33.631792
0
LINE
8
boundary
62
5
39
2
10
155.257957
20
33.631792
11
155.634922
21
35.014350
0
LINE
8
boundary
62
5
39
2
10
155.634922
20
35.014350
11
155.896416
21
35.989147
0
LINE
8
boundary
62
5
39
2
10
155.896416
20
35.989147
11
156.272550
21
37.497254
0
LINE
8
boundary
62
5
39
2
10
156.272550
20
37.497254
11
156.399101
21
38.006698
0
LINE
8
boundary
62
5
39
2
10
156.399101
20
38.006698
11
156.701170
21
39.312839
0
LINE
8
boundary
62
5
39
2
10
156.701170
20
39.312839
11
156.876665
21
40.065398
0
LINE
8
boundary
62
5
39
2
10
156.876665
20
40.065398
11
157.033821
21
40.791922
0
LINE
8
boundary
62
5
39
2
10
157.033821
20
40.791922
11
157.334441
21
42.169190
0
LINE
8
boundary
62
5
39
2
10
157.334441
20
42.169190
11
157.668802
21
43.815428
0
LINE
8
boundary
62
5
39
2
10
157.668802
20
43.815428
11
157.969025
21
45.355342
0
LINE
8
boundary
62
5
39
2
10
157.969025
20
45.355342
11
158.184882
21
46.477455
0
LINE
8
boundary
62
5
39
2
10
158.184882
20
46.477455
11
158.467591
21
48.040518
0
LINE
8
boundary
62
5
39
2
10
158.467591
20
48.040518
11
158.582899
21
48.681402
0
LINE
8
boundary
62
5
39
2
10
158.582899
20
48.681402
11
158.821966
21
50.091911
0
LINE
8
boundary
62
5
39
2
10
158.821966
20
50.091911
11
158.961741
21
50.907876
0
LINE
8
boundary
62
5
39
2
10
158.961741
20
50.907876
11
159.089814
21
51.705107
0
LINE
8
boundary
62
5
39
2
10
159.089814
20
51.705107
11
159.326931
21
53.164661
0
LINE
8
boundary
62
5
39
2
10
159.326931
20
53.164661
11
159.424207
21
53.795845
0
LINE
8
boundary
62
5
39
2
10
159.424207
20
53.795845
11
159.605190
21
54.980733
0
LINE
8
boundary
62
5
39
2
10
159.605190
20
54.980733
11
159.850513
21
56.636248
0
LINE
8
boundary
62
5
39
2
10
159.850513
20
56.636248
11
160.012216
21
57.732230
0
LINE
8
boundary
62
5
39
2
10
160.012216
20
57.732230
11
160.117528
21
58.494125
0
LINE
8
boundary
62
5
39
2
10
160.117528
20
58.494125
11
160.311189
21
59.874870
0
LINE
8
boundary
62
5
39
2
10
160.311189
20
59.874870
11
160.429250
21
60.727933
0
LINE
8
boundary
62
5
39
2
10
160.429250
20
60.727933
11
160.728140
21
62.973361
0
LINE
8
boundary
62
5
39
2
10
160.728140
20
62.973361
11
160.959840
21
64.713437
0
LINE
8
boundary
62
5
39
2
10
160.959840
20
64.713437
11
161.028107
21
65.256738
0
LINE
8
boundary
62
5
39
2
10
161.028107
20
65.256738
11
161.158331
21
66.276254
0
LINE
8
boundary
62
5
39
2
10
161.158331
20
66.276254
11
161.319170
21
67.551099
0
LINE
8
boundary
62
5
39
2
10
161.319170
20
67.551099
11
161.408251
21
68.245803
0
LINE
8
boundary
62
5
39
2
10
161.408251
20
68.245803
11
161.605735
21
69.859339
0
LINE
8
boundary
62
5
39
2
10
161.605735
20
69.859339
11
161.847683
21
71.802651
0
LINE
8
boundary
62
5
39
2
10
161.847683
20
71.802651
11
161.991445
21
72.983920
0
LINE
8
boundary
62
5
39
2
10
161.991445
20
72.983920
11
162.181041
21
74.547420
0
LINE
8
boundary
62
5
39
2
10
162.181041
20
74.547420
11
162.283065
21
75.374080
0
LINE
8
boundary
62
5
39
2
10
162.283065
20
75.374080
11
162.468136
21
76.906513
0
LINE
8
boundary
62
5
39
2
10
162.468136
20
76.906513
11
162.721371
21
78.965984
0
LINE
8
boundary
62
5
39
2
10
162.721371
20
78.965984
11
162.845634
21
79.973603
0
LINE
8
boundary
62
5
39
2
10
162.845634
20
79.973603
11
163.056767
21
81.684749
0
LINE
8
boundary
62
5
39
2
10
163.056767
20
81.684749
11
163.167370
21
82.565565
0
LINE
8
boundary
62
5
39
2
10
163.167370
20
82.565565
11
163.358784
21
84.084437
0
LINE
8
boundary
62
5
39
2
10
163.358784
20
84.084437
11
163.627823
21
86.183203
0
LINE
8
boundary
62
5
39
2
10
163.627823
20
86.183203
11
163.763470
21
87.213845
0
LINE
8
boundary
62
5
39
2
10
163.763470
20
87.213845
11
163.991481
21
88.937870
0
LINE
8
boundary
62
5
39
2
10
163.991481
20
88.937870
11
164.108101
21
89.806447
0
LINE
8
boundary
62
5
39
2
10
164.108101
20
89.806447
11
164.323752
21
91.370401
0
LINE
8
boundary
62
5
39
2
10
164.323752
20
91.370401
11
164.614023
21
93.446928
0
LINE
8
boundary
62
5
39
2
10
164.614023
20
93.446928
11
164.792638
21
94.668862
0
LINE
8
boundary
62
5
39
2
10
164.792638
20
94.668862
11
165.031710
21
96.290499
0
LINE
8
boundary
62
5
39
2
10
165.031710
20
96.290499
11
165.151580
21
97.095485
0
LINE
8
boundary
62
5
39
2
10
165.151580
20
97.095485
11
165.408977
21
98.753039
0
LINE
8
boundary
62
5
39
2
10
165.408977
20
98.753039
11
165.723787
21
100.764382
0
LINE
8
boundary
62
5
39
2
10
165.723787
20
100.764382
11
165.978672
21
102.320850
0
LINE
8
boundary
62
5
39
2
10
165.978672
20
102.320850
11
166.215718
21
103.752478
0
LINE
8
boundary
62
5
39
2
10
166.215718
20
103.752478
11
166.332280
21
104.454175
0
LINE
8
boundary
62
5
39
2
10
166.332280
20
104.454175
11
166.644739
21
106.260205
0
LINE
8
boundary
62
5
39
2
10
166.644739
20
106.260205
11
166.976538
21
108.175491
0
LINE
8
boundary
62
5
39
2
10
166.976538
20
108.175491
11
167.092019
21
108.816116
0
LINE
8
boundary
62
5
39
2
10
167.092019
20
108.816116
11
167.348811
21
110.241048
0
LINE
8
boundary
62
5
39
2
10
167.348811
20
110.241048
11
167.557231
21
111.383213
0
LINE
8
boundary
62
5
39
2
10
167.557231
20
111.383213
11
167.657343
21
111.933741
0
LINE
8
boundary
62
5
39
2
10
167.657343
20
111.933741
11
168.040188
21
113.956631
0
LINE
8
boundary
62
5
39
2
10
168.040188
20
113.956631
11
168.374637
21
115.732403
0
LINE
8
boundary
62
5
39
2
10
168.374637
20
115.732403
11
168.541685
21
116.585238
0
LINE
8
boundary
62
5
39
2
10
168.541685
20
116.585238
11
168.921068
21
118.533748
0
LINE
8
boundary
62
5
39
2
10
168.921068
20
118.533748
11
169.061706
21
119.246209
0
LINE
8
boundary
62
5
39
2
10
169.061706
20
119.246209
11
169.599824
21
121.903308
0
LINE
8
boundary
62
5
39
2
10
169.599824
20
121.903308
11
169.917481
21
123.479830
0
LINE
8
boundary
62
5
39
2
10
169.917481
20
123.479830
11
170.156623
21
124.621080
0
LINE
8
boundary
62
5
39
2
10
170.156623
20
124.621080
11
170.712030
21
127.299707
0
LINE
8
boundary
62
5
39
2
10
170.712030
20
127.299707
11
171.325543
21
130.155115
0
LINE
8
boundary
62
5
39
2
10
171.325543
20
130.155115
11
171.601317
21
131.454141
0
LINE
8
boundary
62
5
39
2
10
171.601317
20
131.454141
11
171.937757
21
132.977903
0
LINE
8
boundary
62
5
39
2
10
171.937757
20
132.977903
11
172.495135
21
135.536274
0
LINE
8
boundary
62
5
39
2
10
172.495135
20
135.536274
11
172.747871
21
136.662874
0
LINE
8
boundary
62
5
39
2
10
172.747871
20
136.662874
11
173.218570
21
138.757416
0
LINE
8
boundary
62
5
39
2
10
173.218570
20
138.757416
11
173.422898
21
139.680481
0
LINE
8
boundary
62
5
39
2
10
173.422898
20
139.680481
11
173.886847
21
141.695659
0
LINE
8
boundary
62
5
39
2
10
173.886847
20
141.695659
11
174.385360
21
143.892227
0
LINE
8
boundary
62
5
39
2
10
174.385360
20
143.892227
11
174.575095
21
144.696792
0
LINE
8
boundary
62
5
39
2
10
174.575095
20
144.696792
11
175.045028
21
146.716349
0
LINE
8
boundary
62
5
39
2
10
175.045028
20
146.716349
11
175.282726
21
147.735858
0
LINE
8
boundary
62
5
39
2
10
175.282726
20
147.735858
11
176.008932
21
150.792720
0
LINE
8
boundary
62
5
39
2
10
176.008932
20
150.792720
11
176.414967
21
152.515826
0
LINE
8
boundary
62
5
39
2
10
176.414967
20
152.515826
11
176.756248
21
153.910044
0
LINE
8
boundary
62
5
39
2
10
176.756248
20
153.910044
11
177.486019
21
156.927762
0
LINE
8
boundary
62
5
39
2
10
177.486019
20
156.927762
11
177.626076
21
157.490215
0
LINE
8
boundary
62
5
39
2
10
177.626076
20
157.490215
11
178.313157
21
160.262859
0
LINE
8
boundary
62
5
39
2
10
178.313157
20
160.262859
11
178.592492
21
161.403030
0
LINE
8
boundary
62
5
39
2
10
178.592492
20
161.403030
11
178.899300
21
162.618157
0
LINE
8
boundary
62
5
39
2
10
178.899300
20
162.618157
11
179.161263
21
163.664621
0
LINE
8
boundary
62
5
39
2
10
179.161263
20
163.664621
11
179.378304
21
164.512877
0
LINE
8
boundary
62
5
39
2
10
179.378304
20
164.512877
11
179.741093
21
165.941869
0
LINE
8
boundary
62
5
39
2
10
179.741093
20
165.941869
11
180.332339
21
168.234418
0
LINE
8
boundary
62
5
39
2
10
180.332339
20
168.234418
11
180.511134
21
168.918111
0
LINE
8
boundary
62
5
39
2
10
180.511134
20
168.918111
11
180.862052
21
170.269074
0
LINE
8
boundary
62
5
39
2
10
180.862052
20
170.269074
11
181.370020
21
172.202209
0
LINE
8
boundary
62
5
39
2
10
181.370020
20
172.202209
11
181.543364
21
172.863580
0
LINE
8
boundary
62
5
39
2
10
181.543364
20
172.863580
11
181.886885
21
174.148138
0
LINE
8
boundary
62
5
39
2
10
181.886885
20
174.148138
11
182.166867
21
175.199853
0
LINE
8
boundary
62
5
39
2
10
182.166867
20
175.199853
11
182.412890
21
176.106293
0
LINE
8
boundary
62
5
39
2
10
182.412890
20
176.106293
11
182.803383
21
177.550138
0
LINE
8
boundary
62
5
39
2
10
182.803383
20
177.550138
11
182.948298
21
178.076110
0
LINE
8
boundary
62
5
39
2
10
182.948298
20
178.076110
11
183.453394
21
179.914085
0
LINE
8
boundary
62
5
39
2
10
183.453394
20
179.914085
11
183.699796
21
180.796089
0
LINE
8
boundary
62
5
39
2
10
183.699796
20
180.796089
11
184.044421
21
182.039502
0
LINE
8
boundary
62
5
39
2
10
184.044421
20
182.039502
11
184.603106
21
184.027070
0
LINE
8
boundary
62
5
39
2
10
184.603106
20
184.027070
11
184.787372
21
184.681478
0
LINE
8
boundary
62
5
39
2
10
184.787372
20
184.681478
11
185.207369
21
186.146630
0
LINE
8
boundary
62
5
39
2
10
185.207369
20
186.146630
11
185.553093
21
187.351978
0
LINE
8
boundary
62
5
39
2
10
185.553093
20
187.351978
11
185.840322
21
188.336298
0
LINE
8
boundary
62
5
39
2
10
185.840322
20
188.336298
11
186.337598
21
190.037538
0
LINE
8
boundary
62
5
39
2
10
186.337598
20
190.037538
11
186.485482
21
190.535659
0
LINE
8
boundary
62
5
39
2
10
186.485482
20
190.535659
11
187.141013
21
192.737735
0
LINE
8
boundary
62
5
39
2
10
187.141013
20
192.737735
11
187.803604
21
194.944874
0
LINE
8
boundary
62
5
39
2
10
187.803604
20
194.944874
11
187.956352
21
195.451881
0
LINE
8
boundary
62
5
39
2
10
187.956352
20
195.451881
11
188.475814
21
197.153177
0
LINE
8
boundary
62
5
39
2
10
188.475814
20
197.153177
11
188.790651
21
198.179679
0
LINE
8
boundary
62
5
39
2
10
188.790651
20
198.179679
11
189.159488
21
199.367902
0
LINE
8
boundary
62
5
39
2
10
189.159488
20
199.367902
11
189.644045
21
200.920772
0
LINE
8
boundary
62
5
39
2
10
189.644045
20
200.920772
11
189.854543
21
201.588153
0
LINE
8
boundary
62
5
39
2
10
189.854543
20
201.588153
11
190.516571
21
203.674765
0
LINE
8
boundary
62
5
39
2
10
190.516571
20
203.674765
11
190.746380
21
204.388452
0
LINE
8
boundary
62
5
39
2
10
190.746380
20
204.388452
11
191.270358
21
206.031320
0
LINE
8
boundary
62
5
39
2
10
191.270358
20
206.031320
11
191.987647
21
208.249229
0
LINE
8
boundary
62
5
39
2
10
191.987647
20
208.249229
11
192.303589
21
209.217627
0
LINE
8
boundary
62
5
39
2
10
192.303589
20
209.217627
11
192.715300
21
210.469609
0
LINE
8
boundary
62
5
39
2
10
192.715300
20
210.469609
11
193.224509
21
212.006358
0
LINE
8
boundary
62
5
39
2
10
193.224509
20
212.006358
11
193.453159
21
212.691630
0
LINE
8
boundary
62
5
39
2
10
193.453159
20
212.691630
11
194.164390
21
214.806230
0
LINE
8
boundary
62
5
39
2
10
194.164390
20
214.806230
11
194.341470
21
215.326080
0
LINE
8
boundary
62
5
39
2
10
194.341470
20
215.326080
11
194.948292
21
217.126454
0
LINE
8
boundary
62
5
39
2
10
194.948292
20
217.126454
11
195.114134
21
217.614363
0
LINE
8
boundary
62
5
39
2
10
195.114134
20
217.614363
11
195.702380
21
219.335397
0
LINE
8
boundary
62
5
39
2
10
195.702380
20
219.335397
11
196.080403
21
220.431768
0
LINE
8
boundary
62
5
39
2
10
196.080403
20
220.431768
11
196.465424
21
221.543147
0
LINE
8
boundary
62
5
39
2
10
196.465424
20
221.543147
11
197.065094
21
223.258592
0
LINE
8
boundary
62
5
39
2
10
197.065094
20
223.258592
11
197.348882
21
224.062892
0
LINE
8
boundary
62
5
39
2
10
197.348882
20
224.062892
11
197.844586
21
225.451868
0
LINE
8
boundary
62
5
39
2
10
197.844586
20
225.451868
11
198.613055
21
227.639983
0
LINE
8
boundary
62
5
39
2
10
198.613055
20
227.639983
11
199.071748
21
228.931144
0
LINE
8
boundary
62
5
39
2
10
199.071748
20
228.931144
11
199.882034
21
231.182238
0
LINE
8
boundary
62
5
39
2
10
199.882034
20
231.182238
11
201.137119
21
234.627863
0
LINE
8
boundary
62
5
39
2
10
201.137119
20
234.627863
11
202.428688
21
238.153714
0
LINE
8
boundary
62
5
39
2
10
202.428688
20
238.153714
11
203.234146
21
240.327389
0
LINE
8
boundary
62
5
39
2
10
203.234146
20
240.327389
11
203.701928
21
241.578433
0
LINE
8
boundary
62
5
39
2
10
203.701928
20
241.578433
11
204.392896
21
243.404030
0
LINE
8
boundary
62
5
39
2
10
204.392896
20
243.404030
11
204.969310
21
244.957685
0
LINE
8
boundary
62
5
39
2
10
204.969310
20
244.957685
11
205.370178
21
246.025081
0
LINE
8
boundary
62
5
39
2
10
205.370178
20
246.025081
11
206.226884
21
248.290058
0
LINE
8
boundary
62
5
39
2
10
206.226884
20
248.290058
11
207.420820
21
251.408839
0
LINE
8
boundary
62
5
39
2
10
207.420820
20
251.408839
11
208.718142
21
254.817251
0
LINE
8
boundary
62
5
39
2
10
208.718142
20
254.817251
11
209.687774
21
257.332344
0
LINE
8
boundary
62
5
39
2
10
209.687774
20
257.332344
11
209.950469
21
258.011455
0
LINE
8
boundary
62
5
39
2
10
209.950469
20
258.011455
11
210.291640
21
258.883618
0
LINE
8
boundary
62
5
39
2
10
210.291640
20
258.883618
11
211.159058
21
261.153878
0
LINE
8
boundary
62
5
39
2
10
211.159058
20
261.153878
11
211.830546
21
262.891578
0
LINE
8
boundary
62
5
39
2
10
211.830546
20
262.891578
11
212.356131
21
264.250105
0
LINE
8
boundary
62
5
39
2
10
212.356131
20
264.250105
11
213.017744
21
265.942250
0
LINE
8
boundary
62
5
39
2
10
213.017744
20
265.942250
11
213.534536
21
267.297741
0
LINE
8
boundary
62
5
39
2
10
213.534536
20
267.297741
11
213.943211
21
268.358153
0
LINE
8
boundary
62
5
39
2
10
213.943211
20
268.358153
11
214.689157
21
270.296300
0
LINE
8
boundary
62
5
39
2
10
214.689157
20
270.296300
11
215.612557
21
272.672000
0
LINE
8
boundary
62
5
39
2
10
215.612557
20
272.672000
11
216.007994
21
273.707438
0
LINE
8
boundary
62
5
39
2
10
216.007994
20
273.707438
11
216.688356
21
275.486510
0
LINE
8
boundary
62
5
39
2
10
216.688356
20
275.486510
11
217.107742
21
276.574778
0
LINE
8
boundary
62
5
39
2
10
217.107742
20
276.574778
11
217.597347
21
277.869360
0
LINE
8
boundary
62
5
39
2
10
217.597347
20
277.869360
11
218.378153
21
279.917572
0
LINE
8
boundary
62
5
39
2
10
218.378153
20
279.917572
11
218.566513
21
280.413535
0
LINE
8
boundary
62
5
39
2
10
218.566513
20
280.413535
11
219.363895
21
282.544199
0
LINE
8
boundary
62
5
39
2
10
219.363895
20
282.544199
11
219.979345
21
284.177580
0
LINE
8
boundary
62
5
39
2
10
219.979345
20
284.177580
11
220.224086
21
284.839829
0
LINE
8
boundary
62
5
39
2
10
220.224086
20
284.839829
11
220.605175
21
285.863543
0
LINE
8
boundary
62
5
39
2
10
220.605175
20
285.863543
11
221.061712
21
287.105911
0
LINE
8
boundary
62
5
39
2
10
221.061712
20
287.105911
11
221.354113
21
287.897315
0
LINE
8
boundary
62
5
39
2
10
221.354113
20
287.897315
11
221.878498
21
289.344030
0
LINE
8
boundary
62
5
39
2
10
221.878498
20
289.344030
11
222.673470
21
291.523946
0
LINE
8
boundary
62
5
39
2
10
222.673470
20
291.523946
11
223.457233
21
293.745533
0
LINE
8
boundary
62
5
39
2
10
223.457233
20
293.745533
11
223.986348
21
295.238631
0
LINE
8
boundary
62
5
39
2
10
223.986348
20
295.238631
11
224.219725
21
295.910075
0
LINE
8
boundary
62
5
39
2
10
224.219725
20
295.910075
11
224.554848
21
296.868573
0
LINE
8
boundary
62
5
39
2
10
224.554848
20
296.868573
11
224.956410
21
298.047090
0
LINE
8
boundary
62
5
39
2
10
224.956410
20
298.047090
11
225.238531
21
298.871580
0
LINE
8
boundary
62
5
39
2
10
225.238531
20
298.871580
11
225.670003
21
300.156715
0
LINE
8
boundary
62
5
39
2
10
225.670003
20
300.156715
11
226.266276
21
301.923258
0
LINE
8
boundary
62
5
39
2
10
226.266276
20
301.923258
11
226.449193
21
302.481793
0
LINE
8
boundary
62
5
39
2
10
226.449193
20
302.481793
11
227.034344
21
304.298700
0
LINE
8
boundary
62
5
39
2
10
227.034344
20
304.298700
11
227.603666
21
306.057233
0
LINE
8
boundary
62
5
39
2
10
227.603666
20
306.057233
11
227.807124
21
306.695823
0
LINE
8
boundary
62
5
39
2
10
227.807124
20
306.695823
11
228.308686
21
308.332014
0
LINE
8
boundary
62
5
39
2
10
228.308686
20
308.332014
11
228.698028
21
309.595011
0
LINE
8
boundary
62
5
39
2
10
228.698028
20
309.595011
11
228.993744
21
310.582639
0
LINE
8
boundary
62
5
39
2
10
228.993744
20
310.582639
11
229.179988
21
311.197583
0
LINE
8
boundary
62
5
39
2
10
229.179988
20
311.197583
11
229.769074
21
313.253219
0
LINE
8
boundary
62
5
39
2
10
229.769074
20
313.253219
11
230.408071
21
315.459124
0
LINE
8
boundary
62
5
39
2
10
230.408071
20
315.459124
11
230.708793
21
316.547667
0
LINE
8
boundary
62
5
39
2
10
230.708793
20
316.547667
11
231.018487
21
317.711597
0
LINE
8
boundary
62
5
39
2
10
231.018487
20
317.711597
11
231.508133
21
319.604753
0
LINE
8
boundary
62
5
39
2
10
231.508133
20
319.604753
11
231.808822
21
320.766353
0
LINE
8
boundary
62
5
39
2
10
231.808822
20
320.766353
11
231.977369
21
321.459753
0
LINE
8
boundary
62
5
39
2
10
231.977369
20
321.459753
11
232.423344
21
323.266914
0
LINE
8
boundary
62
5
39
2
10
232.423344
20
323.266914
11
232.815918
21
325.031629
0
LINE
8
boundary
62
5
39
2
10
232.815918
20
325.031629
11
232.962072
21
325.674303
0
LINE
8
boundary
62
5
39
2
10
232.962072
20
325.674303
11
233.143821
21
326.539545
0
LINE
8
boundary
62
5
39
2
10
233.143821
20
326.539545
11
233.331455
21
327.412886
0
LINE
8
boundary
62
5
39
2
10
233.331455
20
327.412886
11
233.672764
21
329.101780
0
LINE
8
boundary
62
5
39
2
10
233.672764
20
329.101780
11
233.777097
21
329.650226
0
LINE
8
boundary
62
5
39
2
10
233.777097
20
329.650226
11
233.917795
21
330.425916
0
LINE
8
boundary
62
5
39
2
10
233.917795
20
330.425916
11
234.115218
21
331.567036
0
LINE
8
boundary
62
5
39
2
10
234.115218
20
331.567036
11
234.242770
21
332.304804
0
LINE
8
boundary
62
5
39
2
10
234.242770
20
332.304804
11
234.456518
21
333.661034
0
LINE
8
boundary
62
5
39
2
10
234.456518
20
333.661034
11
234.618840
21
334.843836
0
LINE
8
boundary
62
5
39
2
10
234.618840
20
334.843836
11
234.751707
21
335.883028
0
LINE
8
boundary
62
5
39
2
10
234.751707
20
335.883028
11
234.852982
21
336.700371
0
LINE
8
boundary
62
5
39
2
10
234.852982
20
336.700371
11
234.928819
21
337.423938
0
LINE
8
boundary
62
5
39
2
10
234.928819
20
337.423938
11
234.990545
21
338.054559
0
LINE
8
boundary
62
5
39
2
10
234.990545
20
338.054559
11
235.050927
21
338.839710
0
LINE
8
boundary
62
5
39
2
10
235.050927
20
338.839710
11
235.092975
21
339.349398
0
LINE
8
boundary
62
5
39
2
10
235.092975
20
339.349398
11
235.166456
21
340.590057
0
LINE
8
boundary
62
5
39
2
10
235.166456
20
340.590057
11
235.194884
21
341.544961
0
LINE
8
boundary
62
5
39
2
10
235.194884
20
341.544961
11
235.202591
21
342.387065
0
LINE
8
boundary
62
5
39
2
10
235.202591
20
342.387065
11
235.197198
21
343.203616
0
LINE
8
boundary
62
5
39
2
10
235.197198
20
343.203616
11
235.180813
21
343.952605
0
LINE
8
boundary
62
5
39
2
10
235.180813
20
343.952605
11
235.135043
21
344.705699
0
LINE
8
boundary
62
5
39
2
10
235.135043
20
344.705699
11
235.079276
21
345.385509
0
LINE
8
boundary
62
5
39
2
10
235.079276
20
345.385509
11
235.030907
21
345.911519
0
LINE
8
boundary
62
5
39
2
10
235.030907
20
345.911519
11
234.929202
21
346.683744
0
LINE
8
boundary
62
5
39
2
10
234.929202
20
346.683744
11
234.804703
21
347.403155
0
LINE
8
boundary
62
5
39
2
10
234.804703
20
347.403155
11
234.708802
21
347.937607
0
LINE
8
boundary
62
5
39
2
10
234.708802
20
347.937607
11
234.563573
21
348.543815
0
LINE
8
boundary
62
5
39
2
10
234.563573
20
348.543815
11
234.286884
21
349.503604
0
LINE
8
boundary
62
5
39
2
10
234.286884
20
349.503604
11
234.061755
21
350.146458
0
LINE
8
boundary
62
5
39
2
10
234.061755
20
350.146458
11
233.827185
21
350.724418
0
LINE
8
boundary
62
5
39
2
10
233.827185
20
350.724418
11
233.519417
21
351.327467
0
LINE
8
boundary
62
5
39
2
10
233.519417
20
351.327467
11
233.201152
21
351.861662
0
LINE
8
boundary
62
5
39
2
10
233.201152
20
351.861662
11
232.856550
21
352.360742
0
LINE
8
boundary
62
5
39
2
10
232.856550
20
352.360742
11
232.490359
21
352.815292
0
LINE
8
boundary
62
5
39
2
10
232.490359
20
352.815292
11
232.073026
21
353.223621
0
LINE
8
boundary
62
5
39
2
10
232.073026
20
353.223621
11
231.635509
21
353.582129
0
LINE
8
boundary
62
5
39
2
10
231.635509
20
353.582129
11
231.172301
21
353.894993
0
LINE
8
boundary
62
5
39
2
10
231.172301
20
353.894993
11
230.683580
21
354.159838
0
LINE
8
boundary
62
5
39
2
10
230.683580
20
354.159838
11
230.168398
21
354.372196
0
LINE
8
boundary
62
5
39
2
10
230.168398
20
354.372196
11
229.620024
21
354.517677
0
LINE
8
boundary
62
5
39
2
10
229.620024
20
354.517677
11
229.048907
21
354.608786
0
LINE
8
boundary
62
5
39
2
10
229.048907
20
354.608786
11
228.463169
21
354.644111
0
LINE
8
boundary
62
5
39
2
10
228.463169
20
354.644111
11
228.463169
21
353.259474
0
LINE
8
boundary
62
5
39
2
10
228.463169
20
353.259474
11
223.817179
21
353.259474
0
LINE
8
boundary
62
5
39
2
10
223.817179
20
353.259474
11
223.064771
21
352.804835
0
LINE
8
boundary
62
5
39
2
10
223.064771
20
352.804835
11
222.332874
21
352.306349
0
LINE
8
boundary
62
5
39
2
10
222.332874
20
352.306349
11
221.596492
21
351.755533
0
LINE
8
boundary
62
5
39
2
10
221.596492
20
351.755533
11
221.115435
21
351.376303
0
LINE
8
boundary
62
5
39
2
10
221.115435
20
351.376303
11
220.176599
21
350.559241
0
LINE
8
boundary
62
5
39
2
10
220.176599
20
350.559241
11
219.372216
21
349.787205
0
LINE
8
boundary
62
5
39
2
10
219.372216
20
349.787205
11
218.626795
21
349.017152
0
LINE
8
boundary
62
5
39
2
10
218.626795
20
349.017152
11
218.271930
21
348.641887
0
LINE
8
boundary
62
5
39
2
10
218.271930
20
348.641887
11
217.884420
21
348.203019
0
LINE
8
boundary
62
5
39
2
10
217.884420
20
348.203019
11
217.315898
21
347.554279
0
LINE
8
boundary
62
5
39
2
10
217.315898
20
347.554279
11
216.579756
21
346.656955
0
LINE
8
boundary
62
5
39
2
10
216.579756
20
346.656955
11
215.669505
21
345.494200
0
LINE
8
boundary
62
5
39
2
10
215.669505
20
345.494200
11
214.934204
21
344.506009
0
LINE
8
boundary
62
5
39
2
10
214.934204
20
344.506009
11
214.446952
21
343.836158
0
LINE
8
boundary
62
5
39
2
10
214.446952
20
343.836158
11
213.501688
21
342.472778
0
LINE
8
boundary
62
5
39
2
10
213.501688
20
342.472778
11
212.752847
21
341.343204
0
LINE
8
boundary
62
5
39
2
10
212.752847
20
341.343204
11
212.030093
21
340.217443
0
LINE
8
boundary
62
5
39
2
10
212.030093
20
340.217443
11
211.632740
21
339.589718
0
LINE
8
boundary
62
5
39
2
10
211.632740
20
339.589718
11
211.314473
21
339.069050
0
LINE
8
boundary
62
5
39
2
10
211.314473
20
339.069050
11
210.720746
21
338.093769
0
LINE
8
boundary
62
5
39
2
10
210.720746
20
338.093769
11
210.242076
21
337.278719
0
LINE
8
boundary
62
5
39
2
10
210.242076
20
337.278719
11
221.996613
21
337.128720
0
LINE
8
boundary
62
5
39
2
10
221.996613
20
337.128720
11
221.996612
21
334.382720
0
LINE
8
boundary
62
5
39
2
10
221.996612
20
334.382720
11
208.597596
21
334.382720
0
LINE
8
boundary
62
5
39
2
10
208.597596
20
334.382720
11
208.094014
21
333.461553
0
LINE
8
boundary
62
5
39
2
10
208.094014
20
333.461553
11
207.813204
21
332.934057
0
LINE
8
boundary
62
5
39
2
10
207.813204
20
332.934057
11
207.267125
21
331.904705
0
LINE
8
boundary
62
5
39
2
10
207.267125
20
331.904705
11
206.468162
21
330.360229
0
LINE
8
boundary
62
5
39
2
10
206.468162
20
330.360229
11
205.794734
21
329.025106
0
LINE
8
boundary
62
5
39
2
10
205.794734
20
329.025106
11
205.132556
21
327.682175
0
LINE
8
boundary
62
5
39
2
10
205.132556
20
327.682175
11
204.478434
21
326.323677
0
LINE
8
boundary
62
5
39
2
10
204.478434
20
326.323677
11
204.243864
21
325.832914
0
LINE
8
boundary
62
5
39
2
10
204.243864
20
325.832914
11
203.830563
21
324.943257
0
LINE
8
boundary
62
5
39
2
10
203.830563
20
324.943257
11
203.565848
21
324.372990
0
LINE
8
boundary
62
5
39
2
10
203.565848
20
324.372990
11
203.282985
21
323.748313
0
LINE
8
boundary
62
5
39
2
10
203.282985
20
323.748313
11
202.805639
21
322.680767
0
LINE
8
boundary
62
5
39
2
10
202.805639
20
322.680767
11
202.332372
21
321.601320
0
LINE
8
boundary
62
5
39
2
10
202.332372
20
321.601320
11
201.856687
21
320.497649
0
LINE
8
boundary
62
5
39
2
10
201.856687
20
320.497649
11
201.370222
21
319.353227
0
LINE
8
boundary
62
5
39
2
10
201.370222
20
319.353227
11
200.969745
21
318.401966
0
LINE
8
boundary
62
5
39
2
10
200.969745
20
318.401966
11
215.496827
21
318.251966
0
LINE
8
boundary
62
5
39
2
10
215.496827
20
318.251966
11
215.496828
21
315.505966
0
LINE
8
boundary
62
5
39
2
10
215.496828
20
315.505966
11
199.757437
21
315.505966
0
LINE
8
boundary
62
5
39
2
10
199.757437
20
315.505966
11
199.405048
21
314.662893
0
LINE
8
boundary
62
5
39
2
10
199.405048
20
314.662893
11
199.007774
21
313.700373
0
LINE
8
boundary
62
5
39
2
10
199.007774
20
313.700373
11
198.577019
21
312.655201
0
LINE
8
boundary
62
5
39
2
10
198.577019
20
312.655201
11
198.357638
21
312.113493
0
LINE
8
boundary
62
5
39
2
10
198.357638
20
312.113493
11
197.864884
21
310.886505
0
LINE
8
boundary
62
5
39
2
10
197.864884
20
310.886505
11
197.429711
21
309.797225
0
LINE
8
boundary
62
5
39
2
10
197.429711
20
309.797225
11
197.202082
21
309.217446
0
LINE
8
boundary
62
5
39
2
10
197.202082
20
309.217446
11
196.688515
21
307.895712
0
LINE
8
boundary
62
5
39
2
10
196.688515
20
307.895712
11
196.224901
21
306.692560
0
LINE
8
boundary
62
5
39
2
10
196.224901
20
306.692560
11
195.969997
21
306.019087
0
LINE
8
boundary
62
5
39
2
10
195.969997
20
306.019087
11
195.532659
21
304.850266
0
LINE
8
boundary
62
5
39
2
10
195.532659
20
304.850266
11
195.333981
21
304.319317
0
LINE
8
boundary
62
5
39
2
10
195.333981
20
304.319317
11
194.999139
21
303.413958
0
LINE
8
boundary
62
5
39
2
10
194.999139
20
303.413958
11
194.690391
21
302.566818
0
LINE
8
boundary
62
5
39
2
10
194.690391
20
302.566818
11
194.407055
21
301.780171
0
LINE
8
boundary
62
5
39
2
10
194.407055
20
301.780171
11
194.177054
21
301.145187
0
LINE
8
boundary
62
5
39
2
10
194.177054
20
301.145187
11
193.767632
21
299.996822
0
LINE
8
boundary
62
5
39
2
10
193.767632
20
299.996822
11
193.612185
21
299.375213
0
LINE
8
boundary
62
5
39
2
10
193.612185
20
299.375213
11
208.869609
21
299.375212
0
LINE
8
boundary
62
5
39
2
10
208.869609
20
299.375212
11
208.869609
21
296.629212
0
LINE
8
boundary
62
5
39
2
10
208.869609
20
296.629212
11
192.592868
21
296.629213
0
LINE
8
boundary
62
5
39
2
10
192.592868
20
296.629213
11
192.068675
21
295.091502
0
LINE
8
boundary
62
5
39
2
10
192.068675
20
295.091502
11
191.833007
21
294.389575
0
LINE
8
boundary
62
5
39
2
10
191.833007
20
294.389575
11
191.540411
21
293.526839
0
LINE
8
boundary
62
5
39
2
10
191.540411
20
293.526839
11
191.083974
21
292.161282
0
LINE
8
boundary
62
5
39
2
10
191.083974
20
292.161282
11
190.749082
21
291.146638
0
LINE
8
boundary
62
5
39
2
10
190.749082
20
291.146638
11
190.335015
21
289.877738
0
LINE
8
boundary
62
5
39
2
10
190.335015
20
289.877738
11
190.090326
21
289.132576
0
LINE
8
boundary
62
5
39
2
10
190.090326
20
289.132576
11
189.549643
21
287.450727
0
LINE
8
boundary
62
5
39
2
10
189.549643
20
287.450727
11
189.175875
21
286.273387
0
LINE
8
boundary
62
5
39
2
10
189.175875
20
286.273387
11
188.841612
21
285.236992
0
LINE
8
boundary
62
5
39
2
10
188.841612
20
285.236992
11
188.342527
21
283.669795
0
LINE
8
boundary
62
5
39
2
10
188.342527
20
283.669795
11
188.119358
21
282.950826
0
LINE
8
boundary
62
5
39
2
10
188.119358
20
282.950826
11
187.955195
21
282.416719
0
LINE
8
boundary
62
5
39
2
10
187.955195
20
282.416719
11
187.404226
21
280.648459
0
LINE
8
boundary
62
5
39
2
10
187.404226
20
280.648459
11
202.335602
21
280.498459
0
LINE
8
boundary
62
5
39
2
10
202.335602
20
280.498459
11
202.335602
21
277.752458
0
LINE
8
boundary
62
5
39
2
10
202.335602
20
277.752458
11
186.512342
21
277.752459
0
LINE
8
boundary
62
5
39
2
10
186.512342
20
277.752459
11
185.982693
21
276.002791
0
LINE
8
boundary
62
5
39
2
10
185.982693
20
276.002791
11
185.314836
21
273.780866
0
LINE
8
boundary
62
5
39
2
10
185.314836
20
273.780866
11
184.634727
21
271.482577
0
LINE
8
boundary
62
5
39
2
10
184.634727
20
271.482577
11
184.026493
21
269.415549
0
LINE
8
boundary
62
5
39
2
10
184.026493
20
269.415549
11
183.843709
21
268.781001
0
LINE
8
boundary
62
5
39
2
10
183.843709
20
268.781001
11
183.249242
21
266.728198
0
LINE
8
boundary
62
5
39
2
10
183.249242
20
266.728198
11
182.743954
21
264.975823
0
LINE
8
boundary
62
5
39
2
10
182.743954
20
264.975823
11
182.279774
21
263.341142
0
LINE
8
boundary
62
5
39
2
10
182.279774
20
263.341142
11
182.106666
21
262.733614
0
LINE
8
boundary
62
5
39
2
10
182.106666
20
262.733614
11
181.835420
21
261.771705
0
LINE
8
boundary
62
5
39
2
10
181.835420
20
261.771705
11
195.930809
21
261.621705
0
LINE
8
boundary
62
5
39
2
10
195.930809
20
261.621705
11
195.930809
21
258.875705
0
LINE
8
boundary
62
5
39
2
10
195.930809
20
258.875705
11
181.024043
21
258.875705
0
LINE
8
boundary
62
5
39
2
10
181.024043
20
258.875705
11
180.837512
21
258.206773
0
LINE
8
boundary
62
5
39
2
10
180.837512
20
258.206773
11
180.604000
21
257.360972
0
LINE
8
boundary
62
5
39
2
10
180.604000
20
257.360972
11
180.313320
21
256.311455
0
LINE
8
boundary
62
5
39
2
10
180.313320
20
256.311455
11
179.850139
21
254.626490
0
LINE
8
boundary
62
5
39
2
10
179.850139
20
254.626490
11
179.579877
21
253.642820
0
LINE
8
boundary
62
5
39
2
10
179.579877
20
253.642820
11
179.385996
21
252.928978
0
LINE
8
boundary
62
5
39
2
10
179.385996
20
252.928978
11
178.957633
21
251.356732
0
LINE
8
boundary
62
5
39
2
10
178.957633
20
251.356732
11
178.810302
21
250.811131
0
LINE
8
boundary
62
5
39
2
10
178.810302
20
250.811131
11
178.473105
21
249.565432
0
LINE
8
boundary
62
5
39
2
10
178.473105
20
249.565432
11
178.337236
21
249.065388
0
LINE
8
boundary
62
5
39
2
10
178.337236
20
249.065388
11
178.029349
21
247.919431
0
LINE
8
boundary
62
5
39
2
10
178.029349
20
247.919431
11
177.720220
21
246.774264
0
LINE
8
boundary
62
5
39
2
10
177.720220
20
246.774264
11
177.584270
21
246.264746
0
LINE
8
boundary
62
5
39
2
10
177.584270
20
246.264746
11
177.221499
21
244.912772
0
LINE
8
boundary
62
5
39
2
10
177.221499
20
244.912772
11
176.692428
21
242.933650
0
LINE
8
boundary
62
5
39
2
10
176.692428
20
242.933650
11
189.778970
21
242.744952
0
LINE
8
boundary
62
5
39
2
10
189.778970
20
242.744952
11
189.778970
21
239.998951
0
LINE
8
boundary
62
5
39
2
10
189.778970
20
239.998951
11
175.910113
21
239.998951
0
LINE
8
boundary
62
5
39
2
10
175.910113
20
239.998951
11
175.542977
21
238.625436
0
LINE
8
boundary
62
5
39
2
10
175.542977
20
238.625436
11
174.713722
21
235.502671
0
LINE
8
boundary
62
5
39
2
10
174.713722
20
235.502671
11
174.470582
21
234.601894
0
LINE
8
boundary
62
5
39
2
10
174.470582
20
234.601894
11
173.929375
21
232.551492
0
LINE
8
boundary
62
5
39
2
10
173.929375
20
232.551492
11
173.467773
21
230.835101
0
LINE
8
boundary
62
5
39
2
10
173.467773
20
230.835101
11
173.142674
21
229.598189
0
LINE
8
boundary
62
5
39
2
10
173.142674
20
229.598189
11
172.471918
21
227.096478
0
LINE
8
boundary
62
5
39
2
10
172.471918
20
227.096478
11
171.890923
21
224.914914
0
LINE
8
boundary
62
5
39
2
10
171.890923
20
224.914914
11
171.651368
21
224.018197
0
LINE
8
boundary
62
5
39
2
10
171.651368
20
224.018197
11
183.866167
21
223.868197
0
LINE
8
boundary
62
5
39
2
10
183.866167
20
223.868197
11
183.866167
21
221.122197
0
LINE
8
boundary
62
5
39
2
10
183.866167
20
221.122197
11
170.876978
21
221.122198
0
LINE
8
boundary
62
5
39
2
10
170.876978
20
221.122198
11
170.492221
21
219.702656
0
LINE
8
boundary
62
5
39
2
10
170.492221
20
219.702656
11
169.984734
21
217.797025
0
LINE
8
boundary
62
5
39
2
10
169.984734
20
217.797025
11
169.510317
21
216.054601
0
LINE
8
boundary
62
5
39
2
10
169.510317
20
216.054601
11
169.192370
21
214.859618
0
LINE
8
boundary
62
5
39
2
10
169.192370
20
214.859618
11
168.534879
21
212.441460
0
LINE
8
boundary
62
5
39
2
10
168.534879
20
212.441460
11
168.399743
21
211.933272
0
LINE
8
boundary
62
5
39
2
10
168.399743
20
211.933272
11
167.795726
21
209.708564
0
LINE
8
boundary
62
5
39
2
10
167.795726
20
209.708564
11
167.607967
21
209.016183
0
LINE
8
boundary
62
5
39
2
10
167.607967
20
209.016183
11
166.817070
21
206.099798
0
LINE
8
boundary
62
5
39
2
10
166.817070
20
206.099798
11
166.600708
21
205.317065
0
LINE
8
boundary
62
5
39
2
10
166.600708
20
205.317065
11
178.185018
21
204.991444
0
LINE
8
boundary
62
5
39
2
10
178.185018
20
204.991444
11
178.185018
21
202.245444
0
LINE
8
boundary
62
5
39
2
10
178.185018
20
202.245444
11
165.765034
21
202.245444
0
LINE
8
boundary
62
5
39
2
10
165.765034
20
202.245444
11
165.421140
21
200.982035
0
LINE
8
boundary
62
5
39
2
10
165.421140
20
200.982035
11
165.168302
21
200.061284
0
LINE
8
boundary
62
5
39
2
10
165.168302
20
200.061284
11
164.990815
21
199.404326
0
LINE
8
boundary
62
5
39
2
10
164.990815
20
199.404326
11
164.695089
21
198.325218
0
LINE
8
boundary
62
5
39
2
10
164.695089
20
198.325218
11
164.561852
21
197.831571
0
LINE
8
boundary
62
5
39
2
10
164.561852
20
197.831571
11
164.224181
21
196.596692
0
LINE
8
boundary
62
5
39
2
10
164.224181
20
196.596692
11
163.755688
21
194.875413
0
LINE
8
boundary
62
5
39
2
10
163.755688
20
194.875413
11
163.289720
21
193.161068
0
LINE
8
boundary
62
5
39
2
10
163.289720
20
193.161068
11
162.861338
21
191.583697
0
LINE
8
boundary
62
5
39
2
10
162.861338
20
191.583697
11
162.439725
21
190.028830
0
LINE
8
boundary
62
5
39
2
10
162.439725
20
190.028830
11
162.020094
21
188.477850
0
LINE
8
boundary
62
5
39
2
10
162.020094
20
188.477850
11
161.602602
21
186.930545
0
LINE
8
boundary
62
5
39
2
10
161.602602
20
186.930545
11
161.450254
21
186.366461
0
LINE
8
boundary
62
5
39
2
10
161.450254
20
186.366461
11
172.795756
21
186.114690
0
LINE
8
boundary
62
5
39
2
10
172.795756
20
186.114690
11
172.795756
21
183.368690
0
LINE
8
boundary
62
5
39
2
10
172.795756
20
183.368690
11
160.647300
21
183.368690
0
LINE
8
boundary
62
5
39
2
10
160.647300
20
183.368690
11
160.364824
21
182.308720
0
LINE
8
boundary
62
5
39
2
10
160.364824
20
182.308720
11
160.103827
21
181.325114
0
LINE
8
boundary
62
5
39
2
10
160.103827
20
181.325114
11
159.957714
21
180.774080
0
LINE
8
boundary
62
5
39
2
10
159.957714
20
180.774080
11
159.662025
21
179.652855
0
LINE
8
boundary
62
5
39
2
10
159.662025
20
179.652855
11
159.223831
21
177.983955
0
LINE
8
boundary
62
5
39
2
10
159.223831
20
177.983955
11
158.789278
21
176.317934
0
LINE
8
boundary
62
5
39
2
10
158.789278
20
176.317934
11
158.371057
21
174.703297
0
LINE
8
boundary
62
5
39
2
10
158.371057
20
174.703297
11
157.965298
21
173.128790
0
LINE
8
boundary
62
5
39
2
10
157.965298
20
173.128790
11
157.574203
21
171.600367
0
LINE
8
boundary
62
5
39
2
10
157.574203
20
171.600367
11
157.186123
21
170.072689
0
LINE
8
boundary
62
5
39
2
10
157.186123
20
170.072689
11
156.801054
21
168.545432
0
LINE
8
boundary
62
5
39
2
10
156.801054
20
168.545432
11
156.668326
21
168.010583
0
LINE
8
boundary
62
5
39
2
10
156.668326
20
168.010583
11
156.512235
21
167.387936
0
LINE
8
boundary
62
5
39
2
10
156.512235
20
167.387936
11
167.808426
21
167.237936
0
LINE
8
boundary
62
5
39
2
10
167.808426
20
167.237936
11
167.808426
21
164.491936
0
LINE
8
boundary
62
5
39
2
10
167.808426
20
164.491936
11
155.795129
21
164.491936
0
LINE
8
boundary
62
5
39
2
10
155.795129
20
164.491936
11
155.510496
21
163.342482
0
LINE
8
boundary
62
5
39
2
10
155.510496
20
163.342482
11
155.032301
21
161.362130
0
LINE
8
boundary
62
5
39
2
10
155.032301
20
161.362130
11
154.824548
21
160.512978
0
LINE
8
boundary
62
5
39
2
10
154.824548
20
160.512978
11
154.232265
21
158.025117
0
LINE
8
boundary
62
5
39
2
10
154.232265
20
158.025117
11
153.700595
21
155.772069
0
LINE
8
boundary
62
5
39
2
10
153.700595
20
155.772069
11
153.479947
21
154.836936
0
LINE
8
boundary
62
5
39
2
10
153.479947
20
154.836936
11
152.813188
21
151.973429
0
LINE
8
boundary
62
5
39
2
10
152.813188
20
151.973429
11
152.660001
21
151.294910
0
LINE
8
boundary
62
5
39
2
10
152.660001
20
151.294910
11
152.154355
21
149.101261
0
LINE
8
boundary
62
5
39
2
10
152.154355
20
149.101261
11
152.022686
21
148.511182
0
LINE
8
boundary
62
5
39
2
10
152.022686
20
148.511182
11
163.271722
21
148.361182
0
LINE
8
boundary
62
5
39
2
10
163.271722
20
148.361182
11
163.271722
21
145.615182
0
LINE
8
boundary
62
5
39
2
10
163.271722
20
145.615182
11
151.369339
21
145.615182
0
LINE
8
boundary
62
5
39
2
10
151.369339
20
145.615182
11
151.113974
21
144.459332
0
LINE
8
boundary
62
5
39
2
10
151.113974
20
144.459332
11
150.857139
21
143.323798
0
LINE
8
boundary
62
5
39
2
10
150.857139
20
143.323798
11
150.345557
21
140.989488
0
LINE
8
boundary
62
5
39
2
10
150.345557
20
140.989488
11
150.216509
21
140.414611
0
LINE
8
boundary
62
5
39
2
10
150.216509
20
140.414611
11
149.591913
21
137.547153
0
LINE
8
boundary
62
5
39
2
10
149.591913
20
137.547153
11
148.934107
21
134.523599
0
LINE
8
boundary
62
5
39
2
10
148.934107
20
134.523599
11
148.803843
21
133.906380
0
LINE
8
boundary
62
5
39
2
10
148.803843
20
133.906380
11
148.290063
21
131.538487
0
LINE
8
boundary
62
5
39
2
10
148.290063
20
131.538487
11
148.024528
21
130.280388
0
LINE
8
boundary
62
5
39
2
10
148.024528
20
130.280388
11
147.884540
21
129.634428
0
LINE
8
boundary
62
5
39
2
10
147.884540
20
129.634428
11
159.095851
21
129.484428
0
LINE
8
boundary
62
5
39
2
10
159.095851
20
129.484428
11
159.095851
21
126.738429
0
LINE
8
boundary
62
5
39
2
10
159.095851
20
126.738429
11
147.264479
21
126.738428
0
LINE
8
boundary
62
5
39
2
10
147.264479
20
126.738428
11
146.754460
21
124.345927
0
LINE
8
boundary
62
5
39
2
10
146.754460
20
124.345927
11
146.632232
21
123.783440
0
LINE
8
boundary
62
5
39
2
10
146.632232
20
123.783440
11
146.103958
21
121.309174
0
LINE
8
boundary
62
5
39
2
10
146.103958
20
121.309174
11
145.992475
21
120.791736
0
LINE
8
boundary
62
5
39
2
10
145.992475
20
120.791736
11
145.528729
21
118.634184
0
LINE
8
boundary
62
5
39
2
10
145.528729
20
118.634184
11
144.964384
21
116.016838
0
LINE
8
boundary
62
5
39
2
10
144.964384
20
116.016838
11
144.761110
21
115.065277
0
LINE
8
boundary
62
5
39
2
10
144.761110
20
115.065277
11
144.393449
21
113.377165
0
LINE
8
boundary
62
5
39
2
10
144.393449
20
113.377165
11
144.067388
21
111.865477
0
LINE
8
boundary
62
5
39
2
10
144.067388
20
111.865477
11
143.824824
21
110.757675
0
LINE
8
boundary
62
5
39
2
10
143.824824
20
110.757675
11
155.177429
21
110.607675
0
LINE
8
boundary
62
5
39
2
10
155.177429
20
110.607675
11
155.177429
21
107.861675
0
LINE
8
boundary
62
5
39
2
10
155.177429
20
107.861675
11
143.193145
21
107.861675
0
LINE
8
boundary
62
5
39
2
10
143.193145
20
107.861675
11
142.650576
21
105.385442
0
LINE
8
boundary
62
5
39
2
10
142.650576
20
105.385442
11
142.038993
21
102.626382
0
LINE
8
boundary
62
5
39
2
10
142.038993
20
102.626382
11
141.902546
21
102.007915
0
LINE
8
boundary
62
5
39
2
10
141.902546
20
102.007915
11
141.434147
21
99.903966
0
LINE
8
boundary
62
5
39
2
10
141.434147
20
99.903966
11
141.157225
21
98.656876
0
LINE
8
boundary
62
5
39
2
10
141.157225
20
98.656876
11
140.597458
21
96.154110
0
LINE
8
boundary
62
5
39
2
10
140.597458
20
96.154110
11
139.642670
21
91.887624
0
LINE
8
boundary
62
5
39
2
10
139.642670
20
91.887624
11
151.551640
21
91.730921
0
LINE
8
boundary
62
5
39
2
10
151.551640
20
91.730921
11
151.551640
21
88.984921
0
LINE
8
boundary
62
5
39
2
10
151.551640
20
88.984921
11
138.983131
21
88.984921
0
LINE
8
boundary
62
5
39
2
10
138.983131
20
88.984921
11
138.529238
21
86.996634
0
LINE
8
boundary
62
5
39
2
10
138.529238
20
86.996634
11
138.100190
21
85.115502
0
LINE
8
boundary
62
5
39
2
10
138.100190
20
85.115502
11
137.493584
21
82.458719
0
LINE
8
boundary
62
5
39
2
10
137.493584
20
82.458719
11
136.556902
21
78.367006
0
LINE
8
boundary
62
5
39
2
10
136.556902
20
78.367006
11
136.279438
21
77.153765
0
LINE
8
boundary
62
5
39
2
10
136.279438
20
77.153765
11
136.060471
21
76.210482
0
LINE
8
boundary
62
5
39
2
10
136.060471
20
76.210482
11
135.640562
21
74.398897
0
LINE
8
boundary
62
5
39
2
10
135.640562
20
74.398897
11
135.406269
21
73.388140
0
LINE
8
boundary
62
5
39
2
10
135.406269
20
73.388140
11
135.327809
21
72.854167
0
LINE
8
boundary
62
5
39
2
10
135.327809
20
72.854167
11
148.184339
21
72.854167
0
LINE
8
boundary
62
5
39
2
10
148.184339
20
72.854167
11
148.184338
21
70.108167
0
LINE
8
boundary
62
5
39
2
10
148.184338
20
70.108167
11
134.647119
21
70.108167
0
LINE
8
boundary
62
5
39
2
10
134.647119
20
70.108167
11
134.396310
21
69.034022
0
LINE
8
boundary
62
5
39
2
10
134.396310
20
69.034022
11
134.273438
21
68.507520
0
LINE
8
boundary
62
5
39
2
10
134.273438
20
68.507520
11
133.986963
21
67.275752
0
LINE
8
boundary
62
5
39
2
10
133.986963
20
67.275752
11
133.716716
21
66.113647
0
LINE
8
boundary
62
5
39
2
10
133.716716
20
66.113647
11
133.581882
21
65.531150
0
LINE
8
boundary
62
5
39
2
10
133.581882
20
65.531150
11
133.216105
21
63.951405
0
LINE
8
boundary
62
5
39
2
10
133.216105
20
63.951405
11
132.782848
21
62.096438
0
LINE
8
boundary
62
5
39
2
10
132.782848
20
62.096438
11
132.628473
21
61.434327
0
LINE
8
boundary
62
5
39
2
10
132.628473
20
61.434327
11
132.390533
21
60.408208
0
LINE
8
boundary
62
5
39
2
10
132.390533
20
60.408208
11
132.099571
21
59.152435
0
LINE
8
boundary
62
5
39
2
10
132.099571
20
59.152435
11
131.738960
21
57.584854
0
LINE
8
boundary
62
5
39
2
10
131.738960
20
57.584854
11
131.622660
21
57.086865
0
LINE
8
boundary
62
5
39
2
10
131.622660
20
57.086865
11
131.247002
21
55.465132
0
LINE
8
boundary
62
5
39
2
10
131.247002
20
55.465132
11
131.077298
21
54.730512
0
LINE
8
boundary
62
5
39
2
10
131.077298
20
54.730512
11
130.939095
21
54.127413
0
LINE
8
boundary
62
5
39
2
10
130.939095
20
54.127413
11
144.738514
21
53.977413
0
LINE
8
boundary
62
5
39
2
10
144.738514
20
53.977413
11
144.738514
21
51.231413
0
LINE
8
boundary
62
5
39
2
10
144.738514
20
51.231413
11
130.279088
21
51.231413
0
LINE
8
boundary
62
5
39
2
10
130.279088
20
51.231413
11
130.163069
21
50.727117
0
LINE
8
boundary
62
5
39
2
10
130.163069
20
50.727117
11
129.816723
21
49.204211
0
LINE
8
boundary
62
5
39
2
10
129.816723
20
49.204211
11
129.649800
21
48.467018
0
LINE
8
boundary
62
5
39
2
10
129.649800
20
48.467018
11
129.479039
21
47.703997
0
LINE
8
boundary
62
5
39
2
10
129.479039
20
47.703997
11
129.206110
21
46.481384
0
LINE
8
boundary
62
5
39
2
10
129.206110
20
46.481384
11
128.984124
21
45.471457
0
LINE
8
boundary
62
5
39
2
10
128.984124
20
45.471457
11
128.829773
21
44.781513
0
LINE
8
boundary
62
5
39
2
10
128.829773
20
44.781513
11
128.607106
21
43.764719
0
LINE
8
boundary
62
5
39
2
10
128.607106
20
43.764719
11
128.371898
21
42.691895
0
LINE
8
boundary
62
5
39
2
10
128.371898
20
42.691895
11
127.982941
21
40.888990
0
LINE
8
boundary
62
5
39
2
10
127.982941
20
40.888990
11
127.760939
21
39.825995
0
LINE
8
boundary
62
5
39
2
10
127.760939
20
39.825995
11
127.639788
21
39.261330
0
LINE
8
boundary
62
5
39
2
10
127.639788
20
39.261330
11
127.351461
21
37.882973
0
LINE
8
boundary
62
5
39
2
10
127.351461
20
37.882973
11
127.076093
21
36.533271
0
LINE
8
boundary
62
5
39
2
10
127.076093
20
36.533271
11
126.933253
21
35.824485
0
LINE
8
boundary
62
5
39
2
10
126.933253
20
35.824485
11
126.821259
21
35.250659
0
LINE
8
boundary
62
5
39
2
10
126.821259
20
35.250659
11
140.839084
21
35.100659
0
LINE
8
boundary
62
5
39
2
10
140.839084
20
35.100659
11
140.839085
21
32.354659
0
LINE
8
boundary
62
5
39
2
10
140.839085
20
32.354659
11
126.274095
21
32.354660
0
LINE
8
boundary
62
5
39
2
10
126.274095
20
32.354660
11
126.104799
21
31.434835
0
LINE
8
boundary
62
5
39
2
10
126.104799
20
31.434835
11
125.896867
21
30.252781
0
LINE
8
boundary
62
5
39
2
10
125.896867
20
30.252781
11
125.674842
21
28.912900
0
LINE
8
boundary
62
5
39
2
10
125.674842
20
28.912900
11
125.523317
21
27.977292
0
LINE
8
boundary
62
5
39
2
10
125.523317
20
27.977292
11
125.266715
21
26.217522
0
LINE
8
boundary
62
5
39
2
10
125.266715
20
26.217522
11
125.195821
21
25.662250
0
LINE
8
boundary
62
5
39
2
10
125.195821
20
25.662250
11
125.099349
21
24.926142
0
LINE
8
boundary
62
5
39
2
10
125.099349
20
24.926142
11
124.973305
21
23.853382
0
LINE
8
boundary
62
5
39
2
10
124.973305
20
23.853382
11
124.874384
21
22.965517
0
LINE
8
boundary
62
5
39
2
10
124.874384
20
22.965517
11
124.829117
21
22.444648
0
LINE
8
boundary
62
5
39
2
10
124.829117
20
22.444648
11
124.769880
21
21.777119
0
LINE
8
boundary
62
5
39
2
10
124.769880
20
21.777119
11
124.699817
21
20.784531
0
LINE
8
boundary
62
5
39
2
10
124.699817
20
20.784531
11
124.650767
21
20.020689
0
LINE
8
boundary
62
5
39
2
10
124.650767
20
20.020689
11
124.628609
21
19.325244
0
LINE
8
boundary
62
5
39
2
10
124.628609
20
19.325244
11
124.605586
21
18.655347
0
LINE
8
boundary
62
5
39
2
10
124.605586
20
18.655347
11
124.608205
21
17.948854
0
LINE
8
boundary
62
5
39
2
10
124.608205
20
17.948854
11
124.606923
21
17.361123
0
LINE
8
boundary
62
5
39
2
10
124.606923
20
17.361123
11
124.647472
21
16.373892
0
LINE
8
boundary
62
5
39
2
10
124.647472
20
16.373892
11
135.533826
21
16.223906
0
LINE
8
boundary
62
5
39
2
10
135.533826
20
16.223906
11
135.533826
21
13.477905
0
LINE
8
boundary
62
5
39
2
10
135.533826
20
13.477905
11
125.033199
21
13.477906
0
LINE
8
boundary
62
5
39
2
10
125.033199
20
13.477906
11
125.117672
21
12.858875
0
LINE
8
boundary
62
5
39
2
10
125.117672
20
12.858875
11
125.289906
21
12.257302
0
LINE
8
boundary
62
5
39
2
10
125.289906
20
12.257302
11
125.516285
21
11.561124
0
LINE
8
boundary
62
5
39
2
10
125.516285
20
11.561124
11
125.709059
21
11.024490
0
LINE
8
boundary
62
5
39
2
10
125.709059
20
11.024490
11
126.007724
21
10.402667
0
LINE
8
boundary
62
5
39
2
10
126.007724
20
10.402667
11
126.439558
21
9.675665
0
LINE
8
boundary
62
5
39
2
10
126.439558
20
9.675665
11
126.845660
21
9.130497
0
LINE
8
boundary
62
5
39
2
10
126.845660
20
9.130497
11
127.301800
21
8.624333
0
LINE
8
boundary
62
5
39
2
10
127.301800
20
8.624333
11
127.677429
21
8.254613
0
LINE
8
boundary
62
5
39
2
10
127.677429
20
8.254613
11
128.350593
21
7.764618
0
LINE
8
boundary
62
5
39
2
10
128.350593
20
7.764618
11
129.027627
21
7.403682
0
LINE
8
boundary
62
5
39
2
10
129.027627
20
7.403682
11
129.739108
21
7.123161
0
LINE
8
boundary
62
5
39
2
10
129.739108
20
7.123161
11
130.514496
21
6.905855
0
LINE
8
boundary
62
5
39
2
10
130.514496
20
6.905855
11
131.356020
21
6.758523
0
LINE
8
boundary
62
5
39
2
10
131.356020
20
6.758523
11
132.266318
21
6.689089
0
LINE
8
boundary
62
5
39
2
10
132.266318
20
6.689089
11
132.671992
21
6.667500
0
LINE
8
annotation
62
1
39
211
10
140.594327
20
12.450906
11
141.660224
21
12.450906
0
LINE
8
annotation
62
1
39
211
10
141.660224
20
12.450906
11
141.660224
21
12.450906
0
LINE
8
annotation
62
1
39
211
10
141.660224
20
12.450906
11
141.851532
21
12.468107
0
LINE
8
annotation
62
1
39
211
10
141.851532
20
12.468107
11
142.031708
21
12.517696
0
LINE
8
annotation
62
1
39
211
10
142.031708
20
12.517696
11
142.197716
21
12.596653
0
LINE
8
annotation
62
1
39
211
10
142.197716
20
12.596653
11
142.346517
21
12.701959
0
LINE
8
annotation
62
1
39
211
10
142.346517
20
12.701959
11
142.475075
21
12.830592
0
LINE
8
annotation
62
1
39
211
10
142.475075
20
12.830592
11
142.580352
21
12.979534
0
LINE
8
annotation
62
1
39
211
10
142.580352
20
12.979534
11
142.659310
21
13.145764
0
LINE
8
annotation
62
1
39
211
10
142.659310
20
13.145764
11
142.708913
21
13.326262
0
LINE
8
annotation
62
1
39
211
10
142.708913
20
13.326262
11
142.726122
21
13.518007
0
LINE
8
annotation
62
1
39
211
10
142.726122
20
13.518007
11
142.726122
21
14.048999
0
LINE
8
annotation
62
1
39
211
10
142.726122
20
14.048999
11
142.726122
21
14.048999
0
LINE
8
annotation
62
1
39
211
10
142.726122
20
14.048999
11
142.708922
21
14.240652
0
LINE
8
annotation
62
1
39
211
10
142.708922
20
14.240652
11
142.659345
21
14.420901
0
LINE
8
annotation
62
1
39
211
10
142.659345
20
14.420901
11
142.580419
21
14.586770
0
LINE
8
annotation
62
1
39
211
10
142.580419
20
14.586770
11
142.475174
21
14.735284
0
LINE
8
annotation
62
1
39
211
10
142.475174
20
14.735284
11
142.346641
21
14.863468
0
LINE
8
annotation
62
1
39
211
10
142.346641
20
14.863468
11
142.197850
21
14.968346
0
LINE
8
annotation
62
1
39
211
10
142.197850
20
14.968346
11
142.031830
21
15.046943
0
LINE
8
annotation
62
1
39
211
10
142.031830
20
15.046943
11
141.851611
21
15.096284
0
LINE
8
annotation
62
1
39
211
10
141.851611
20
15.096284
11
141.660224
21
15.113392
0
LINE
8
annotation
62
1
39
211
10
141.660224
20
15.113392
11
140.594327
21
15.113392
0
LINE
8
annotation
62
1
39
211
10
140.594327
20
15.113392
11
140.594327
21
17.250906
0
LINE
8
annotation
62
1
39
211
10
140.594327
20
17.250906
11
142.726122
21
17.250906
0
LINE
8
annotation
62
1
39
211
10
147.500689
20
36.127659
11
147.500689
21
36.127659
0
LINE
8
annotation
62
1
39
211
10
147.500689
20
36.127659
11
147.195336
21
36.013171
0
LINE
8
annotation
62
1
39
211
10
147.195336
20
36.013171
11
146.915135
21
35.858910
0
LINE
8
annotation
62
1
39
211
10
146.915135
20
35.858910
11
146.662962
21
35.668744
0
LINE
8
annotation
62
1
39
211
10
146.662962
20
35.668744
11
146.441693
21
35.446536
0
LINE
8
annotation
62
1
39
211
10
146.441693
20
35.446536
11
146.254204
21
35.196151
0
LINE
8
annotation
62
1
39
211
10
146.254204
20
35.196151
11
146.103373
21
34.921455
0
LINE
8
annotation
62
1
39
211
10
146.103373
20
34.921455
11
145.992075
21
34.626312
0
LINE
8
annotation
62
1
39
211
10
145.992075
20
34.626312
11
145.923187
21
34.314587
0
LINE
8
annotation
62
1
39
211
10
145.923187
20
34.314587
11
145.899585
21
33.990145
0
LINE
8
annotation
62
1
39
211
10
145.899585
20
33.990145
11
145.899585
21
32.394761
0
LINE
8
annotation
62
1
39
211
10
145.899585
20
32.394761
11
145.899585
21
32.394761
0
LINE
8
annotation
62
1
39
211
10
145.899585
20
32.394761
11
145.916794
21
32.203015
0
LINE
8
annotation
62
1
39
211
10
145.916794
20
32.203015
11
145.966397
21
32.022518
0
LINE
8
annotation
62
1
39
211
10
145.966397
20
32.022518
11
146.045355
21
31.856288
0
LINE
8
annotation
62
1
39
211
10
146.045355
20
31.856288
11
146.150632
21
31.707346
0
LINE
8
annotation
62
1
39
211
10
146.150632
20
31.707346
11
146.279190
21
31.578713
0
LINE
8
annotation
62
1
39
211
10
146.279190
20
31.578713
11
146.427991
21
31.473407
0
LINE
8
annotation
62
1
39
211
10
146.427991
20
31.473407
11
146.593999
21
31.394449
0
LINE
8
annotation
62
1
39
211
10
146.593999
20
31.394449
11
146.774175
21
31.344860
0
LINE
8
annotation
62
1
39
211
10
146.774175
20
31.344860
11
146.965483
21
31.327659
0
LINE
8
annotation
62
1
39
211
10
146.965483
20
31.327659
11
146.965483
21
31.327659
0
LINE
8
annotation
62
1
39
211
10
146.965483
20
31.327659
11
147.157187
21
31.344860
0
LINE
8
annotation
62
1
39
211
10
147.157187
20
31.344860
11
147.337574
21
31.394449
0
LINE
8
annotation
62
1
39
211
10
147.337574
20
31.394449
11
147.503643
21
31.473407
0
LINE
8
annotation
62
1
39
211
10
147.503643
20
31.473407
11
147.652395
21
31.578713
0
LINE
8
annotation
62
1
39
211
10
147.652395
20
31.578713
11
147.780829
21
31.707346
0
LINE
8
annotation
62
1
39
211
10
147.780829
20
31.707346
11
147.885945
21
31.856288
0
LINE
8
annotation
62
1
39
211
10
147.885945
20
31.856288
11
147.964742
21
32.022518
0
LINE
8
annotation
62
1
39
211
10
147.964742
20
32.022518
11
148.014221
21
32.203015
0
LINE
8
annotation
62
1
39
211
10
148.014221
20
32.203015
11
148.031380
21
32.394761
0
LINE
8
annotation
62
1
39
211
10
148.031380
20
32.394761
11
148.031380
21
32.925753
0
LINE
8
annotation
62
1
39
211
10
148.031380
20
32.925753
11
148.031380
21
32.925753
0
LINE
8
annotation
62
1
39
211
10
148.031380
20
32.925753
11
148.014221
21
33.117406
0
LINE
8
annotation
62
1
39
211
10
148.014221
20
33.117406
11
147.964742
21
33.297654
0
LINE
8
annotation
62
1
39
211
10
147.964742
20
33.297654
11
147.885945
21
33.463524
0
LINE
8
annotation
62
1
39
211
10
147.885945
20
33.463524
11
147.780829
21
33.612038
0
LINE
8
annotation
62
1
39
211
10
147.780829
20
33.612038
11
147.652395
21
33.740222
0
LINE
8
annotation
62
1
39
211
10
147.652395
20
33.740222
11
147.503643
21
33.845100
0
LINE
8
annotation
62
1
39
211
10
147.503643
20
33.845100
11
147.337574
21
33.923697
0
LINE
8
annotation
62
1
39
211
10
147.337574
20
33.923697
11
147.157187
21
33.973037
0
LINE
8
annotation
62
1
39
211
10
147.157187
20
33.973037
11
146.965483
21
33.990145
0
LINE
8
annotation
62
1
39
211
10
146.965483
20
33.990145
11
145.899585
21
33.990145
0
LINE
8
annotation
62
1
39
211
10
145.766085
20
30.727659
11
148.166085
21
30.727659
0
LINE
8
annotation
62
1
39
211
10
150.864912
20
50.204413
11
151.932014
21
55.004413
0
LINE
8
annotation
62
1
39
211
10
151.932014
20
55.004413
11
149.797510
21
55.004413
0
LINE
8
annotation
62
1
39
211
10
151.932014
20
52.866899
11
150.864912
21
52.866899
0
LINE
8
annotation
62
1
39
211
10
153.244839
20
70.145409
11
153.244839
21
70.145409
0
LINE
8
annotation
62
1
39
211
10
153.244839
20
70.145409
11
153.262048
21
69.953756
0
LINE
8
annotation
62
1
39
211
10
153.262048
20
69.953756
11
153.311651
21
69.773508
0
LINE
8
annotation
62
1
39
211
10
153.311651
20
69.773508
11
153.390609
21
69.607638
0
LINE
8
annotation
62
1
39
211
10
153.390609
20
69.607638
11
153.495886
21
69.459124
0
LINE
8
annotation
62
1
39
211
10
153.495886
20
69.459124
11
153.624443
21
69.330940
0
LINE
8
annotation
62
1
39
211
10
153.624443
20
69.330940
11
153.773245
21
69.226062
0
LINE
8
annotation
62
1
39
211
10
153.773245
20
69.226062
11
153.939252
21
69.147465
0
LINE
8
annotation
62
1
39
211
10
153.939252
20
69.147465
11
154.119429
21
69.098124
0
LINE
8
annotation
62
1
39
211
10
154.119429
20
69.098124
11
154.310737
21
69.081017
0
LINE
8
annotation
62
1
39
211
10
154.310737
20
69.081017
11
154.310737
21
69.081017
0
LINE
8
annotation
62
1
39
211
10
154.310737
20
69.081017
11
154.502044
21
69.098124
0
LINE
8
annotation
62
1
39
211
10
154.502044
20
69.098124
11
154.682221
21
69.147465
0
LINE
8
annotation
62
1
39
211
10
154.682221
20
69.147465
11
154.848228
21
69.226062
0
LINE
8
annotation
62
1
39
211
10
154.848228
20
69.226062
11
154.997030
21
69.330940
0
LINE
8
annotation
62
1
39
211
10
154.997030
20
69.330940
11
155.125587
21
69.459124
0
LINE
8
annotation
62
1
39
211
10
155.125587
20
69.459124
11
155.230864
21
69.607638
0
LINE
8
annotation
62
1
39
211
10
155.230864
20
69.607638
11
155.309822
21
69.773508
0
LINE
8
annotation
62
1
39
211
10
155.309822
20
69.773508
11
155.359425
21
69.953756
0
LINE
8
annotation
62
1
39
211
10
155.359425
20
69.953756
11
155.376634
21
70.145409
0
LINE
8
annotation
62
1
39
211
10
155.376634
20
70.145409
11
155.376634
21
70.676401
0
LINE
8
annotation
62
1
39
211
10
155.376634
20
70.676401
11
155.376634
21
70.676401
0
LINE
8
annotation
62
1
39
211
10
155.376634
20
70.676401
11
155.359435
21
70.868146
0
LINE
8
annotation
62
1
39
211
10
155.359435
20
70.868146
11
155.309857
21
71.048644
0
LINE
8
annotation
62
1
39
211
10
155.309857
20
71.048644
11
155.230931
21
71.214874
0
LINE
8
annotation
62
1
39
211
10
155.230931
20
71.214874
11
155.125687
21
71.363816
0
LINE
8
annotation
62
1
39
211
10
155.125687
20
71.363816
11
154.997154
21
71.492449
0
LINE
8
annotation
62
1
39
211
10
154.997154
20
71.492449
11
154.848362
21
71.597755
0
LINE
8
annotation
62
1
39
211
10
154.848362
20
71.597755
11
154.682342
21
71.676712
0
LINE
8
annotation
62
1
39
211
10
154.682342
20
71.676712
11
154.502124
21
71.726302
0
LINE
8
annotation
62
1
39
211
10
154.502124
20
71.726302
11
154.310737
21
71.743502
0
LINE
8
annotation
62
1
39
211
10
154.310737
20
71.743502
11
154.310737
21
71.743502
0
LINE
8
annotation
62
1
39
211
10
154.310737
20
71.743502
11
154.119349
21
71.726292
0
LINE
8
annotation
62
1
39
211
10
154.119349
20
71.726292
11
153.939131
21
71.676678
0
LINE
8
annotation
62
1
39
211
10
153.939131
20
71.676678
11
153.773111
21
71.597688
0
LINE
8
annotation
62
1
39
211
10
153.773111
20
71.597688
11
153.624319
21
71.492350
0
LINE
8
annotation
62
1
39
211
10
153.624319
20
71.492350
11
153.495786
21
71.363692
0
LINE
8
annotation
62
1
39
211
10
153.495786
20
71.363692
11
153.390542
21
71.214740
0
LINE
8
annotation
62
1
39
211
10
153.390542
20
71.214740
11
153.311616
21
71.048523
0
LINE
8
annotation
62
1
39
211
10
153.311616
20
71.048523
11
153.262038
21
70.868067
0
LINE
8
annotation
62
1
39
211
10
153.262038
20
70.868067
11
153.244839
21
70.676401
0
LINE
8
annotation
62
1
39
211
10
153.244839
20
70.676401
11
153.244839
21
70.145409
0
LINE
8
annotation
62
1
39
211
10
155.376634
20
72.810905
11
155.376634
21
72.810905
0
LINE
8
annotation
62
1
39
211
10
155.376634
20
72.810905
11
155.359435
21
73.001765
0
LINE
8
annotation
62
1
39
211
10
155.359435
20
73.001765
11
155.309857
21
73.181592
0
LINE
8
annotation
62
1
39
211
10
155.309857
20
73.181592
11
155.230931
21
73.347338
0
LINE
8
annotation
62
1
39
211
10
155.230931
20
73.347338
11
155.125687
21
73.495951
0
LINE
8
annotation
62
1
39
211
10
155.125687
20
73.495951
11
154.997154
21
73.624383
0
LINE
8
annotation
62
1
39
211
10
154.997154
20
73.624383
11
154.848362
21
73.729583
0
LINE
8
annotation
62
1
39
211
10
154.848362
20
73.729583
11
154.682342
21
73.808502
0
LINE
8
annotation
62
1
39
211
10
154.682342
20
73.808502
11
154.502124
21
73.858090
0
LINE
8
annotation
62
1
39
211
10
154.502124
20
73.858090
11
154.310737
21
73.875297
0
LINE
8
annotation
62
1
39
211
10
154.310737
20
73.875297
11
154.310737
21
73.875297
0
LINE
8
annotation
62
1
39
211
10
154.310737
20
73.875297
11
154.119349
21
73.858090
0
LINE
8
annotation
62
1
39
211
10
154.119349
20
73.858090
11
153.939131
21
73.808502
0
LINE
8
annotation
62
1
39
211
10
153.939131
20
73.808502
11
153.773111
21
73.729583
0
LINE
8
annotation
62
1
39
211
10
153.773111
20
73.729583
11
153.624319
21
73.624383
0
LINE
8
annotation
62
1
39
211
10
153.624319
20
73.624383
11
153.495786
21
73.495951
0
LINE
8
annotation
62
1
39
211
10
153.495786
20
73.495951
11
153.390542
21
73.347338
0
LINE
8
annotation
62
1
39
211
10
153.390542
20
73.347338
11
153.311616
21
73.181592
0
LINE
8
annotation
62
1
39
211
10
153.311616
20
73.181592
11
153.262038
21
73.001765
0
LINE
8
annotation
62
1
39
211
10
153.262038
20
73.001765
11
153.244839
21
72.810905
0
LINE
8
annotation
62
1
39
211
10
153.244839
20
72.810905
11
153.244839
21
72.810905
0
LINE
8
annotation
62
1
39
211
10
153.244839
20
72.810905
11
153.262048
21
72.619149
0
LINE
8
annotation
62
1
39
211
10
153.262048
20
72.619149
11
153.311651
21
72.438624
0
LINE
8
annotation
62
1
39
211
10
153.311651
20
72.438624
11
153.390609
21
72.272354
0
LINE
8
annotation
62
1
39
211
10
153.390609
20
72.272354
11
153.495886
21
72.123365
0
LINE
8
annotation
62
1
39
211
10
153.495886
20
72.123365
11
153.624443
21
71.994681
0
LINE
8
annotation
62
1
39
211
10
153.624443
20
71.994681
11
153.773245
21
71.889328
0
LINE
8
annotation
62
1
39
211
10
153.773245
20
71.889328
11
153.939252
21
71.810330
0
LINE
8
annotation
62
1
39
211
10
153.939252
20
71.810330
11
154.119429
21
71.760714
0
LINE
8
annotation
62
1
39
211
10
154.119429
20
71.760714
11
154.310737
21
71.743502
0
LINE
8
annotation
62
1
39
211
10
154.310737
20
71.743502
11
154.310737
21
71.743502
0
LINE
8
annotation
62
1
39
211
10
154.310737
20
71.743502
11
154.502044
21
71.760714
0
LINE
8
annotation
62
1
39
211
10
154.502044
20
71.760714
11
154.682221
21
71.810330
0
LINE
8
annotation
62
1
39
211
10
154.682221
20
71.810330
11
154.848228
21
71.889328
0
LINE
8
annotation
62
1
39
211
10
154.848228
20
71.889328
11
154.997030
21
71.994681
0
LINE
8
annotation
62
1
39
211
10
154.997030
20
71.994681
11
155.125587
21
72.123365
0
LINE
8
annotation
62
1
39
211
10
155.125587
20
72.123365
11
155.230864
21
72.272354
0
LINE
8
annotation
62
1
39
211
10
155.230864
20
72.272354
11
155.309822
21
72.438624
0
LINE
8
annotation
62
1
39
211
10
155.309822
20
72.438624
11
155.359425
21
72.619149
0
LINE
8
annotation
62
1
39
211
10
155.359425
20
72.619149
11
155.376634
21
72.810905
0
LINE
8
annotation
62
1
39
211
10
157.144336
20
87.957921
11
157.144336
21
87.957921
0
LINE
8
annotation
62
1
39
211
10
157.144336
20
87.957921
11
157.449152
21
88.071510
0
LINE
8
annotation
62
1
39
211
10
157.449152
20
88.071510
11
157.728934
21
88.225046
0
LINE
8
annotation
62
1
39
211
10
157.728934
20
88.225046
11
157.980793
21
88.414618
0
LINE
8
annotation
62
1
39
211
10
157.980793
20
88.414618
11
158.201836
21
88.636312
0
LINE
8
annotation
62
1
39
211
10
158.201836
20
88.636312
11
158.389174
21
88.886218
0
LINE
8
annotation
62
1
39
211
10
158.389174
20
88.886218
11
158.539913
21
89.160424
0
LINE
8
annotation
62
1
39
211
10
158.539913
20
89.160424
11
158.651164
21
89.455016
0
LINE
8
annotation
62
1
39
211
10
158.651164
20
89.455016
11
158.720035
21
89.766084
0
LINE
8
annotation
62
1
39
211
10
158.720035
20
89.766084
11
158.743634
21
90.089716
0
LINE
8
annotation
62
1
39
211
10
158.743634
20
90.089716
11
158.743634
21
91.690518
0
LINE
8
annotation
62
1
39
211
10
158.743634
20
91.690518
11
158.743634
21
91.690518
0
LINE
8
annotation
62
1
39
211
10
158.743634
20
91.690518
11
158.726475
21
91.882274
0
LINE
8
annotation
62
1
39
211
10
158.726475
20
91.882274
11
158.676996
21
92.062800
0
LINE
8
annotation
62
1
39
211
10
158.676996
20
92.062800
11
158.598199
21
92.229069
0
LINE
8
annotation
62
1
39
211
10
158.598199
20
92.229069
11
158.493083
21
92.378059
0
LINE
8
annotation
62
1
39
211
10
158.493083
20
92.378059
11
158.364649
21
92.506742
0
LINE
8
annotation
62
1
39
211
10
158.364649
20
92.506742
11
158.215897
21
92.612095
0
LINE
8
annotation
62
1
39
211
10
158.215897
20
92.612095
11
158.049828
21
92.691093
0
LINE
8
annotation
62
1
39
211
10
158.049828
20
92.691093
11
157.869441
21
92.740710
0
LINE
8
annotation
62
1
39
211
10
157.869441
20
92.740710
11
157.677737
21
92.757921
0
LINE
8
annotation
62
1
39
211
10
157.677737
20
92.757921
11
157.677737
21
92.757921
0
LINE
8
annotation
62
1
39
211
10
157.677737
20
92.757921
11
157.486429
21
92.740710
0
LINE
8
annotation
62
1
39
211
10
157.486429
20
92.740710
11
157.306252
21
92.691093
0
LINE
8
annotation
62
1
39
211
10
157.306252
20
92.691093
11
157.140245
21
92.612095
0
LINE
8
annotation
62
1
39
211
10
157.140245
20
92.612095
11
156.991444
21
92.506742
0
LINE
8
annotation
62
1
39
211
10
156.991444
20
92.506742
11
156.862886
21
92.378059
0
LINE
8
annotation
62
1
39
211
10
156.862886
20
92.378059
11
156.757609
21
92.229069
0
LINE
8
annotation
62
1
39
211
10
156.757609
20
92.229069
11
156.678651
21
92.062800
0
LINE
8
annotation
62
1
39
211
10
156.678651
20
92.062800
11
156.629048
21
91.882274
0
LINE
8
annotation
62
1
39
211
10
156.629048
20
91.882274
11
156.611839
21
91.690518
0
LINE
8
annotation
62
1
39
211
10
156.611839
20
91.690518
11
156.611839
21
91.156817
0
LINE
8
annotation
62
1
39
211
10
156.611839
20
91.156817
11
156.611839
21
91.156817
0
LINE
8
annotation
62
1
39
211
10
156.611839
20
91.156817
11
156.629048
21
90.965072
0
LINE
8
annotation
62
1
39
211
10
156.629048
20
90.965072
11
156.678651
21
90.784574
0
LINE
8
annotation
62
1
39
211
10
156.678651
20
90.784574
11
156.757609
21
90.618344
0
LINE
8
annotation
62
1
39
211
10
156.757609
20
90.618344
11
156.862886
21
90.469402
0
LINE
8
annotation
62
1
39
211
10
156.862886
20
90.469402
11
156.991444
21
90.340769
0
LINE
8
annotation
62
1
39
211
10
156.991444
20
90.340769
11
157.140245
21
90.235463
0
LINE
8
annotation
62
1
39
211
10
157.140245
20
90.235463
11
157.306252
21
90.156506
0
LINE
8
annotation
62
1
39
211
10
157.306252
20
90.156506
11
157.486429
21
90.106917
0
LINE
8
annotation
62
1
39
211
10
157.486429
20
90.106917
11
157.677737
21
90.089716
0
LINE
8
annotation
62
1
39
211
10
157.677737
20
90.089716
11
158.743634
21
90.089716
0
LINE
8
annotation
62
1
39
211
10
156.478640
20
87.357921
11
158.878640
21
87.357921
0
LINE
8
annotation
62
1
39
211
10
159.930573
20
106.925815
11
159.930573
21
111.543535
0
LINE
8
annotation
62
1
39
211
10
159.930573
20
111.543535
11
158.903994
21
110.516667
0
LINE
8
annotation
62
1
39
211
10
162.403801
20
106.986724
11
162.403801
21
106.986724
0
LINE
8
annotation
62
1
39
211
10
162.403801
20
106.986724
11
162.511123
21
106.946604
0
LINE
8
annotation
62
1
39
211
10
162.511123
20
106.946604
11
162.621190
21
106.926672
0
LINE
8
annotation
62
1
39
211
10
162.621190
20
106.926672
11
162.731515
21
106.926115
0
LINE
8
annotation
62
1
39
211
10
162.731515
20
106.926115
11
162.839609
21
106.944120
0
LINE
8
annotation
62
1
39
211
10
162.839609
20
106.944120
11
162.942983
21
106.979874
0
LINE
8
annotation
62
1
39
211
10
162.942983
20
106.979874
11
163.039151
21
107.032564
0
LINE
8
annotation
62
1
39
211
10
163.039151
20
107.032564
11
163.125622
21
107.101379
0
LINE
8
annotation
62
1
39
211
10
163.125622
20
107.101379
11
163.199909
21
107.185504
0
LINE
8
annotation
62
1
39
211
10
163.199909
20
107.185504
11
163.259525
21
107.284128
0
LINE
8
annotation
62
1
39
211
10
163.259525
20
107.284128
11
163.259525
21
107.284128
0
LINE
8
annotation
62
1
39
211
10
163.259525
20
107.284128
11
163.437394
21
107.700475
0
LINE
8
annotation
62
1
39
211
10
163.437394
20
107.700475
11
163.570796
21
108.128873
0
LINE
8
annotation
62
1
39
211
10
163.570796
20
108.128873
11
163.659731
21
108.565905
0
LINE
8
annotation
62
1
39
211
10
163.659731
20
108.565905
11
163.704198
21
109.008158
0
LINE
8
annotation
62
1
39
211
10
163.704198
20
109.008158
11
163.704198
21
109.452214
0
LINE
8
annotation
62
1
39
211
10
163.704198
20
109.452214
11
163.659731
21
109.894660
0
LINE
8
annotation
62
1
39
211
10
163.659731
20
109.894660
11
163.570796
21
110.332079
0
LINE
8
annotation
62
1
39
211
10
163.570796
20
110.332079
11
163.437394
21
110.761056
0
LINE
8
annotation
62
1
39
211
10
163.437394
20
110.761056
11
163.259525
21
111.178175
0
LINE
8
annotation
62
1
39
211
10
163.259525
20
111.178175
11
163.259525
21
111.178175
0
LINE
8
annotation
62
1
39
211
10
163.259525
20
111.178175
11
163.236905
21
111.220271
0
LINE
8
annotation
62
1
39
211
10
163.236905
20
111.220271
11
163.211260
21
111.260518
0
LINE
8
annotation
62
1
39
211
10
163.211260
20
111.260518
11
163.182785
21
111.298717
0
LINE
8
annotation
62
1
39
211
10
163.182785
20
111.298717
11
163.151670
21
111.334672
0
LINE
8
annotation
62
1
39
211
10
163.151670
20
111.334672
11
163.118111
21
111.368183
0
LINE
8
annotation
62
1
39
211
10
163.118111
20
111.368183
11
163.082299
21
111.399053
0
LINE
8
annotation
62
1
39
211
10
163.082299
20
111.399053
11
163.044427
21
111.427085
0
LINE
8
annotation
62
1
39
211
10
163.044427
20
111.427085
11
163.004690
21
111.452080
0
LINE
8
annotation
62
1
39
211
10
163.004690
20
111.452080
11
162.963279
21
111.473841
0
LINE
8
annotation
62
1
39
211
10
162.963279
20
111.473841
11
162.963279
21
111.473841
0
LINE
8
annotation
62
1
39
211
10
162.963279
20
111.473841
11
162.855106
21
111.514830
0
LINE
8
annotation
62
1
39
211
10
162.855106
20
111.514830
11
162.744394
21
111.535444
0
LINE
8
annotation
62
1
39
211
10
162.744394
20
111.535444
11
162.633603
21
111.536499
0
LINE
8
annotation
62
1
39
211
10
162.633603
20
111.536499
11
162.525193
21
111.518813
0
LINE
8
annotation
62
1
39
211
10
162.525193
20
111.518813
11
162.421625
21
111.483204
0
LINE
8
annotation
62
1
39
211
10
162.421625
20
111.483204
11
162.325356
21
111.430489
0
LINE
8
annotation
62
1
39
211
10
162.325356
20
111.430489
11
162.238848
21
111.361486
0
LINE
8
annotation
62
1
39
211
10
162.238848
20
111.361486
11
162.164559
21
111.277012
0
LINE
8
annotation
62
1
39
211
10
162.164559
20
111.277012
11
162.104950
21
111.177885
0
LINE
8
annotation
62
1
39
211
10
162.104950
20
111.177885
11
162.104950
21
111.177885
0
LINE
8
annotation
62
1
39
211
10
162.104950
20
111.177885
11
161.927938
21
110.761624
0
LINE
8
annotation
62
1
39
211
10
161.927938
20
110.761624
11
161.795180
21
110.333291
0
LINE
8
annotation
62
1
39
211
10
161.795180
20
110.333291
11
161.706674
21
109.896301
0
LINE
8
annotation
62
1
39
211
10
161.706674
20
109.896301
11
161.662421
21
109.454070
0
LINE
8
annotation
62
1
39
211
10
161.662421
20
109.454070
11
161.662421
21
109.010013
0
LINE
8
annotation
62
1
39
211
10
161.662421
20
109.010013
11
161.706674
21
108.567546
0
LINE
8
annotation
62
1
39
211
10
161.706674
20
108.567546
11
161.795180
21
108.130084
0
LINE
8
annotation
62
1
39
211
10
161.795180
20
108.130084
11
161.927938
21
107.701043
0
LINE
8
annotation
62
1
39
211
10
161.927938
20
107.701043
11
162.104950
21
107.283838
0
LINE
8
annotation
62
1
39
211
10
162.104950
20
107.283838
11
162.104950
21
107.283838
0
LINE
8
annotation
62
1
39
211
10
162.104950
20
107.283838
11
162.127487
21
107.241826
0
LINE
8
annotation
62
1
39
211
10
162.127487
20
107.241826
11
162.152942
21
107.201780
0
LINE
8
annotation
62
1
39
211
10
162.152942
20
107.201780
11
162.181207
21
107.163821
0
LINE
8
annotation
62
1
39
211
10
162.181207
20
107.163821
11
162.212175
21
107.128072
0
LINE
8
annotation
62
1
39
211
10
162.212175
20
107.128072
11
162.245738
21
107.094655
0
LINE
8
annotation
62
1
39
211
10
162.245738
20
107.094655
11
162.281790
21
107.063689
0
LINE
8
annotation
62
1
39
211
10
162.281790
20
107.063689
11
162.320222
21
107.035298
0
LINE
8
annotation
62
1
39
211
10
162.320222
20
107.035298
11
162.360929
21
107.009602
0
LINE
8
annotation
62
1
39
211
10
162.360929
20
107.009602
11
162.403801
21
106.986724
0
LINE
8
annotation
62
1
39
211
10
164.322399
20
125.711428
11
164.322399
21
130.511428
0
LINE
8
annotation
62
1
39
211
10
164.322399
20
130.511428
11
163.255298
21
129.444026
0
LINE
8
annotation
62
1
39
211
10
167.189501
20
125.711428
11
167.189501
21
130.511428
0
LINE
8
annotation
62
1
39
211
10
167.189501
20
130.511428
11
166.122399
21
129.444026
0
LINE
8
annotation
62
1
39
211
10
168.022784
20
144.684008
11
168.022784
21
149.292357
0
LINE
8
annotation
62
1
39
211
10
168.022784
20
149.292357
11
166.998289
21
148.267573
0
LINE
8
annotation
62
1
39
211
10
171.797797
20
144.683970
11
169.751118
21
144.683970
0
LINE
8
annotation
62
1
39
211
10
169.751118
20
144.683970
11
171.642316
21
147.728556
0
LINE
8
annotation
62
1
39
211
10
171.642316
20
147.728556
11
171.642316
21
147.728556
0
LINE
8
annotation
62
1
39
211
10
171.642316
20
147.728556
11
171.644577
21
147.731353
0
LINE
8
annotation
62
1
39
211
10
171.644577
20
147.731353
11
171.646745
21
147.734175
0
LINE
8
annotation
62
1
39
211
10
171.646745
20
147.734175
11
171.648835
21
147.737044
0
LINE
8
annotation
62
1
39
211
10
171.648835
20
147.737044
11
171.650860
21
147.739984
0
LINE
8
annotation
62
1
39
211
10
171.650860
20
147.739984
11
171.652835
21
147.743019
0
LINE
8
annotation
62
1
39
211
10
171.652835
20
147.743019
11
171.654775
21
147.746174
0
LINE
8
annotation
62
1
39
211
10
171.654775
20
147.746174
11
171.656693
21
147.749471
0
LINE
8
annotation
62
1
39
211
10
171.656693
20
147.749471
11
171.658605
21
147.752934
0
LINE
8
annotation
62
1
39
211
10
171.658605
20
147.752934
11
171.660523
21
147.756588
0
LINE
8
annotation
62
1
39
211
10
171.660523
20
147.756588
11
171.660523
21
147.756588
0
LINE
8
annotation
62
1
39
211
10
171.660523
20
147.756588
11
171.738610
21
147.924248
0
LINE
8
annotation
62
1
39
211
10
171.738610
20
147.924248
11
171.784227
21
148.098042
0
LINE
8
annotation
62
1
39
211
10
171.784227
20
148.098042
11
171.798492
21
148.274043
0
LINE
8
annotation
62
1
39
211
10
171.798492
20
148.274043
11
171.782523
21
148.448325
0
LINE
8
annotation
62
1
39
211
10
171.782523
20
148.448325
11
171.737438
21
148.616960
0
LINE
8
annotation
62
1
39
211
10
171.737438
20
148.616960
11
171.664355
21
148.776021
0
LINE
8
annotation
62
1
39
211
10
171.664355
20
148.776021
11
171.564391
21
148.921581
0
LINE
8
annotation
62
1
39
211
10
171.564391
20
148.921581
11
171.438665
21
149.049713
0
LINE
8
annotation
62
1
39
211
10
171.438665
20
149.049713
11
171.288295
21
149.156491
0
LINE
8
annotation
62
1
39
211
10
171.288295
20
149.156491
11
171.288295
21
149.156491
0
LINE
8
annotation
62
1
39
211
10
171.288295
20
149.156491
11
171.120169
21
149.233468
0
LINE
8
annotation
62
1
39
211
10
171.120169
20
149.233468
11
170.946108
21
149.278383
0
LINE
8
annotation
62
1
39
211
10
170.946108
20
149.278383
11
170.770005
21
149.292245
0
LINE
8
annotation
62
1
39
211
10
170.770005
20
149.292245
11
170.595749
21
149.276065
0
LINE
8
annotation
62
1
39
211
10
170.595749
20
149.276065
11
170.427234
21
149.230855
0
LINE
8
annotation
62
1
39
211
10
170.427234
20
149.230855
11
170.268348
21
149.157625
0
LINE
8
annotation
62
1
39
211
10
170.268348
20
149.157625
11
170.122986
21
149.057387
0
LINE
8
annotation
62
1
39
211
10
170.122986
20
149.057387
11
169.995036
21
148.931151
0
LINE
8
annotation
62
1
39
211
10
169.995036
20
148.931151
11
169.888392
21
148.779927
0
LINE
8
annotation
62
1
39
211
10
169.888392
20
148.779927
11
169.754008
21
148.522142
0
LINE
8
annotation
62
1
39
211
10
172.559636
20
163.560427
11
172.559636
21
168.169445
0
LINE
8
annotation
62
1
39
211
10
172.559636
20
168.169445
11
171.534992
21
167.144512
0
LINE
8
annotation
62
1
39
211
10
174.287873
20
163.560572
11
175.311360
21
163.560572
0
LINE
8
annotation
62
1
39
211
10
175.311360
20
163.560572
11
175.311360
21
163.560572
0
LINE
8
annotation
62
1
39
211
10
175.311360
20
163.560572
11
175.495437
21
163.577085
0
LINE
8
annotation
62
1
39
211
10
175.495437
20
163.577085
11
175.668646
21
163.624676
0
LINE
8
annotation
62
1
39
211
10
175.668646
20
163.624676
11
175.828108
21
163.700424
0
LINE
8
annotation
62
1
39
211
10
175.828108
20
163.700424
11
175.970942
21
163.801408
0
LINE
8
annotation
62
1
39
211
10
175.970942
20
163.801408
11
176.094265
21
163.924706
0
LINE
8
annotation
62
1
39
211
10
176.094265
20
163.924706
11
176.195199
21
164.067397
0
LINE
8
annotation
62
1
39
211
10
176.195199
20
164.067397
11
176.270861
21
164.226559
0
LINE
8
annotation
62
1
39
211
10
176.270861
20
164.226559
11
176.318371
21
164.399272
0
LINE
8
annotation
62
1
39
211
10
176.318371
20
164.399272
11
176.334847
21
164.582614
0
LINE
8
annotation
62
1
39
211
10
176.334847
20
164.582614
11
176.334847
21
165.095080
0
LINE
8
annotation
62
1
39
211
10
176.334847
20
165.095080
11
176.334847
21
165.095080
0
LINE
8
annotation
62
1
39
211
10
176.334847
20
165.095080
11
176.318371
21
165.278346
0
LINE
8
annotation
62
1
39
211
10
176.318371
20
165.278346
11
176.270861
21
165.451019
0
LINE
8
annotation
62
1
39
211
10
176.270861
20
165.451019
11
176.195199
21
165.610169
0
LINE
8
annotation
62
1
39
211
10
176.195199
20
165.610169
11
176.094265
21
165.752870
0
LINE
8
annotation
62
1
39
211
10
176.094265
20
165.752870
11
175.970942
21
165.876192
0
LINE
8
annotation
62
1
39
211
10
175.970942
20
165.876192
11
175.828108
21
165.977206
0
LINE
8
annotation
62
1
39
211
10
175.828108
20
165.977206
11
175.668646
21
166.052985
0
LINE
8
annotation
62
1
39
211
10
175.668646
20
166.052985
11
175.495437
21
166.100600
0
LINE
8
annotation
62
1
39
211
10
175.495437
20
166.100600
11
175.311360
21
166.117123
0
LINE
8
annotation
62
1
39
211
10
175.311360
20
166.117123
11
174.798894
21
166.117123
0
LINE
8
annotation
62
1
39
211
10
174.798894
20
166.117123
11
175.311360
21
166.117123
0
LINE
8
annotation
62
1
39
211
10
175.311360
20
166.117123
11
175.311360
21
166.117123
0
LINE
8
annotation
62
1
39
211
10
175.311360
20
166.117123
11
175.495437
21
166.133649
0
LINE
8
annotation
62
1
39
211
10
175.495437
20
166.133649
11
175.668646
21
166.181292
0
LINE
8
annotation
62
1
39
211
10
175.668646
20
166.181292
11
175.828108
21
166.257146
0
LINE
8
annotation
62
1
39
211
10
175.828108
20
166.257146
11
175.970942
21
166.358307
0
LINE
8
annotation
62
1
39
211
10
175.970942
20
166.358307
11
176.094265
21
166.481871
0
LINE
8
annotation
62
1
39
211
10
176.094265
20
166.481871
11
176.195199
21
166.624932
0
LINE
8
annotation
62
1
39
211
10
176.195199
20
166.624932
11
176.270861
21
166.784586
0
LINE
8
annotation
62
1
39
211
10
176.270861
20
166.784586
11
176.318371
21
166.957929
0
LINE
8
annotation
62
1
39
211
10
176.318371
20
166.957929
11
176.334847
21
167.142055
0
LINE
8
annotation
62
1
39
211
10
176.334847
20
167.142055
11
176.334847
21
167.142055
0
LINE
8
annotation
62
1
39
211
10
176.334847
20
167.142055
11
176.318371
21
167.325321
0
LINE
8
annotation
62
1
39
211
10
176.318371
20
167.325321
11
176.270861
21
167.497994
0
LINE
8
annotation
62
1
39
211
10
176.270861
20
167.497994
11
176.195199
21
167.657144
0
LINE
8
annotation
62
1
39
211
10
176.195199
20
167.657144
11
176.094265
21
167.799845
0
LINE
8
annotation
62
1
39
211
10
176.094265
20
167.799845
11
175.970942
21
167.923167
0
LINE
8
annotation
62
1
39
211
10
175.970942
20
167.923167
11
175.828108
21
168.024181
0
LINE
8
annotation
62
1
39
211
10
175.828108
20
168.024181
11
175.668646
21
168.099960
0
LINE
8
annotation
62
1
39
211
10
175.668646
20
168.099960
11
175.495437
21
168.147575
0
LINE
8
annotation
62
1
39
211
10
175.495437
20
168.147575
11
175.311360
21
168.164098
0
LINE
8
annotation
62
1
39
211
10
175.311360
20
168.164098
11
174.287873
21
168.164098
0
LINE
8
annotation
62
1
39
211
10
177.448216
20
182.659372
11
177.448216
21
186.824008
0
LINE
8
annotation
62
1
39
211
10
177.448216
20
186.824008
11
176.522364
21
185.897895
0
LINE
8
annotation
62
1
39
211
10
181.322234
20
183.585224
11
179.009824
21
183.585224
0
LINE
8
annotation
62
1
39
211
10
179.009824
20
183.585224
11
179.933325
21
186.824008
0
LINE
8
annotation
62
1
39
211
10
180.629085
20
182.659372
11
180.629085
21
184.508986
0
LINE
8
annotation
62
1
39
211
10
182.936228
20
201.313935
11
182.936228
21
205.922952
0
LINE
8
annotation
62
1
39
211
10
182.936228
20
205.922952
11
181.911585
21
204.898020
0
LINE
8
annotation
62
1
39
211
10
184.664465
20
201.313935
11
185.687953
21
201.313935
0
LINE
8
annotation
62
1
39
211
10
185.687953
20
201.313935
11
185.687953
21
201.313935
0
LINE
8
annotation
62
1
39
211
10
185.687953
20
201.313935
11
185.871649
21
201.330451
0
LINE
8
annotation
62
1
39
211
10
185.871649
20
201.330451
11
186.044656
21
201.378067
0
LINE
8
annotation
62
1
39
211
10
186.044656
20
201.378067
11
186.204059
21
201.453883
0
LINE
8
annotation
62
1
39
211
10
186.204059
20
201.453883
11
186.346940
21
201.554999
0
LINE
8
annotation
62
1
39
211
10
186.346940
20
201.554999
11
186.470382
21
201.678515
0
LINE
8
annotation
62
1
39
211
10
186.470382
20
201.678515
11
186.571470
21
201.821530
0
LINE
8
annotation
62
1
39
211
10
186.571470
20
201.821530
11
186.647287
21
201.981146
0
LINE
8
annotation
62
1
39
211
10
186.647287
20
201.981146
11
186.694916
21
202.154462
0
LINE
8
annotation
62
1
39
211
10
186.694916
20
202.154462
11
186.711440
21
202.338578
0
LINE
8
annotation
62
1
39
211
10
186.711440
20
202.338578
11
186.711440
21
202.848443
0
LINE
8
annotation
62
1
39
211
10
186.711440
20
202.848443
11
186.711440
21
202.848443
0
LINE
8
annotation
62
1
39
211
10
186.711440
20
202.848443
11
186.694925
21
203.032471
0
LINE
8
annotation
62
1
39
211
10
186.694925
20
203.032471
11
186.647320
21
203.205547
0
LINE
8
annotation
62
1
39
211
10
186.647320
20
203.205547
11
186.571534
21
203.364817
0
LINE
8
annotation
62
1
39
211
10
186.571534
20
203.364817
11
186.470477
21
203.507422
0
LINE
8
annotation
62
1
39
211
10
186.470477
20
203.507422
11
186.347059
21
203.630506
0
LINE
8
annotation
62
1
39
211
10
186.347059
20
203.630506
11
186.204187
21
203.731212
0
LINE
8
annotation
62
1
39
211
10
186.204187
20
203.731212
11
186.044773
21
203.806681
0
LINE
8
annotation
62
1
39
211
10
186.044773
20
203.806681
11
185.871725
21
203.854058
0
LINE
8
annotation
62
1
39
211
10
185.871725
20
203.854058
11
185.687953
21
203.870486
0
LINE
8
annotation
62
1
39
211
10
185.687953
20
203.870486
11
184.664465
21
203.870486
0
LINE
8
annotation
62
1
39
211
10
184.664465
20
203.870486
11
184.664465
21
205.922952
0
LINE
8
annotation
62
1
39
211
10
184.664465
20
205.922952
11
186.711440
21
205.922952
0
LINE
8
annotation
62
1
39
211
10
188.617377
20
220.190689
11
188.617377
21
224.799706
0
LINE
8
annotation
62
1
39
211
10
188.617377
20
224.799706
11
187.592733
21
223.774773
0
LINE
8
annotation
62
1
39
211
10
191.883013
20
224.799706
11
191.883013
21
224.799706
0
LINE
8
annotation
62
1
39
211
10
191.883013
20
224.799706
11
191.589809
21
224.689773
0
LINE
8
annotation
62
1
39
211
10
191.589809
20
224.689773
11
191.320757
21
224.541650
0
LINE
8
annotation
62
1
39
211
10
191.320757
20
224.541650
11
191.078617
21
224.359050
0
LINE
8
annotation
62
1
39
211
10
191.078617
20
224.359050
11
190.866152
21
224.145683
0
LINE
8
annotation
62
1
39
211
10
190.866152
20
224.145683
11
190.686123
21
223.905261
0
LINE
8
annotation
62
1
39
211
10
190.686123
20
223.905261
11
190.541293
21
223.641494
0
LINE
8
annotation
62
1
39
211
10
190.541293
20
223.641494
11
190.434424
21
223.358094
0
LINE
8
annotation
62
1
39
211
10
190.434424
20
223.358094
11
190.368277
21
223.058772
0
LINE
8
annotation
62
1
39
211
10
190.368277
20
223.058772
11
190.345614
21
222.747239
0
LINE
8
annotation
62
1
39
211
10
190.345614
20
222.747239
11
190.345614
21
221.215332
0
LINE
8
annotation
62
1
39
211
10
190.345614
20
221.215332
11
190.345614
21
221.215332
0
LINE
8
annotation
62
1
39
211
10
190.345614
20
221.215332
11
190.362138
21
221.031216
0
LINE
8
annotation
62
1
39
211
10
190.362138
20
221.031216
11
190.409767
21
220.857900
0
LINE
8
annotation
62
1
39
211
10
190.409767
20
220.857900
11
190.485584
21
220.698284
0
LINE
8
annotation
62
1
39
211
10
190.485584
20
220.698284
11
190.586672
21
220.555268
0
LINE
8
annotation
62
1
39
211
10
190.586672
20
220.555268
11
190.710114
21
220.431753
0
LINE
8
annotation
62
1
39
211
10
190.710114
20
220.431753
11
190.852995
21
220.330637
0
LINE
8
annotation
62
1
39
211
10
190.852995
20
220.330637
11
191.012398
21
220.254821
0
LINE
8
annotation
62
1
39
211
10
191.012398
20
220.254821
11
191.185405
21
220.207205
0
LINE
8
annotation
62
1
39
211
10
191.185405
20
220.207205
11
191.369101
21
220.190689
0
LINE
8
annotation
62
1
39
211
10
191.369101
20
220.190689
11
191.369101
21
220.190689
0
LINE
8
annotation
62
1
39
211
10
191.369101
20
220.190689
11
191.553178
21
220.207205
0
LINE
8
annotation
62
1
39
211
10
191.553178
20
220.207205
11
191.726388
21
220.254821
0
LINE
8
annotation
62
1
39
211
10
191.726388
20
220.254821
11
191.885850
21
220.330637
0
LINE
8
annotation
62
1
39
211
10
191.885850
20
220.330637
11
192.028683
21
220.431753
0
LINE
8
annotation
62
1
39
211
10
192.028683
20
220.431753
11
192.152007
21
220.555268
0
LINE
8
annotation
62
1
39
211
10
192.152007
20
220.555268
11
192.252940
21
220.698284
0
LINE
8
annotation
62
1
39
211
10
192.252940
20
220.698284
11
192.328602
21
220.857900
0
LINE
8
annotation
62
1
39
211
10
192.328602
20
220.857900
11
192.376112
21
221.031216
0
LINE
8
annotation
62
1
39
211
10
192.376112
20
221.031216
11
192.392589
21
221.215332
0
LINE
8
annotation
62
1
39
211
10
192.392589
20
221.215332
11
192.392589
21
221.725197
0
LINE
8
annotation
62
1
39
211
10
192.392589
20
221.725197
11
192.392589
21
221.725197
0
LINE
8
annotation
62
1
39
211
10
192.392589
20
221.725197
11
192.376112
21
221.909224
0
LINE
8
annotation
62
1
39
211
10
192.376112
20
221.909224
11
192.328602
21
222.082301
0
LINE
8
annotation
62
1
39
211
10
192.328602
20
222.082301
11
192.252940
21
222.241571
0
LINE
8
annotation
62
1
39
211
10
192.252940
20
222.241571
11
192.152007
21
222.384176
0
LINE
8
annotation
62
1
39
211
10
192.152007
20
222.384176
11
192.028683
21
222.507260
0
LINE
8
annotation
62
1
39
211
10
192.028683
20
222.507260
11
191.885850
21
222.607965
0
LINE
8
annotation
62
1
39
211
10
191.885850
20
222.607965
11
191.726388
21
222.683435
0
LINE
8
annotation
62
1
39
211
10
191.726388
20
222.683435
11
191.553178
21
222.730812
0
LINE
8
annotation
62
1
39
211
10
191.553178
20
222.730812
11
191.369101
21
222.747239
0
LINE
8
annotation
62
1
39
211
10
191.369101
20
222.747239
11
190.345614
21
222.747239
0
LINE
8
annotation
62
1
39
211
10
190.217425
20
219.614562
11
192.521934
21
219.614562
0
LINE
8
annotation
62
1
39
211
10
194.529625
20
239.068691
11
194.529625
21
243.675212
0
LINE
8
annotation
62
1
39
211
10
194.529625
20
243.675212
11
193.505537
21
242.650834
0
LINE
8
annotation
62
1
39
211
10
197.281159
20
239.068691
11
198.305248
21
243.675212
0
LINE
8
annotation
62
1
39
211
10
198.305248
20
243.675212
11
196.256782
21
243.675212
0
LINE
8
annotation
62
1
39
211
10
198.305248
20
241.623857
11
197.281159
21
241.623857
0
LINE
8
annotation
62
1
39
211
10
200.682019
20
257.944196
11
200.682019
21
262.553214
0
LINE
8
annotation
62
1
39
211
10
200.682019
20
262.553214
11
199.657375
21
261.528281
0
LINE
8
annotation
62
1
39
211
10
202.410256
20
258.966094
11
202.410256
21
258.966094
0
LINE
8
annotation
62
1
39
211
10
202.410256
20
258.966094
11
202.426780
21
258.782067
0
LINE
8
annotation
62
1
39
211
10
202.426780
20
258.782067
11
202.474409
21
258.608990
0
LINE
8
annotation
62
1
39
211
10
202.474409
20
258.608990
11
202.550226
21
258.449720
0
LINE
8
annotation
62
1
39
211
10
202.550226
20
258.449720
11
202.651314
21
258.307115
0
LINE
8
annotation
62
1
39
211
10
202.651314
20
258.307115
11
202.774756
21
258.184031
0
LINE
8
annotation
62
1
39
211
10
202.774756
20
258.184031
11
202.917637
21
258.083326
0
LINE
8
annotation
62
1
39
211
10
202.917637
20
258.083326
11
203.077040
21
258.007856
0
LINE
8
annotation
62
1
39
211
10
203.077040
20
258.007856
11
203.250047
21
257.960479
0
LINE
8
annotation
62
1
39
211
10
203.250047
20
257.960479
11
203.433743
21
257.944052
0
LINE
8
annotation
62
1
39
211
10
203.433743
20
257.944052
11
203.433743
21
257.944052
0
LINE
8
annotation
62
1
39
211
10
203.433743
20
257.944052
11
203.617439
21
257.960479
0
LINE
8
annotation
62
1
39
211
10
203.617439
20
257.960479
11
203.790447
21
258.007856
0
LINE
8
annotation
62
1
39
211
10
203.790447
20
258.007856
11
203.949849
21
258.083326
0
LINE
8
annotation
62
1
39
211
10
203.949849
20
258.083326
11
204.092730
21
258.184031
0
LINE
8
annotation
62
1
39
211
10
204.092730
20
258.184031
11
204.216173
21
258.307115
0
LINE
8
annotation
62
1
39
211
10
204.216173
20
258.307115
11
204.317261
21
258.449720
0
LINE
8
annotation
62
1
39
211
10
204.317261
20
258.449720
11
204.393078
21
258.608990
0
LINE
8
annotation
62
1
39
211
10
204.393078
20
258.608990
11
204.440706
21
258.782067
0
LINE
8
annotation
62
1
39
211
10
204.440706
20
258.782067
11
204.457231
21
258.966094
0
LINE
8
annotation
62
1
39
211
10
204.457231
20
258.966094
11
204.457231
21
259.475959
0
LINE
8
annotation
62
1
39
211
10
204.457231
20
259.475959
11
204.457231
21
259.475959
0
LINE
8
annotation
62
1
39
211
10
204.457231
20
259.475959
11
204.440716
21
259.660075
0
LINE
8
annotation
62
1
39
211
10
204.440716
20
259.660075
11
204.393111
21
259.833391
0
LINE
8
annotation
62
1
39
211
10
204.393111
20
259.833391
11
204.317325
21
259.993007
0
LINE
8
annotation
62
1
39
211
10
204.317325
20
259.993007
11
204.216268
21
260.136023
0
LINE
8
annotation
62
1
39
211
10
204.216268
20
260.136023
11
204.092849
21
260.259538
0
LINE
8
annotation
62
1
39
211
10
204.092849
20
260.259538
11
203.949978
21
260.360654
0
LINE
8
annotation
62
1
39
211
10
203.949978
20
260.360654
11
203.790563
21
260.436470
0
LINE
8
annotation
62
1
39
211
10
203.790563
20
260.436470
11
203.617516
21
260.484086
0
LINE
8
annotation
62
1
39
211
10
203.617516
20
260.484086
11
203.433743
21
260.500603
0
LINE
8
annotation
62
1
39
211
10
203.433743
20
260.500603
11
203.433743
21
260.500603
0
LINE
8
annotation
62
1
39
211
10
203.433743
20
260.500603
11
203.249971
21
260.484077
0
LINE
8
annotation
62
1
39
211
10
203.249971
20
260.484077
11
203.076923
21
260.436437
0
LINE
8
annotation
62
1
39
211
10
203.076923
20
260.436437
11
202.917509
21
260.360590
0
LINE
8
annotation
62
1
39
211
10
202.917509
20
260.360590
11
202.774637
21
260.259443
0
LINE
8
annotation
62
1
39
211
10
202.774637
20
260.259443
11
202.651219
21
260.135904
0
LINE
8
annotation
62
1
39
211
10
202.651219
20
260.135904
11
202.550162
21
259.992879
0
LINE
8
annotation
62
1
39
211
10
202.550162
20
259.992879
11
202.474376
21
259.833275
0
LINE
8
annotation
62
1
39
211
10
202.474376
20
259.833275
11
202.426771
21
259.659999
0
LINE
8
annotation
62
1
39
211
10
202.426771
20
259.659999
11
202.410256
21
259.475959
0
LINE
8
annotation
62
1
39
211
10
202.410256
20
259.475959
11
202.410256
21
258.966094
0
LINE
8
annotation
62
1
39
211
10
204.457231
20
261.525535
11
204.457231
21
261.525535
0
LINE
8
annotation
62
1
39
211
10
204.457231
20
261.525535
11
204.440716
21
261.708801
0
LINE
8
annotation
62
1
39
211
10
204.440716
20
261.708801
11
204.393111
21
261.881474
0
LINE
8
annotation
62
1
39
211
10
204.393111
20
261.881474
11
204.317325
21
262.040624
0
LINE
8
annotation
62
1
39
211
10
204.317325
20
262.040624
11
204.216268
21
262.183325
0
LINE
8
annotation
62
1
39
211
10
204.216268
20
262.183325
11
204.092849
21
262.306646
0
LINE
8
annotation
62
1
39
211
10
204.092849
20
262.306646
11
203.949978
21
262.407661
0
LINE
8
annotation
62
1
39
211
10
203.949978
20
262.407661
11
203.790563
21
262.483440
0
LINE
8
annotation
62
1
39
211
10
203.790563
20
262.483440
11
203.617516
21
262.531055
0
LINE
8
annotation
62
1
39
211
10
203.617516
20
262.531055
11
203.433743
21
262.547577
0
LINE
8
annotation
62
1
39
211
10
203.433743
20
262.547577
11
203.433743
21
262.547577
0
LINE
8
annotation
62
1
39
211
10
203.433743
20
262.547577
11
203.249971
21
262.531055
0
LINE
8
annotation
62
1
39
211
10
203.249971
20
262.531055
11
203.076923
21
262.483440
0
LINE
8
annotation
62
1
39
211
10
203.076923
20
262.483440
11
202.917509
21
262.407661
0
LINE
8
annotation
62
1
39
211
10
202.917509
20
262.407661
11
202.774637
21
262.306646
0
LINE
8
annotation
62
1
39
211
10
202.774637
20
262.306646
11
202.651219
21
262.183325
0
LINE
8
annotation
62
1
39
211
10
202.651219
20
262.183325
11
202.550162
21
262.040624
0
LINE
8
annotation
62
1
39
211
10
202.550162
20
262.040624
11
202.474376
21
261.881474
0
LINE
8
annotation
62
1
39
211
10
202.474376
20
261.881474
11
202.426771
21
261.708801
0
LINE
8
annotation
62
1
39
211
10
202.426771
20
261.708801
11
202.410256
21
261.525535
0
LINE
8
annotation
62
1
39
211
10
202.410256
20
261.525535
11
202.410256
21
261.525535
0
LINE
8
annotation
62
1
39
211
10
202.410256
20
261.525535
11
202.426780
21
261.341409
0
LINE
8
annotation
62
1
39
211
10
202.426780
20
261.341409
11
202.474409
21
261.168066
0
LINE
8
annotation
62
1
39
211
10
202.474409
20
261.168066
11
202.550226
21
261.008412
0
LINE
8
annotation
62
1
39
211
10
202.550226
20
261.008412
11
202.651314
21
260.865351
0
LINE
8
annotation
62
1
39
211
10
202.651314
20
260.865351
11
202.774756
21
260.741787
0
LINE
8
annotation
62
1
39
211
10
202.774756
20
260.741787
11
202.917637
21
260.640626
0
LINE
8
annotation
62
1
39
211
10
202.917637
20
260.640626
11
203.077040
21
260.564772
0
LINE
8
annotation
62
1
39
211
10
203.077040
20
260.564772
11
203.250047
21
260.517129
0
LINE
8
annotation
62
1
39
211
10
203.250047
20
260.517129
11
203.433743
21
260.500603
0
LINE
8
annotation
62
1
39
211
10
203.433743
20
260.500603
11
203.433743
21
260.500603
0
LINE
8
annotation
62
1
39
211
10
203.433743
20
260.500603
11
203.617439
21
260.517129
0
LINE
8
annotation
62
1
39
211
10
203.617439
20
260.517129
11
203.790447
21
260.564772
0
LINE
8
annotation
62
1
39
211
10
203.790447
20
260.564772
11
203.949849
21
260.640626
0
LINE
8
annotation
62
1
39
211
10
203.949849
20
260.640626
11
204.092730
21
260.741787
0
LINE
8
annotation
62
1
39
211
10
204.092730
20
260.741787
11
204.216173
21
260.865351
0
LINE
8
annotation
62
1
39
211
10
204.216173
20
260.865351
11
204.317261
21
261.008412
0
LINE
8
annotation
62
1
39
211
10
204.317261
20
261.008412
11
204.393078
21
261.168066
0
LINE
8
annotation
62
1
39
211
10
204.393078
20
261.168066
11
204.440706
21
261.341409
0
LINE
8
annotation
62
1
39
211
10
204.440706
20
261.341409
11
204.457231
21
261.525535
0
LINE
8
annotation
62
1
39
211
10
207.086812
20
276.820950
11
207.086812
21
281.429967
0
LINE
8
annotation
62
1
39
211
10
207.086812
20
281.429967
11
206.062168
21
280.405035
0
LINE
8
annotation
62
1
39
211
10
209.326070
20
276.820950
11
209.326070
21
276.820950
0
LINE
8
annotation
62
1
39
211
10
209.326070
20
276.820950
11
209.618757
21
276.930020
0
LINE
8
annotation
62
1
39
211
10
209.618757
20
276.930020
11
209.887408
21
277.077447
0
LINE
8
annotation
62
1
39
211
10
209.887408
20
277.077447
11
210.129245
21
277.259476
0
LINE
8
annotation
62
1
39
211
10
210.129245
20
277.259476
11
210.341494
21
277.472350
0
LINE
8
annotation
62
1
39
211
10
210.341494
20
277.472350
11
210.521377
21
277.712313
0
LINE
8
annotation
62
1
39
211
10
210.521377
20
277.712313
11
210.666119
21
277.975608
0
LINE
8
annotation
62
1
39
211
10
210.666119
20
277.975608
11
210.772944
21
278.258479
0
LINE
8
annotation
62
1
39
211
10
210.772944
20
278.258479
11
210.839074
21
278.557170
0
LINE
8
annotation
62
1
39
211
10
210.839074
20
278.557170
11
210.861735
21
278.867925
0
LINE
8
annotation
62
1
39
211
10
210.861735
20
278.867925
11
210.861735
21
280.405035
0
LINE
8
annotation
62
1
39
211
10
210.861735
20
280.405035
11
210.861735
21
280.405035
0
LINE
8
annotation
62
1
39
211
10
210.861735
20
280.405035
11
210.845258
21
280.589161
0
LINE
8
annotation
62
1
39
211
10
210.845258
20
280.589161
11
210.797748
21
280.762504
0
LINE
8
annotation
62
1
39
211
10
210.797748
20
280.762504
11
210.722086
21
280.922158
0
LINE
8
annotation
62
1
39
211
10
210.722086
20
280.922158
11
210.621153
21
281.065219
0
LINE
8
annotation
62
1
39
211
10
210.621153
20
281.065219
11
210.497829
21
281.188783
0
LINE
8
annotation
62
1
39
211
10
210.497829
20
281.188783
11
210.354996
21
281.289944
0
LINE
8
annotation
62
1
39
211
10
210.354996
20
281.289944
11
210.195534
21
281.365798
0
LINE
8
annotation
62
1
39
211
10
210.195534
20
281.365798
11
210.022324
21
281.413441
0
LINE
8
annotation
62
1
39
211
10
210.022324
20
281.413441
11
209.838247
21
281.429967
0
LINE
8
annotation
62
1
39
211
10
209.838247
20
281.429967
11
209.838247
21
281.429967
0
LINE
8
annotation
62
1
39
211
10
209.838247
20
281.429967
11
209.654551
21
281.413441
0
LINE
8
annotation
62
1
39
211
10
209.654551
20
281.413441
11
209.481544
21
281.365798
0
LINE
8
annotation
62
1
39
211
10
209.481544
20
281.365798
11
209.322141
21
281.289944
0
LINE
8
annotation
62
1
39
211
10
209.322141
20
281.289944
11
209.179260
21
281.188783
0
LINE
8
annotation
62
1
39
211
10
209.179260
20
281.188783
11
209.055818
21
281.065219
0
LINE
8
annotation
62
1
39
211
10
209.055818
20
281.065219
11
208.954730
21
280.922158
0
LINE
8
annotation
62
1
39
211
10
208.954730
20
280.922158
11
208.878913
21
280.762504
0
LINE
8
annotation
62
1
39
211
10
208.878913
20
280.762504
11
208.831284
21
280.589161
0
LINE
8
annotation
62
1
39
211
10
208.831284
20
280.589161
11
208.814760
21
280.405035
0
LINE
8
annotation
62
1
39
211
10
208.814760
20
280.405035
11
208.814760
21
279.892569
0
LINE
8
annotation
62
1
39
211
10
208.814760
20
279.892569
11
208.814760
21
279.892569
0
LINE
8
annotation
62
1
39
211
10
208.814760
20
279.892569
11
208.831284
21
279.708452
0
LINE
8
annotation
62
1
39
211
10
208.831284
20
279.708452
11
208.878913
21
279.535136
0
LINE
8
annotation
62
1
39
211
10
208.878913
20
279.535136
11
208.954730
21
279.375520
0
LINE
8
annotation
62
1
39
211
10
208.954730
20
279.375520
11
209.055818
21
279.232505
0
LINE
8
annotation
62
1
39
211
10
209.055818
20
279.232505
11
209.179260
21
279.108989
0
LINE
8
annotation
62
1
39
211
10
209.179260
20
279.108989
11
209.322141
21
279.007873
0
LINE
8
annotation
62
1
39
211
10
209.322141
20
279.007873
11
209.481544
21
278.932058
0
LINE
8
annotation
62
1
39
211
10
209.481544
20
278.932058
11
209.654551
21
278.884441
0
LINE
8
annotation
62
1
39
211
10
209.654551
20
278.884441
11
209.838247
21
278.867925
0
LINE
8
annotation
62
1
39
211
10
209.838247
20
278.867925
11
210.861735
21
278.867925
0
LINE
8
annotation
62
1
39
211
10
208.686860
20
276.244823
11
210.991369
21
276.244823
0
LINE
8
annotation
62
1
39
211
10
214.286394
20
296.099588
11
212.596419
21
296.099588
0
LINE
8
annotation
62
1
39
211
10
212.596419
20
296.099588
11
214.158011
21
298.613550
0
LINE
8
annotation
62
1
39
211
10
214.158011
20
298.613550
11
214.158011
21
298.613550
0
LINE
8
annotation
62
1
39
211
10
214.158011
20
298.613550
11
214.159878
21
298.615861
0
LINE
8
annotation
62
1
39
211
10
214.159878
20
298.615861
11
214.161668
21
298.618190
0
LINE
8
annotation
62
1
39
211
10
214.161668
20
298.618190
11
214.163394
21
298.620559
0
LINE
8
annotation
62
1
39
211
10
214.163394
20
298.620559
11
214.165066
21
298.622987
0
LINE
8
annotation
62
1
39
211
10
214.165066
20
298.622987
11
214.166697
21
298.625493
0
LINE
8
annotation
62
1
39
211
10
214.166697
20
298.625493
11
214.168299
21
298.628098
0
LINE
8
annotation
62
1
39
211
10
214.168299
20
298.628098
11
214.169883
21
298.630821
0
LINE
8
annotation
62
1
39
211
10
214.169883
20
298.630821
11
214.171461
21
298.633680
0
LINE
8
annotation
62
1
39
211
10
214.171461
20
298.633680
11
214.173045
21
298.636698
0
LINE
8
annotation
62
1
39
211
10
214.173045
20
298.636698
11
214.173045
21
298.636698
0
LINE
8
annotation
62
1
39
211
10
214.173045
20
298.636698
11
214.237523
21
298.775137
0
LINE
8
annotation
62
1
39
211
10
214.237523
20
298.775137
11
214.275189
21
298.918641
0
LINE
8
annotation
62
1
39
211
10
214.275189
20
298.918641
11
214.286968
21
299.063968
0
LINE
8
annotation
62
1
39
211
10
214.286968
20
299.063968
11
214.273782
21
299.207875
0
LINE
8
annotation
62
1
39
211
10
214.273782
20
299.207875
11
214.236555
21
299.347120
0
LINE
8
annotation
62
1
39
211
10
214.236555
20
299.347120
11
214.176209
21
299.478459
0
LINE
8
annotation
62
1
39
211
10
214.176209
20
299.478459
11
214.093667
21
299.598650
0
LINE
8
annotation
62
1
39
211
10
214.093667
20
299.598650
11
213.989853
21
299.704451
0
LINE
8
annotation
62
1
39
211
10
213.989853
20
299.704451
11
213.865690
21
299.792619
0
LINE
8
annotation
62
1
39
211
10
213.865690
20
299.792619
11
213.865690
21
299.792619
0
LINE
8
annotation
62
1
39
211
10
213.865690
20
299.792619
11
213.726866
21
299.856181
0
LINE
8
annotation
62
1
39
211
10
213.726866
20
299.856181
11
213.583141
21
299.893267
0
LINE
8
annotation
62
1
39
211
10
213.583141
20
299.893267
11
213.437730
21
299.904713
0
LINE
8
annotation
62
1
39
211
10
213.437730
20
299.904713
11
213.293845
21
299.891353
0
LINE
8
annotation
62
1
39
211
10
213.293845
20
299.891353
11
213.154698
21
299.854023
0
LINE
8
annotation
62
1
39
211
10
213.154698
20
299.854023
11
213.023504
21
299.793556
0
LINE
8
annotation
62
1
39
211
10
213.023504
20
299.793556
11
212.903476
21
299.710787
0
LINE
8
annotation
62
1
39
211
10
212.903476
20
299.710787
11
212.797826
21
299.606552
0
LINE
8
annotation
62
1
39
211
10
212.797826
20
299.606552
11
212.709768
21
299.481685
0
LINE
8
annotation
62
1
39
211
10
212.709768
20
299.481685
11
212.598806
21
299.268827
0
LINE
8
annotation
62
1
39
211
10
216.324840
20
296.149811
11
216.324840
21
296.149811
0
LINE
8
annotation
62
1
39
211
10
216.324840
20
296.149811
11
216.413278
21
296.116751
0
LINE
8
annotation
62
1
39
211
10
216.413278
20
296.116751
11
216.503977
21
296.100326
0
LINE
8
annotation
62
1
39
211
10
216.503977
20
296.100326
11
216.594889
21
296.099867
0
LINE
8
annotation
62
1
39
211
10
216.594889
20
296.099867
11
216.683963
21
296.114703
0
LINE
8
annotation
62
1
39
211
10
216.683963
20
296.114703
11
216.769148
21
296.144166
0
LINE
8
annotation
62
1
39
211
10
216.769148
20
296.144166
11
216.848393
21
296.187585
0
LINE
8
annotation
62
1
39
211
10
216.848393
20
296.187585
11
216.919649
21
296.244291
0
LINE
8
annotation
62
1
39
211
10
216.919649
20
296.244291
11
216.980865
21
296.313614
0
LINE
8
annotation
62
1
39
211
10
216.980865
20
296.313614
11
217.029991
21
296.394884
0
LINE
8
annotation
62
1
39
211
10
217.029991
20
296.394884
11
217.029991
21
296.394884
0
LINE
8
annotation
62
1
39
211
10
217.029991
20
296.394884
11
217.176562
21
296.737970
0
LINE
8
annotation
62
1
39
211
10
217.176562
20
296.737970
11
217.286491
21
297.090987
0
LINE
8
annotation
62
1
39
211
10
217.286491
20
297.090987
11
217.359777
21
297.451120
0
LINE
8
annotation
62
1
39
211
10
217.359777
20
297.451120
11
217.396419
21
297.815554
0
LINE
8
annotation
62
1
39
211
10
217.396419
20
297.815554
11
217.396419
21
298.181474
0
LINE
8
annotation
62
1
39
211
10
217.396419
20
298.181474
11
217.359777
21
298.546067
0
LINE
8
annotation
62
1
39
211
10
217.359777
20
298.546067
11
217.286491
21
298.906518
0
LINE
8
annotation
62
1
39
211
10
217.286491
20
298.906518
11
217.176562
21
299.260012
0
LINE
8
annotation
62
1
39
211
10
217.176562
20
299.260012
11
217.029991
21
299.603735
0
LINE
8
annotation
62
1
39
211
10
217.029991
20
299.603735
11
217.029991
21
299.603735
0
LINE
8
annotation
62
1
39
211
10
217.029991
20
299.603735
11
217.011351
21
299.638424
0
LINE
8
annotation
62
1
39
211
10
217.011351
20
299.638424
11
216.990219
21
299.671589
0
LINE
8
annotation
62
1
39
211
10
216.990219
20
299.671589
11
216.966754
21
299.703067
0
LINE
8
annotation
62
1
39
211
10
216.966754
20
299.703067
11
216.941114
21
299.732694
0
LINE
8
annotation
62
1
39
211
10
216.941114
20
299.732694
11
216.913460
21
299.760309
0
LINE
8
annotation
62
1
39
211
10
216.913460
20
299.760309
11
216.883949
21
299.785747
0
LINE
8
annotation
62
1
39
211
10
216.883949
20
299.785747
11
216.852742
21
299.808847
0
LINE
8
annotation
62
1
39
211
10
216.852742
20
299.808847
11
216.819997
21
299.829444
0
LINE
8
annotation
62
1
39
211
10
216.819997
20
299.829444
11
216.785873
21
299.847376
0
LINE
8
annotation
62
1
39
211
10
216.785873
20
299.847376
11
216.785873
21
299.847376
0
LINE
8
annotation
62
1
39
211
10
216.785873
20
299.847376
11
216.696733
21
299.881152
0
LINE
8
annotation
62
1
39
211
10
216.696733
20
299.881152
11
216.605502
21
299.898139
0
LINE
8
annotation
62
1
39
211
10
216.605502
20
299.898139
11
216.514206
21
299.899008
0
LINE
8
annotation
62
1
39
211
10
216.514206
20
299.899008
11
216.424872
21
299.884434
0
LINE
8
annotation
62
1
39
211
10
216.424872
20
299.884434
11
216.339527
21
299.855091
0
LINE
8
annotation
62
1
39
211
10
216.339527
20
299.855091
11
216.260198
21
299.811652
0
LINE
8
annotation
62
1
39
211
10
216.260198
20
299.811652
11
216.188912
21
299.754791
0
LINE
8
annotation
62
1
39
211
10
216.188912
20
299.754791
11
216.127695
21
299.685181
0
LINE
8
annotation
62
1
39
211
10
216.127695
20
299.685181
11
216.078575
21
299.603496
0
LINE
8
annotation
62
1
39
211
10
216.078575
20
299.603496
11
216.078575
21
299.603496
0
LINE
8
annotation
62
1
39
211
10
216.078575
20
299.603496
11
215.932710
21
299.260480
0
LINE
8
annotation
62
1
39
211
10
215.932710
20
299.260480
11
215.823312
21
298.907516
0
LINE
8
annotation
62
1
39
211
10
215.823312
20
298.907516
11
215.750379
21
298.547419
0
LINE
8
annotation
62
1
39
211
10
215.750379
20
298.547419
11
215.713913
21
298.183003
0
LINE
8
annotation
62
1
39
211
10
215.713913
20
298.183003
11
215.713913
21
297.817083
0
LINE
8
annotation
62
1
39
211
10
215.713913
20
297.817083
11
215.750379
21
297.452472
0
LINE
8
annotation
62
1
39
211
10
215.750379
20
297.452472
11
215.823312
21
297.091986
0
LINE
8
annotation
62
1
39
211
10
215.823312
20
297.091986
11
215.932710
21
296.738439
0
LINE
8
annotation
62
1
39
211
10
215.932710
20
296.738439
11
216.078575
21
296.394645
0
LINE
8
annotation
62
1
39
211
10
216.078575
20
296.394645
11
216.078575
21
296.394645
0
LINE
8
annotation
62
1
39
211
10
216.078575
20
296.394645
11
216.097146
21
296.360025
0
LINE
8
annotation
62
1
39
211
10
216.097146
20
296.360025
11
216.118122
21
296.327025
0
LINE
8
annotation
62
1
39
211
10
216.118122
20
296.327025
11
216.141414
21
296.295746
0
LINE
8
annotation
62
1
39
211
10
216.141414
20
296.295746
11
216.166932
21
296.266288
0
LINE
8
annotation
62
1
39
211
10
216.166932
20
296.266288
11
216.194590
21
296.238750
0
LINE
8
annotation
62
1
39
211
10
216.194590
20
296.238750
11
216.224298
21
296.213233
0
LINE
8
annotation
62
1
39
211
10
216.224298
20
296.213233
11
216.255968
21
296.189838
0
LINE
8
annotation
62
1
39
211
10
216.255968
20
296.189838
11
216.289511
21
296.168664
0
LINE
8
annotation
62
1
39
211
10
216.289511
20
296.168664
11
216.324840
21
296.149811
0
LINE
8
annotation
62
1
39
211
10
221.270276
20
314.574754
11
219.223597
21
314.574754
0
LINE
8
annotation
62
1
39
211
10
219.223597
20
314.574754
11
221.114795
21
317.619340
0
LINE
8
annotation
62
1
39
211
10
221.114795
20
317.619340
11
221.114795
21
317.619340
0
LINE
8
annotation
62
1
39
211
10
221.114795
20
317.619340
11
221.117056
21
317.622137
0
LINE
8
annotation
62
1
39
211
10
221.117056
20
317.622137
11
221.119224
21
317.624959
0
LINE
8
annotation
62
1
39
211
10
221.119224
20
317.624959
11
221.121314
21
317.627828
0
LINE
8
annotation
62
1
39
211
10
221.121314
20
317.627828
11
221.123339
21
317.630768
0
LINE
8
annotation
62
1
39
211
10
221.123339
20
317.630768
11
221.125314
21
317.633803
0
LINE
8
annotation
62
1
39
211
10
221.125314
20
317.633803
11
221.127254
21
317.636958
0
LINE
8
annotation
62
1
39
211
10
221.127254
20
317.636958
11
221.129172
21
317.640255
0
LINE
8
annotation
62
1
39
211
10
221.129172
20
317.640255
11
221.131084
21
317.643719
0
LINE
8
annotation
62
1
39
211
10
221.131084
20
317.643719
11
221.133002
21
317.647372
0
LINE
8
annotation
62
1
39
211
10
221.133002
20
317.647372
11
221.133002
21
317.647372
0
LINE
8
annotation
62
1
39
211
10
221.133002
20
317.647372
11
221.211089
21
317.815032
0
LINE
8
annotation
62
1
39
211
10
221.211089
20
317.815032
11
221.256706
21
317.988826
0
LINE
8
annotation
62
1
39
211
10
221.256706
20
317.988826
11
221.270971
21
318.164827
0
LINE
8
annotation
62
1
39
211
10
221.270971
20
318.164827
11
221.255002
21
318.339109
0
LINE
8
annotation
62
1
39
211
10
221.255002
20
318.339109
11
221.209917
21
318.507744
0
LINE
8
annotation
62
1
39
211
10
221.209917
20
318.507744
11
221.136834
21
318.666805
0
LINE
8
annotation
62
1
39
211
10
221.136834
20
318.666805
11
221.036870
21
318.812365
0
LINE
8
annotation
62
1
39
211
10
221.036870
20
318.812365
11
220.911144
21
318.940497
0
LINE
8
annotation
62
1
39
211
10
220.911144
20
318.940497
11
220.760773
21
319.047275
0
LINE
8
annotation
62
1
39
211
10
220.760773
20
319.047275
11
220.760773
21
319.047275
0
LINE
8
annotation
62
1
39
211
10
220.760773
20
319.047275
11
220.592648
21
319.124252
0
LINE
8
annotation
62
1
39
211
10
220.592648
20
319.124252
11
220.418587
21
319.169167
0
LINE
8
annotation
62
1
39
211
10
220.418587
20
319.169167
11
220.242484
21
319.183029
0
LINE
8
annotation
62
1
39
211
10
220.242484
20
319.183029
11
220.068228
21
319.166849
0
LINE
8
annotation
62
1
39
211
10
220.068228
20
319.166849
11
219.899712
21
319.121639
0
LINE
8
annotation
62
1
39
211
10
219.899712
20
319.121639
11
219.740827
21
319.048409
0
LINE
8
annotation
62
1
39
211
10
219.740827
20
319.048409
11
219.595465
21
318.948171
0
LINE
8
annotation
62
1
39
211
10
219.595465
20
318.948171
11
219.467515
21
318.821935
0
LINE
8
annotation
62
1
39
211
10
219.467515
20
318.821935
11
219.360871
21
318.670712
0
LINE
8
annotation
62
1
39
211
10
219.360871
20
318.670712
11
219.226487
21
318.412926
0
LINE
8
annotation
62
1
39
211
10
224.023394
20
314.574792
11
224.023394
21
319.183141
0
LINE
8
annotation
62
1
39
211
10
224.023394
20
319.183141
11
222.998899
21
318.158357
0
LINE
8
annotation
62
1
39
211
10
227.410570
20
333.856279
11
225.723423
21
333.856279
0
LINE
8
annotation
62
1
39
211
10
225.723423
20
333.856279
11
227.282402
21
336.366035
0
LINE
8
annotation
62
1
39
211
10
227.282402
20
336.366035
11
227.282402
21
336.366035
0
LINE
8
annotation
62
1
39
211
10
227.282402
20
336.366035
11
227.284266
21
336.368342
0
LINE
8
annotation
62
1
39
211
10
227.284266
20
336.368342
11
227.286053
21
336.370667
0
LINE
8
annotation
62
1
39
211
10
227.286053
20
336.370667
11
227.287776
21
336.373032
0
LINE
8
annotation
62
1
39
211
10
227.287776
20
336.373032
11
227.289445
21
336.375456
0
LINE
8
annotation
62
1
39
211
10
227.289445
20
336.375456
11
227.291074
21
336.377958
0
LINE
8
annotation
62
1
39
211
10
227.291074
20
336.377958
11
227.292673
21
336.380559
0
LINE
8
annotation
62
1
39
211
10
227.292673
20
336.380559
11
227.294254
21
336.383277
0
LINE
8
annotation
62
1
39
211
10
227.294254
20
336.383277
11
227.295830
21
336.386132
0
LINE
8
annotation
62
1
39
211
10
227.295830
20
336.386132
11
227.297411
21
336.389144
0
LINE
8
annotation
62
1
39
211
10
227.297411
20
336.389144
11
227.297411
21
336.389144
0
LINE
8
annotation
62
1
39
211
10
227.297411
20
336.389144
11
227.361781
21
336.527351
0
LINE
8
annotation
62
1
39
211
10
227.361781
20
336.527351
11
227.399385
21
336.670616
0
LINE
8
annotation
62
1
39
211
10
227.399385
20
336.670616
11
227.411144
21
336.815700
0
LINE
8
annotation
62
1
39
211
10
227.411144
20
336.815700
11
227.397980
21
336.959366
0
LINE
8
annotation
62
1
39
211
10
227.397980
20
336.959366
11
227.360815
21
337.098378
0
LINE
8
annotation
62
1
39
211
10
227.360815
20
337.098378
11
227.300570
21
337.229497
0
LINE
8
annotation
62
1
39
211
10
227.300570
20
337.229497
11
227.218166
21
337.349487
0
LINE
8
annotation
62
1
39
211
10
227.218166
20
337.349487
11
227.114526
21
337.455111
0
LINE
8
annotation
62
1
39
211
10
227.114526
20
337.455111
11
226.990570
21
337.543132
0
LINE
8
annotation
62
1
39
211
10
226.990570
20
337.543132
11
226.990570
21
337.543132
0
LINE
8
annotation
62
1
39
211
10
226.990570
20
337.543132
11
226.851978
21
337.606587
0
LINE
8
annotation
62
1
39
211
10
226.851978
20
337.606587
11
226.708494
21
337.643611
0
LINE
8
annotation
62
1
39
211
10
226.708494
20
337.643611
11
226.563326
21
337.655038
0
LINE
8
annotation
62
1
39
211
10
226.563326
20
337.655038
11
226.419681
21
337.641701
0
LINE
8
annotation
62
1
39
211
10
226.419681
20
337.641701
11
226.280768
21
337.604433
0
LINE
8
annotation
62
1
39
211
10
226.280768
20
337.604433
11
226.149794
21
337.544067
0
LINE
8
annotation
62
1
39
211
10
226.149794
20
337.544067
11
226.029966
21
337.461437
0
LINE
8
annotation
62
1
39
211
10
226.029966
20
337.461437
11
225.924493
21
337.357376
0
LINE
8
annotation
62
1
39
211
10
225.924493
20
337.357376
11
225.836582
21
337.232718
0
LINE
8
annotation
62
1
39
211
10
225.836582
20
337.232718
11
225.725805
21
337.020216
0
LINE
8
annotation
62
1
39
211
10
230.522849
20
333.856279
11
228.835702
21
333.856279
0
LINE
8
annotation
62
1
39
211
10
228.835702
20
333.856279
11
230.394681
21
336.366035
0
LINE
8
annotation
62
1
39
211
10
230.394681
20
336.366035
11
230.394681
21
336.366035
0
LINE
8
annotation
62
1
39
211
10
230.394681
20
336.366035
11
230.396545
21
336.368342
0
LINE
8
annotation
62
1
39
211
10
230.396545
20
336.368342
11
230.398332
21
336.370667
0
LINE
8
annotation
62
1
39
211
10
230.398332
20
336.370667
11
230.400055
21
336.373032
0
LINE
8
annotation
62
1
39
211
10
230.400055
20
336.373032
11
230.401724
21
336.375456
0
LINE
8
annotation
62
1
39
211
10
230.401724
20
336.375456
11
230.403353
21
336.377958
0
LINE
8
annotation
62
1
39
211
10
230.403353
20
336.377958
11
230.404952
21
336.380559
0
LINE
8
annotation
62
1
39
211
10
230.404952
20
336.380559
11
230.406533
21
336.383277
0
LINE
8
annotation
62
1
39
211
10
230.406533
20
336.383277
11
230.408109
21
336.386132
0
LINE
8
annotation
62
1
39
211
10
230.408109
20
336.386132
11
230.409690
21
336.389144
0
LINE
8
annotation
62
1
39
211
10
230.409690
20
336.389144
11
230.409690
21
336.389144
0
LINE
8
annotation
62
1
39
211
10
230.409690
20
336.389144
11
230.474060
21
336.527351
0
LINE
8
annotation
62
1
39
211
10
230.474060
20
336.527351
11
230.511664
21
336.670616
0
LINE
8
annotation
62
1
39
211
10
230.511664
20
336.670616
11
230.523423
21
336.815700
0
LINE
8
annotation
62
1
39
211
10
230.523423
20
336.815700
11
230.510259
21
336.959366
0
LINE
8
annotation
62
1
39
211
10
230.510259
20
336.959366
11
230.473094
21
337.098378
0
LINE
8
annotation
62
1
39
211
10
230.473094
20
337.098378
11
230.412849
21
337.229497
0
LINE
8
annotation
62
1
39
211
10
230.412849
20
337.229497
11
230.330445
21
337.349487
0
LINE
8
annotation
62
1
39
211
10
230.330445
20
337.349487
11
230.226805
21
337.455111
0
LINE
8
annotation
62
1
39
211
10
230.226805
20
337.455111
11
230.102849
21
337.543132
0
LINE
8
annotation
62
1
39
211
10
230.102849
20
337.543132
11
230.102849
21
337.543132
0
LINE
8
annotation
62
1
39
211
10
230.102849
20
337.543132
11
229.964257
21
337.606587
0
LINE
8
annotation
62
1
39
211
10
229.964257
20
337.606587
11
229.820773
21
337.643611
0
LINE
8
annotation
62
1
39
211
10
229.820773
20
337.643611
11
229.675605
21
337.655038
0
LINE
8
annotation
62
1
39
211
10
229.675605
20
337.655038
11
229.531960
21
337.641701
0
LINE
8
annotation
62
1
39
211
10
229.531960
20
337.641701
11
229.393047
21
337.604433
0
LINE
8
annotation
62
1
39
211
10
229.393047
20
337.604433
11
229.262073
21
337.544067
0
LINE
8
annotation
62
1
39
211
10
229.262073
20
337.544067
11
229.142245
21
337.461437
0
LINE
8
annotation
62
1
39
211
10
229.142245
20
337.461437
11
229.036772
21
337.357376
0
LINE
8
annotation
62
1
39
211
10
229.036772
20
337.357376
11
228.948861
21
337.232718
0
LINE
8
annotation
62
1
39
211
10
228.948861
20
337.232718
11
228.838084
21
337.020216
0
LINE
8
annotation
62
1
39
211
10
229.888309
20
352.966054
11
229.474019
21
352.966054
0
LINE
8
annotation
62
1
39
211
10
229.474019
20
352.966054
11
229.856836
21
353.582341
0
LINE
8
annotation
62
1
39
211
10
229.856836
20
353.582341
11
229.856836
21
353.582341
0
LINE
8
annotation
62
1
39
211
10
229.856836
20
353.582341
11
229.857294
21
353.582907
0
LINE
8
annotation
62
1
39
211
10
229.857294
20
353.582907
11
229.857733
21
353.583478
0
LINE
8
annotation
62
1
39
211
10
229.857733
20
353.583478
11
229.858156
21
353.584059
0
LINE
8
annotation
62
1
39
211
10
229.858156
20
353.584059
11
229.858566
21
353.584654
0
LINE
8
annotation
62
1
39
211
10
229.858566
20
353.584654
11
229.858966
21
353.585268
0
LINE
8
annotation
62
1
39
211
10
229.858966
20
353.585268
11
229.859358
21
353.585907
0
LINE
8
annotation
62
1
39
211
10
229.859358
20
353.585907
11
229.859747
21
353.586574
0
LINE
8
annotation
62
1
39
211
10
229.859747
20
353.586574
11
229.860133
21
353.587275
0
LINE
8
annotation
62
1
39
211
10
229.860133
20
353.587275
11
229.860522
21
353.588015
0
LINE
8
annotation
62
1
39
211
10
229.860522
20
353.588015
11
229.860522
21
353.588015
0
LINE
8
annotation
62
1
39
211
10
229.860522
20
353.588015
11
229.876328
21
353.621953
0
LINE
8
annotation
62
1
39
211
10
229.876328
20
353.621953
11
229.885562
21
353.657132
0
LINE
8
annotation
62
1
39
211
10
229.885562
20
353.657132
11
229.888450
21
353.692758
0
LINE
8
annotation
62
1
39
211
10
229.888450
20
353.692758
11
229.885217
21
353.728037
0
LINE
8
annotation
62
1
39
211
10
229.885217
20
353.728037
11
229.876091
21
353.762172
0
LINE
8
annotation
62
1
39
211
10
229.876091
20
353.762172
11
229.861297
21
353.794369
0
LINE
8
annotation
62
1
39
211
10
229.861297
20
353.794369
11
229.841063
21
353.823833
0
LINE
8
annotation
62
1
39
211
10
229.841063
20
353.823833
11
229.815613
21
353.849770
0
LINE
8
annotation
62
1
39
211
10
229.815613
20
353.849770
11
229.785175
21
353.871384
0
LINE
8
annotation
62
1
39
211
10
229.785175
20
353.871384
11
229.785175
21
353.871384
0
LINE
8
annotation
62
1
39
211
10
229.785175
20
353.871384
11
229.751143
21
353.886966
0
LINE
8
annotation
62
1
39
211
10
229.751143
20
353.886966
11
229.715910
21
353.896057
0
LINE
8
annotation
62
1
39
211
10
229.715910
20
353.896057
11
229.680263
21
353.898863
0
LINE
8
annotation
62
1
39
211
10
229.680263
20
353.898863
11
229.644990
21
353.895588
0
LINE
8
annotation
62
1
39
211
10
229.644990
20
353.895588
11
229.610879
21
353.886437
0
LINE
8
annotation
62
1
39
211
10
229.610879
20
353.886437
11
229.578717
21
353.871614
0
LINE
8
annotation
62
1
39
211
10
229.578717
20
353.871614
11
229.549293
21
353.851323
0
LINE
8
annotation
62
1
39
211
10
229.549293
20
353.851323
11
229.523393
21
353.825770
0
LINE
8
annotation
62
1
39
211
10
229.523393
20
353.825770
11
229.501806
21
353.795160
0
LINE
8
annotation
62
1
39
211
10
229.501806
20
353.795160
11
229.474604
21
353.742979
0
LINE
8
annotation
62
1
39
211
10
230.238188
20
352.966091
11
230.445333
21
352.966091
0
LINE
8
annotation
62
1
39
211
10
230.445333
20
352.966091
11
230.445333
21
352.966091
0
LINE
8
annotation
62
1
39
211
10
230.445333
20
352.966091
11
230.482588
21
352.969433
0
LINE
8
annotation
62
1
39
211
10
230.482588
20
352.969433
11
230.517645
21
352.979065
0
LINE
8
annotation
62
1
39
211
10
230.517645
20
352.979065
11
230.549918
21
352.994396
0
LINE
8
annotation
62
1
39
211
10
230.549918
20
352.994396
11
230.578826
21
353.014834
0
LINE
8
annotation
62
1
39
211
10
230.578826
20
353.014834
11
230.603786
21
353.039789
0
LINE
8
annotation
62
1
39
211
10
230.603786
20
353.039789
11
230.624214
21
353.068668
0
LINE
8
annotation
62
1
39
211
10
230.624214
20
353.068668
11
230.639527
21
353.100881
0
LINE
8
annotation
62
1
39
211
10
230.639527
20
353.100881
11
230.649143
21
353.135837
0
LINE
8
annotation
62
1
39
211
10
230.649143
20
353.135837
11
230.652478
21
353.172943
0
LINE
8
annotation
62
1
39
211
10
230.652478
20
353.172943
11
230.652478
21
353.276662
0
LINE
8
annotation
62
1
39
211
10
230.652478
20
353.276662
11
230.652478
21
353.276662
0
LINE
8
annotation
62
1
39
211
10
230.652478
20
353.276662
11
230.649143
21
353.313753
0
LINE
8
annotation
62
1
39
211
10
230.649143
20
353.313753
11
230.639527
21
353.348701
0
LINE
8
annotation
62
1
39
211
10
230.639527
20
353.348701
11
230.624214
21
353.380911
0
LINE
8
annotation
62
1
39
211
10
230.624214
20
353.380911
11
230.603786
21
353.409793
0
LINE
8
annotation
62
1
39
211
10
230.603786
20
353.409793
11
230.578826
21
353.434752
0
LINE
8
annotation
62
1
39
211
10
230.578826
20
353.434752
11
230.549918
21
353.455196
0
LINE
8
annotation
62
1
39
211
10
230.549918
20
353.455196
11
230.517645
21
353.470533
0
LINE
8
annotation
62
1
39
211
10
230.517645
20
353.470533
11
230.482588
21
353.480170
0
LINE
8
annotation
62
1
39
211
10
230.482588
20
353.480170
11
230.445333
21
353.483514
0
LINE
8
annotation
62
1
39
211
10
230.445333
20
353.483514
11
230.341614
21
353.483514
0
LINE
8
annotation
62
1
39
211
10
230.341614
20
353.483514
11
230.445333
21
353.483514
0
LINE
8
annotation
62
1
39
211
10
230.445333
20
353.483514
11
230.445333
21
353.483514
0
LINE
8
annotation
62
1
39
211
10
230.445333
20
353.483514
11
230.482588
21
353.486859
0
LINE
8
annotation
62
1
39
211
10
230.482588
20
353.486859
11
230.517645
21
353.496502
0
LINE
8
annotation
62
1
39
211
10
230.517645
20
353.496502
11
230.549918
21
353.511854
0
LINE
8
annotation
62
1
39
211
10
230.549918
20
353.511854
11
230.578826
21
353.532328
0
LINE
8
annotation
62
1
39
211
10
230.578826
20
353.532328
11
230.603786
21
353.557336
0
LINE
8
annotation
62
1
39
211
10
230.603786
20
353.557336
11
230.624214
21
353.586290
0
LINE
8
annotation
62
1
39
211
10
230.624214
20
353.586290
11
230.639527
21
353.618603
0
LINE
8
annotation
62
1
39
211
10
230.639527
20
353.618603
11
230.649143
21
353.653686
0
LINE
8
annotation
62
1
39
211
10
230.649143
20
353.653686
11
230.652478
21
353.690952
0
LINE
8
annotation
62
1
39
211
10
230.652478
20
353.690952
11
230.652478
21
353.690952
0
LINE
8
annotation
62
1
39
211
10
230.652478
20
353.690952
11
230.649143
21
353.728043
0
LINE
8
annotation
62
1
39
211
10
230.649143
20
353.728043
11
230.639527
21
353.762990
0
LINE
8
annotation
62
1
39
211
10
230.639527
20
353.762990
11
230.624214
21
353.795201
0
LINE
8
annotation
62
1
39
211
10
230.624214
20
353.795201
11
230.603786
21
353.824082
0
LINE
8
annotation
62
1
39
211
10
230.603786
20
353.824082
11
230.578826
21
353.849041
0
LINE
8
annotation
62
1
39
211
10
230.578826
20
353.849041
11
230.549918
21
353.869486
0
LINE
8
annotation
62
1
39
211
10
230.549918
20
353.869486
11
230.517645
21
353.884823
0
LINE
8
annotation
62
1
39
211
10
230.517645
20
353.884823
11
230.482588
21
353.894460
0
LINE
8
annotation
62
1
39
211
10
230.482588
20
353.894460
11
230.445333
21
353.897804
0
LINE
8
annotation
62
1
39
211
10
230.445333
20
353.897804
11
230.238188
21
353.897804
0
LINE
8
annotation
62
1
39
211
10
207.295957
20
311.573630
11
205.206840
21
308.551914
0
LINE
8
annotation
62
1
39
211
10
205.206840
20
308.551914
11
203.117331
21
311.573630
0
LINE
8
annotation
62
1
39
211
10
205.206840
20
308.795081
11
205.206840
21
305.309030
0
LINE
8
annotation
62
1
39
211
10
213.070982
20
308.441330
11
209.645820
21
308.441330
0
LINE
8
annotation
62
1
39
211
10
216.812280
20
305.309226
11
216.812280
21
311.573433
0
LINE
8
annotation
62
1
39
211
10
216.812280
20
311.573433
11
215.419666
21
310.180427
0
LINE
8
annotation
62
1
39
211
10
221.943718
20
305.309175
11
219.161634
21
305.309175
0
LINE
8
annotation
62
1
39
211
10
219.161634
20
305.309175
11
221.732371
21
309.447732
0
LINE
8
annotation
62
1
39
211
10
221.732371
20
309.447732
11
221.732371
21
309.447732
0
LINE
8
annotation
62
1
39
211
10
221.732371
20
309.447732
11
221.735444
21
309.451535
0
LINE
8
annotation
62
1
39
211
10
221.735444
20
309.451535
11
221.738391
21
309.455370
0
LINE
8
annotation
62
1
39
211
10
221.738391
20
309.455370
11
221.741232
21
309.459270
0
LINE
8
annotation
62
1
39
211
10
221.741232
20
309.459270
11
221.743985
21
309.463266
0
LINE
8
annotation
62
1
39
211
10
221.743985
20
309.463266
11
221.746670
21
309.467393
0
LINE
8
annotation
62
1
39
211
10
221.746670
20
309.467393
11
221.749307
21
309.471680
0
LINE
8
annotation
62
1
39
211
10
221.749307
20
309.471680
11
221.751914
21
309.476162
0
LINE
8
annotation
62
1
39
211
10
221.751914
20
309.476162
11
221.754512
21
309.480870
0
LINE
8
annotation
62
1
39
211
10
221.754512
20
309.480870
11
221.757120
21
309.485837
0
LINE
8
annotation
62
1
39
211
10
221.757120
20
309.485837
11
221.757120
21
309.485837
0
LINE
8
annotation
62
1
39
211
10
221.757120
20
309.485837
11
221.863265
21
309.713740
0
LINE
8
annotation
62
1
39
211
10
221.863265
20
309.713740
11
221.925273
21
309.949981
0
LINE
8
annotation
62
1
39
211
10
221.925273
20
309.949981
11
221.944664
21
310.189222
0
LINE
8
annotation
62
1
39
211
10
221.944664
20
310.189222
11
221.922957
21
310.426126
0
LINE
8
annotation
62
1
39
211
10
221.922957
20
310.426126
11
221.861672
21
310.655354
0
LINE
8
annotation
62
1
39
211
10
221.861672
20
310.655354
11
221.762329
21
310.871569
0
LINE
8
annotation
62
1
39
211
10
221.762329
20
310.871569
11
221.626446
21
311.069431
0
LINE
8
annotation
62
1
39
211
10
221.626446
20
311.069431
11
221.455545
21
311.243604
0
LINE
8
annotation
62
1
39
211
10
221.455545
20
311.243604
11
221.251143
21
311.388748
0
LINE
8
annotation
62
1
39
211
10
221.251143
20
311.388748
11
221.251143
21
311.388748
0
LINE
8
annotation
62
1
39
211
10
221.251143
20
311.388748
11
221.022607
21
311.493385
0
LINE
8
annotation
62
1
39
211
10
221.022607
20
311.493385
11
220.786004
21
311.554438
0
LINE
8
annotation
62
1
39
211
10
220.786004
20
311.554438
11
220.546623
21
311.573281
0
LINE
8
annotation
62
1
39
211
10
220.546623
20
311.573281
11
220.309755
21
311.551287
0
LINE
8
annotation
62
1
39
211
10
220.309755
20
311.551287
11
220.080689
21
311.489833
0
LINE
8
annotation
62
1
39
211
10
220.080689
20
311.489833
11
219.864714
21
311.390290
0
LINE
8
annotation
62
1
39
211
10
219.864714
20
311.390290
11
219.667119
21
311.254035
0
LINE
8
annotation
62
1
39
211
10
219.667119
20
311.254035
11
219.493196
21
311.082440
0
LINE
8
annotation
62
1
39
211
10
219.493196
20
311.082440
11
219.348232
21
310.876879
0
LINE
8
annotation
62
1
39
211
10
219.348232
20
310.876879
11
219.165562
21
310.526467
0
LINE
8
frame
62
5
39
2
10
0.000000
20
0.000000
11
300.000000
21
0.000000
0
LINE
8
frame
62
5
39
2
10
300.000000
20
0.000000
11
300.000000
21
600.000000
0
LINE
8
frame
62
5
39
2
10
300.000000
20
600.000000
11
0.000000
21
600.000000
0
LINE
8
frame
62
5
39
2
10
0.000000
20
600.000000
11
0.000000
21
0.000000
0
ENDSEC
0
EOF
