0
SECTION
2
HEADER
9
$ACADVER
1
AC1009
0
ENDSEC
0
SECTION
2
TABLES
0
TABLE
2
VPORT
70
1
0
VPORT
2
ACTIVE
70
0
10
0.0
20
0.0
11
0.0
21
0.0
12
0.0
22
0.0
13
0.0
23
0.0
14
0.0
24
0.0
15
0.0
25
0.0
16
0.0
26
0.0
36
0.0
17
0.0
27
0.0
37
0.0
40
0.0
41
0.0
42
0.0
43
0.0
44
0.0
50
0.0
51
0.0
71
0
72
1000
73
1
74
3
75
0
76
0
77
0
78
0
0
ENDTAB
0
ENDSEC
0
SECTION
2
ENTITIES
0
LINE
8
boundary
62
5
39
2
10
16.067905
20
337.331477
11
15.344109
21
337.254401
0
LINE
8
boundary
62
5
39
2
10
15.344109
20
337.254401
11
14.685081
21
337.108034
0
LINE
8
boundary
62
5
39
2
10
14.685081
20
337.108034
11
14.189159
21
336.960932
0
LINE
8
boundary
62
5
39
2
10
14.189159
20
336.960932
11
13.694844
21
336.785121
0
LINE
8
boundary
62
5
39
2
10
13.694844
20
336.785121
11
13.203365
21
336.580365
0
LINE
8
boundary
62
5
39
2
10
13.203365
20
336.580365
11
12.716089
21
336.346374
0
LINE
8
boundary
62
5
39
2
10
12.716089
20
336.346374
11
12.241080
21
336.083795
0
LINE
8
boundary
62
5
39
2
10
12.241080
20
336.083795
11
11.663930
21
335.690982
0
LINE
8
boundary
62
5
39
2
10
11.663930
20
335.690982
11
11.115920
21
335.256724
0
LINE
8
boundary
62
5
39
2
10
11.115920
20
335.256724
11
10.680104
21
334.849833
0
LINE
8
boundary
62
5
39
2
10
10.680104
20
334.849833
11
10.316779
21
334.468429
0
LINE
8
boundary
62
5
39
2
10
10.316779
20
334.468429
11
9.962372
21
334.067320
0
LINE
8
boundary
62
5
39
2
10
9.962372
20
334.067320
11
9.619991
21
333.641245
0
LINE
8
boundary
62
5
39
2
10
9.619991
20
333.641245
11
9.299846
21
333.168324
0
LINE
8
boundary
62
5
39
2
10
9.299846
20
333.168324
11
8.992272
21
332.674278
0
LINE
8
boundary
62
5
39
2
10
8.992272
20
332.674278
11
8.725291
21
332.216583
0
LINE
8
boundary
62
5
39
2
10
8.725291
20
332.216583
11
8.345873
21
331.424514
0
LINE
8
boundary
62
5
39
2
10
8.345873
20
331.424514
11
8.151173
21
330.907638
0
LINE
8
boundary
62
5
39
2
10
8.151173
20
330.907638
11
7.815966
21
329.948375
0
LINE
8
boundary
62
5
39
2
10
7.815966
20
329.948375
11
7.422335
21
328.494139
0
LINE
8
boundary
62
5
39
2
10
7.422335
20
328.494139
11
7.240224
21
327.683705
0
LINE
8
boundary
62
5
39
2
10
7.240224
20
327.683705
11
7.079671
21
326.691515
0
LINE
8
boundary
62
5
39
2
10
7.079671
20
326.691515
11
6.949740
21
325.738021
0
LINE
8
boundary
62
5
39
2
10
6.949740
20
325.738021
11
6.841538
21
324.799567
0
LINE
8
boundary
62
5
39
2
10
6.841538
20
324.799567
11
6.766008
21
323.748345
0
LINE
8
boundary
62
5
39
2
10
6.766008
20
323.748345
11
6.711126
21
322.715062
0
LINE
8
boundary
62
5
39
2
10
6.711126
20
322.715062
11
6.675015
21
321.722376
0
LINE
8
boundary
62
5
39
2
10
6.675015
20
321.722376
11
6.669296
21
320.591221
0
LINE
8
boundary
62
5
39
2
10
6.669296
20
320.591221
11
6.681275
21
319.502580
0
LINE
8
boundary
62
5
39
2
10
6.681275
20
319.502580
11
6.703952
21
318.543144
0
LINE
8
boundary
62
5
39
2
10
6.703952
20
318.543144
11
6.762285
21
317.297718
0
LINE
8
boundary
62
5
39
2
10
6.762285
20
317.297718
11
6.831369
21
316.178683
0
LINE
8
boundary
62
5
39
2
10
6.831369
20
316.178683
11
6.890733
21
315.341455
0
LINE
8
boundary
62
5
39
2
10
6.890733
20
315.341455
11
6.972813
21
314.413116
0
LINE
8
boundary
62
5
39
2
10
6.972813
20
314.413116
11
7.031644
21
313.754496
0
LINE
8
boundary
62
5
39
2
10
7.031644
20
313.754496
11
7.128334
21
312.821990
0
LINE
8
boundary
62
5
39
2
10
7.128334
20
312.821990
11
7.197624
21
312.185842
0
LINE
8
boundary
62
5
39
2
10
7.197624
20
312.185842
11
7.386879
21
310.638346
0
LINE
8
boundary
62
5
39
2
10
7.386879
20
310.638346
11
7.542292
21
309.497825
0
LINE
8
boundary
62
5
39
2
10
7.542292
20
309.497825
11
7.704092
21
308.399967
0
LINE
8
boundary
62
5
39
2
10
7.704092
20
308.399967
11
7.831517
21
307.588964
0
LINE
8
boundary
62
5
39
2
10
7.831517
20
307.588964
11
7.994552
21
306.616630
0
LINE
8
boundary
62
5
39
2
10
7.994552
20
306.616630
11
8.083911
21
306.085713
0
LINE
8
boundary
62
5
39
2
10
8.083911
20
306.085713
11
8.247929
21
305.162616
0
LINE
8
boundary
62
5
39
2
10
8.247929
20
305.162616
11
8.352806
21
304.593648
0
LINE
8
boundary
62
5
39
2
10
8.352806
20
304.593648
11
8.565589
21
303.481852
0
LINE
8
boundary
62
5
39
2
10
8.565589
20
303.481852
11
8.671138
21
302.953175
0
LINE
8
boundary
62
5
39
2
10
8.671138
20
302.953175
11
8.786257
21
302.375254
0
LINE
8
boundary
62
5
39
2
10
8.786257
20
302.375254
11
8.927123
21
301.684100
0
LINE
8
boundary
62
5
39
2
10
8.927123
20
301.684100
11
9.098516
21
300.862076
0
LINE
8
boundary
62
5
39
2
10
9.098516
20
300.862076
11
9.244975
21
300.174490
0
LINE
8
boundary
62
5
39
2
10
9.244975
20
300.174490
11
9.443580
21
299.243359
0
LINE
8
boundary
62
5
39
2
10
9.443580
20
299.243359
11
9.614146
21
298.445918
0
LINE
8
boundary
62
5
39
2
10
9.614146
20
298.445918
11
9.784137
21
297.657247
0
LINE
8
boundary
62
5
39
2
10
9.784137
20
297.657247
11
9.950819
21
296.890580
0
LINE
8
boundary
62
5
39
2
10
9.950819
20
296.890580
11
10.117170
21
296.105805
0
LINE
8
boundary
62
5
39
2
10
10.117170
20
296.105805
11
10.410556
21
294.743616
0
LINE
8
boundary
62
5
39
2
10
10.410556
20
294.743616
11
10.657096
21
293.596628
0
LINE
8
boundary
62
5
39
2
10
10.657096
20
293.596628
11
10.861667
21
292.657063
0
LINE
8
boundary
62
5
39
2
10
10.861667
20
292.657063
11
11.144624
21
291.367804
0
LINE
8
boundary
62
5
39
2
10
11.144624
20
291.367804
11
11.326920
21
290.547544
0
LINE
8
boundary
62
5
39
2
10
11.326920
20
290.547544
11
11.470496
21
289.910545
0
LINE
8
boundary
62
5
39
2
10
11.470496
20
289.910545
11
11.649172
21
289.111836
0
LINE
8
boundary
62
5
39
2
10
11.649172
20
289.111836
11
11.816347
21
288.374925
0
LINE
8
boundary
62
5
39
2
10
11.816347
20
288.374925
11
12.008480
21
287.538481
0
LINE
8
boundary
62
5
39
2
10
12.008480
20
287.538481
11
12.171755
21
286.821694
0
LINE
8
boundary
62
5
39
2
10
12.171755
20
286.821694
11
12.328134
21
286.144767
0
LINE
8
boundary
62
5
39
2
10
12.328134
20
286.144767
11
12.559419
21
285.157886
0
LINE
8
boundary
62
5
39
2
10
12.559419
20
285.157886
11
12.714811
21
284.490211
0
LINE
8
boundary
62
5
39
2
10
12.714811
20
284.490211
11
12.870600
21
283.833033
0
LINE
8
boundary
62
5
39
2
10
12.870600
20
283.833033
11
12.996213
21
283.305360
0
LINE
8
boundary
62
5
39
2
10
12.996213
20
283.305360
11
13.284960
21
282.106011
0
LINE
8
boundary
62
5
39
2
10
13.284960
20
282.106011
11
13.545134
21
281.051324
0
LINE
8
boundary
62
5
39
2
10
13.545134
20
281.051324
11
13.893502
21
279.643567
0
LINE
8
boundary
62
5
39
2
10
13.893502
20
279.643567
11
14.039771
21
279.073998
0
LINE
8
boundary
62
5
39
2
10
14.039771
20
279.073998
11
14.213325
21
278.379925
0
LINE
8
boundary
62
5
39
2
10
14.213325
20
278.379925
11
14.529438
21
277.155908
0
LINE
8
boundary
62
5
39
2
10
14.529438
20
277.155908
11
15.484105
21
273.525874
0
LINE
8
boundary
62
5
39
2
10
15.484105
20
273.525874
11
16.514686
21
269.810865
0
LINE
8
boundary
62
5
39
2
10
16.514686
20
269.810865
11
17.379376
21
266.740303
0
LINE
8
boundary
62
5
39
2
10
17.379376
20
266.740303
11
18.251537
21
263.745362
0
LINE
8
boundary
62
5
39
2
10
18.251537
20
263.745362
11
19.238101
21
260.359727
0
LINE
8
boundary
62
5
39
2
10
19.238101
20
260.359727
11
19.565377
21
259.266977
0
LINE
8
boundary
62
5
39
2
10
19.565377
20
259.266977
11
19.734205
21
258.687387
0
LINE
8
boundary
62
5
39
2
10
19.734205
20
258.687387
11
20.238301
21
257.006557
0
LINE
8
boundary
62
5
39
2
10
20.238301
20
257.006557
11
20.751056
21
255.259223
0
LINE
8
boundary
62
5
39
2
10
20.751056
20
255.259223
11
20.929603
21
254.664241
0
LINE
8
boundary
62
5
39
2
10
20.929603
20
254.664241
11
21.268437
21
253.508613
0
LINE
8
boundary
62
5
39
2
10
21.268437
20
253.508613
11
21.633356
21
252.291022
0
LINE
8
boundary
62
5
39
2
10
21.633356
20
252.291022
11
21.795560
21
251.737525
0
LINE
8
boundary
62
5
39
2
10
21.795560
20
251.737525
11
22.282159
21
250.111875
0
LINE
8
boundary
62
5
39
2
10
22.282159
20
250.111875
11
22.853917
21
248.139394
0
LINE
8
boundary
62
5
39
2
10
22.853917
20
248.139394
11
23.063705
21
247.428530
0
LINE
8
boundary
62
5
39
2
10
23.063705
20
247.428530
11
23.385617
21
246.316848
0
LINE
8
boundary
62
5
39
2
10
23.385617
20
246.316848
11
23.786635
21
244.957720
0
LINE
8
boundary
62
5
39
2
10
23.786635
20
244.957720
11
24.333883
21
243.095214
0
LINE
8
boundary
62
5
39
2
10
24.333883
20
243.095214
11
24.566992
21
242.278267
0
LINE
8
boundary
62
5
39
2
10
24.566992
20
242.278267
11
25.348151
21
239.530973
0
LINE
8
boundary
62
5
39
2
10
25.348151
20
239.530973
11
26.128222
21
236.829100
0
LINE
8
boundary
62
5
39
2
10
26.128222
20
236.829100
11
26.415169
21
235.833413
0
LINE
8
boundary
62
5
39
2
10
26.415169
20
235.833413
11
27.134801
21
233.272668
0
LINE
8
boundary
62
5
39
2
10
27.134801
20
233.272668
11
27.468403
21
232.095622
0
LINE
8
boundary
62
5
39
2
10
27.468403
20
232.095622
11
28.014708
21
230.126399
0
LINE
8
boundary
62
5
39
2
10
28.014708
20
230.126399
11
28.533710
21
228.275349
0
LINE
8
boundary
62
5
39
2
10
28.533710
20
228.275349
11
28.889757
21
226.977722
0
LINE
8
boundary
62
5
39
2
10
28.889757
20
226.977722
11
29.617792
21
224.358679
0
LINE
8
boundary
62
5
39
2
10
29.617792
20
224.358679
11
29.761228
21
223.831444
0
LINE
8
boundary
62
5
39
2
10
29.761228
20
223.831444
11
30.281801
21
221.947636
0
LINE
8
boundary
62
5
39
2
10
30.281801
20
221.947636
11
30.628554
21
220.690975
0
LINE
8
boundary
62
5
39
2
10
30.628554
20
220.690975
11
31.483138
21
217.558087
0
LINE
8
boundary
62
5
39
2
10
31.483138
20
217.558087
11
31.944150
21
215.906490
0
LINE
8
boundary
62
5
39
2
10
31.944150
20
215.906490
11
32.351656
21
214.436555
0
LINE
8
boundary
62
5
39
2
10
32.351656
20
214.436555
11
33.105738
21
211.793613
0
LINE
8
boundary
62
5
39
2
10
33.105738
20
211.793613
11
33.329087
21
210.990067
0
LINE
8
boundary
62
5
39
2
10
33.329087
20
210.990067
11
34.107898
21
208.225119
0
LINE
8
boundary
62
5
39
2
10
34.107898
20
208.225119
11
34.372364
21
207.309542
0
LINE
8
boundary
62
5
39
2
10
34.372364
20
207.309542
11
34.553811
21
206.678376
0
LINE
8
boundary
62
5
39
2
10
34.553811
20
206.678376
11
34.931405
21
205.389746
0
LINE
8
boundary
62
5
39
2
10
34.931405
20
205.389746
11
35.330522
21
204.042880
0
LINE
8
boundary
62
5
39
2
10
35.330522
20
204.042880
11
35.492181
21
203.484353
0
LINE
8
boundary
62
5
39
2
10
35.492181
20
203.484353
11
35.912668
21
202.049659
0
LINE
8
boundary
62
5
39
2
10
35.912668
20
202.049659
11
36.372081
21
200.509625
0
LINE
8
boundary
62
5
39
2
10
36.372081
20
200.509625
11
36.615057
21
199.710284
0
LINE
8
boundary
62
5
39
2
10
36.615057
20
199.710284
11
36.839370
21
198.970554
0
LINE
8
boundary
62
5
39
2
10
36.839370
20
198.970554
11
37.187737
21
197.843921
0
LINE
8
boundary
62
5
39
2
10
37.187737
20
197.843921
11
37.768584
21
195.990094
0
LINE
8
boundary
62
5
39
2
10
37.768584
20
195.990094
11
37.954702
21
195.407225
0
LINE
8
boundary
62
5
39
2
10
37.954702
20
195.407225
11
38.283617
21
194.355061
0
LINE
8
boundary
62
5
39
2
10
38.283617
20
194.355061
11
38.774129
21
192.815712
0
LINE
8
boundary
62
5
39
2
10
38.774129
20
192.815712
11
38.939331
21
192.306917
0
LINE
8
boundary
62
5
39
2
10
38.939331
20
192.306917
11
39.274410
21
191.275224
0
LINE
8
boundary
62
5
39
2
10
39.274410
20
191.275224
11
39.537629
21
190.478719
0
LINE
8
boundary
62
5
39
2
10
39.537629
20
190.478719
11
39.784233
21
189.733106
0
LINE
8
boundary
62
5
39
2
10
39.784233
20
189.733106
11
40.145506
21
188.657781
0
LINE
8
boundary
62
5
39
2
10
40.145506
20
188.657781
11
40.762673
21
186.842376
0
LINE
8
boundary
62
5
39
2
10
40.762673
20
186.842376
11
41.242255
21
185.454367
0
LINE
8
boundary
62
5
39
2
10
41.242255
20
185.454367
11
41.900466
21
183.538103
0
LINE
8
boundary
62
5
39
2
10
41.900466
20
183.538103
11
42.443717
21
181.980110
0
LINE
8
boundary
62
5
39
2
10
42.443717
20
181.980110
11
42.648896
21
181.396926
0
LINE
8
boundary
62
5
39
2
10
42.648896
20
181.396926
11
42.994850
21
180.417294
0
LINE
8
boundary
62
5
39
2
10
42.994850
20
180.417294
11
43.292955
21
179.578987
0
LINE
8
boundary
62
5
39
2
10
43.292955
20
179.578987
11
43.553596
21
178.849056
0
LINE
8
boundary
62
5
39
2
10
43.553596
20
178.849056
11
43.945487
21
177.757715
0
LINE
8
boundary
62
5
39
2
10
43.945487
20
177.757715
11
44.119673
21
177.274827
0
LINE
8
boundary
62
5
39
2
10
44.119673
20
177.274827
11
45.256001
21
174.152263
0
LINE
8
boundary
62
5
39
2
10
45.256001
20
174.152263
11
46.434999
21
170.905886
0
LINE
8
boundary
62
5
39
2
10
46.434999
20
170.905886
11
46.884918
21
169.674936
0
LINE
8
boundary
62
5
39
2
10
46.884918
20
169.674936
11
47.621902
21
167.669482
0
LINE
8
boundary
62
5
39
2
10
47.621902
20
167.669482
11
48.533614
21
165.194886
0
LINE
8
boundary
62
5
39
2
10
48.533614
20
165.194886
11
48.831362
21
164.391422
0
LINE
8
boundary
62
5
39
2
10
48.831362
20
164.391422
11
49.627943
21
162.240038
0
LINE
8
boundary
62
5
39
2
10
49.627943
20
162.240038
11
50.055748
21
161.066325
0
LINE
8
boundary
62
5
39
2
10
50.055748
20
161.066325
11
50.230224
21
160.585537
0
LINE
8
boundary
62
5
39
2
10
50.230224
20
160.585537
11
51.288145
21
157.688982
0
LINE
8
boundary
62
5
39
2
10
51.288145
20
157.688982
11
51.982895
21
155.772637
0
LINE
8
boundary
62
5
39
2
10
51.982895
20
155.772637
11
52.537319
21
154.253359
0
LINE
8
boundary
62
5
39
2
10
52.537319
20
154.253359
11
53.796742
21
150.766625
0
LINE
8
boundary
62
5
39
2
10
53.796742
20
150.766625
11
55.062122
21
147.184326
0
LINE
8
boundary
62
5
39
2
10
55.062122
20
147.184326
11
55.693279
21
145.369224
0
LINE
8
boundary
62
5
39
2
10
55.693279
20
145.369224
11
56.333658
21
143.539240
0
LINE
8
boundary
62
5
39
2
10
56.333658
20
143.539240
11
57.509093
21
140.120207
0
LINE
8
boundary
62
5
39
2
10
57.509093
20
140.120207
11
58.629938
21
136.768252
0
LINE
8
boundary
62
5
39
2
10
58.629938
20
136.768252
11
59.138727
21
135.216846
0
LINE
8
boundary
62
5
39
2
10
59.138727
20
135.216846
11
59.650581
21
133.665353
0
LINE
8
boundary
62
5
39
2
10
59.650581
20
133.665353
11
60.667760
21
130.521313
0
LINE
8
boundary
62
5
39
2
10
60.667760
20
130.521313
11
61.687747
21
127.272139
0
LINE
8
boundary
62
5
39
2
10
61.687747
20
127.272139
11
62.254675
21
125.428906
0
LINE
8
boundary
62
5
39
2
10
62.254675
20
125.428906
11
62.702689
21
123.978538
0
LINE
8
boundary
62
5
39
2
10
62.702689
20
123.978538
11
63.434451
21
121.565528
0
LINE
8
boundary
62
5
39
2
10
63.434451
20
121.565528
11
63.715692
21
120.624702
0
LINE
8
boundary
62
5
39
2
10
63.715692
20
120.624702
11
63.901291
21
119.994129
0
LINE
8
boundary
62
5
39
2
10
63.901291
20
119.994129
11
64.719833
21
117.221403
0
LINE
8
boundary
62
5
39
2
10
64.719833
20
117.221403
11
65.605744
21
114.179318
0
LINE
8
boundary
62
5
39
2
10
65.605744
20
114.179318
11
65.888810
21
113.203119
0
LINE
8
boundary
62
5
39
2
10
65.888810
20
113.203119
11
66.715751
21
110.291505
0
LINE
8
boundary
62
5
39
2
10
66.715751
20
110.291505
11
66.944466
21
109.477509
0
LINE
8
boundary
62
5
39
2
10
66.944466
20
109.477509
11
67.703624
21
106.784673
0
LINE
8
boundary
62
5
39
2
10
67.703624
20
106.784673
11
69.157584
21
101.575164
0
LINE
8
boundary
62
5
39
2
10
69.157584
20
101.575164
11
69.678992
21
99.709579
0
LINE
8
boundary
62
5
39
2
10
69.678992
20
99.709579
11
70.294675
21
97.491459
0
LINE
8
boundary
62
5
39
2
10
70.294675
20
97.491459
11
71.628573
21
92.639260
0
LINE
8
boundary
62
5
39
2
10
71.628573
20
92.639260
11
72.826733
21
88.299024
0
LINE
8
boundary
62
5
39
2
10
72.826733
20
88.299024
11
73.562462
21
85.627492
0
LINE
8
boundary
62
5
39
2
10
73.562462
20
85.627492
11
74.268554
21
83.083339
0
LINE
8
boundary
62
5
39
2
10
74.268554
20
83.083339
11
75.004062
21
80.448952
0
LINE
8
boundary
62
5
39
2
10
75.004062
20
80.448952
11
75.144873
21
79.951450
0
LINE
8
boundary
62
5
39
2
10
75.144873
20
79.951450
11
75.720200
21
77.902039
0
LINE
8
boundary
62
5
39
2
10
75.720200
20
77.902039
11
76.018781
21
76.853425
0
LINE
8
boundary
62
5
39
2
10
76.018781
20
76.853425
11
76.434923
21
75.379259
0
LINE
8
boundary
62
5
39
2
10
76.434923
20
75.379259
11
76.890323
21
73.790464
0
LINE
8
boundary
62
5
39
2
10
76.890323
20
73.790464
11
77.148123
21
72.882855
0
LINE
8
boundary
62
5
39
2
10
77.148123
20
72.882855
11
77.758924
21
70.767338
0
LINE
8
boundary
62
5
39
2
10
77.758924
20
70.767338
11
78.320108
21
68.832897
0
LINE
8
boundary
62
5
39
2
10
78.320108
20
68.832897
11
78.570057
21
67.985416
0
LINE
8
boundary
62
5
39
2
10
78.570057
20
67.985416
11
79.279519
21
65.603905
0
LINE
8
boundary
62
5
39
2
10
79.279519
20
65.603905
11
79.490432
21
64.910956
0
LINE
8
boundary
62
5
39
2
10
79.490432
20
64.910956
11
79.986889
21
63.258960
0
LINE
8
boundary
62
5
39
2
10
79.986889
20
63.258960
11
80.351131
21
62.074918
0
LINE
8
boundary
62
5
39
2
10
80.351131
20
62.074918
11
80.692083
21
60.952103
0
LINE
8
boundary
62
5
39
2
10
80.692083
20
60.952103
11
81.206949
21
59.297167
0
LINE
8
boundary
62
5
39
2
10
81.206949
20
59.297167
11
81.394968
21
58.684790
0
LINE
8
boundary
62
5
39
2
10
81.394968
20
58.684790
11
82.057333
21
56.580968
0
LINE
8
boundary
62
5
39
2
10
82.057333
20
56.580968
11
82.276276
21
55.891111
0
LINE
8
boundary
62
5
39
2
10
82.276276
20
55.891111
11
82.794886
21
54.290561
0
LINE
8
boundary
62
5
39
2
10
82.794886
20
54.290561
11
83.492275
21
52.172586
0
LINE
8
boundary
62
5
39
2
10
83.492275
20
52.172586
11
83.751402
21
51.406726
0
LINE
8
boundary
62
5
39
2
10
83.751402
20
51.406726
11
84.186938
21
50.099590
0
LINE
8
boundary
62
5
39
2
10
84.186938
20
50.099590
11
84.715029
21
48.547031
0
LINE
8
boundary
62
5
39
2
10
84.715029
20
48.547031
11
84.878240
21
48.065148
0
LINE
8
boundary
62
5
39
2
10
84.878240
20
48.065148
11
85.261019
21
46.956122
0
LINE
8
boundary
62
5
39
2
10
85.261019
20
46.956122
11
85.567298
21
46.085682
0
LINE
8
boundary
62
5
39
2
10
85.567298
20
46.085682
11
86.254787
21
44.161092
0
LINE
8
boundary
62
5
39
2
10
86.254787
20
44.161092
11
86.629766
21
43.137637
0
LINE
8
boundary
62
5
39
2
10
86.629766
20
43.137637
11
86.940555
21
42.281175
0
LINE
8
boundary
62
5
39
2
10
86.940555
20
42.281175
11
87.526204
21
40.712638
0
LINE
8
boundary
62
5
39
2
10
87.526204
20
40.712638
11
87.954129
21
39.581543
0
LINE
8
boundary
62
5
39
2
10
87.954129
20
39.581543
11
88.309327
21
38.659440
0
LINE
8
boundary
62
5
39
2
10
88.309327
20
38.659440
11
88.993649
21
36.922709
0
LINE
8
boundary
62
5
39
2
10
88.993649
20
36.922709
11
89.309558
21
36.144294
0
LINE
8
boundary
62
5
39
2
10
89.309558
20
36.144294
11
89.678191
21
35.228200
0
LINE
8
boundary
62
5
39
2
10
89.678191
20
35.228200
11
90.193729
21
33.987074
0
LINE
8
boundary
62
5
39
2
10
90.193729
20
33.987074
11
90.970202
21
32.155480
0
LINE
8
boundary
62
5
39
2
10
90.970202
20
32.155480
11
91.278250
21
31.441841
0
LINE
8
boundary
62
5
39
2
10
91.278250
20
31.441841
11
92.195426
21
29.391542
0
LINE
8
boundary
62
5
39
2
10
92.195426
20
29.391542
11
92.693026
21
28.324486
0
LINE
8
boundary
62
5
39
2
10
92.693026
20
28.324486
11
93.115261
21
27.414555
0
LINE
8
boundary
62
5
39
2
10
93.115261
20
27.414555
11
93.958703
21
25.675585
0
LINE
8
boundary
62
5
39
2
10
93.958703
20
25.675585
11
94.265305
21
25.062220
0
LINE
8
boundary
62
5
39
2
10
94.265305
20
25.062220
11
94.963097
21
23.692194
0
LINE
8
boundary
62
5
39
2
10
94.963097
20
23.692194
11
95.209031
21
23.231201
0
LINE
8
boundary
62
5
39
2
10
95.209031
20
23.231201
11
95.890893
21
21.951525
0
LINE
8
boundary
62
5
39
2
10
95.890893
20
21.951525
11
96.439451
21
20.970885
0
LINE
8
boundary
62
5
39
2
10
96.439451
20
20.970885
11
96.821636
21
20.287835
0
LINE
8
boundary
62
5
39
2
10
96.821636
20
20.287835
11
97.648408
21
18.884014
0
LINE
8
boundary
62
5
39
2
10
97.648408
20
18.884014
11
98.149876
21
18.069479
0
LINE
8
boundary
62
5
39
2
10
98.149876
20
18.069479
11
98.689677
21
17.205626
0
LINE
8
boundary
62
5
39
2
10
98.689677
20
17.205626
11
99.625157
21
15.796094
0
LINE
8
boundary
62
5
39
2
10
99.625157
20
15.796094
11
99.992519
21
15.274889
0
LINE
8
boundary
62
5
39
2
10
99.992519
20
15.274889
11
100.562279
21
14.473222
0
LINE
8
boundary
62
5
39
2
10
100.562279
20
14.473222
11
101.128238
21
13.726428
0
LINE
8
boundary
62
5
39
2
10
101.128238
20
13.726428
11
101.500679
21
13.240309
0
LINE
8
boundary
62
5
39
2
10
101.500679
20
13.240309
11
102.240436
21
12.340363
0
LINE
8
boundary
62
5
39
2
10
102.240436
20
12.340363
11
103.329379
21
11.113953
0
LINE
8
boundary
62
5
39
2
10
103.329379
20
11.113953
11
103.753699
21
10.685432
0
LINE
8
boundary
62
5
39
2
10
103.753699
20
10.685432
11
104.318344
21
10.122045
0
LINE
8
boundary
62
5
39
2
10
104.318344
20
10.122045
11
105.255971
21
9.292527
0
LINE
8
boundary
62
5
39
2
10
105.255971
20
9.292527
11
106.193800
21
8.571902
0
LINE
8
boundary
62
5
39
2
10
106.193800
20
8.571902
11
107.131894
21
7.964370
0
LINE
8
boundary
62
5
39
2
10
107.131894
20
7.964370
11
108.069771
21
7.473347
0
LINE
8
boundary
62
5
39
2
10
108.069771
20
7.473347
11
109.004477
21
7.098962
0
LINE
8
boundary
62
5
39
2
10
109.004477
20
7.098962
11
109.932558
21
6.840427
0
LINE
8
boundary
62
5
39
2
10
109.932558
20
6.840427
11
110.850684
21
6.696918
0
LINE
8
boundary
62
5
39
2
10
110.850684
20
6.696918
11
111.755651
21
6.667500
0
LINE
8
boundary
62
5
39
2
10
111.755651
20
6.667500
11
112.644284
21
6.751253
0
LINE
8
boundary
62
5
39
2
10
112.644284
20
6.751253
11
113.513469
21
6.947199
0
LINE
8
boundary
62
5
39
2
10
113.513469
20
6.947199
11
114.360066
21
7.254381
0
LINE
8
boundary
62
5
39
2
10
114.360066
20
7.254381
11
115.180879
21
7.671869
0
LINE
8
boundary
62
5
39
2
10
115.180879
20
7.671869
11
115.628508
21
7.969348
0
LINE
8
boundary
62
5
39
2
10
115.628508
20
7.969348
11
116.598679
21
8.735063
0
LINE
8
boundary
62
5
39
2
10
116.598679
20
8.735063
11
117.227636
21
9.368297
0
LINE
8
boundary
62
5
39
2
10
117.227636
20
9.368297
11
117.820351
21
10.072379
0
LINE
8
boundary
62
5
39
2
10
117.820351
20
10.072379
11
118.376297
21
10.844372
0
LINE
8
boundary
62
5
39
2
10
118.376297
20
10.844372
11
118.754762
21
11.427336
0
LINE
8
boundary
62
5
39
2
10
118.754762
20
11.427336
11
119.339004
21
12.503022
0
LINE
8
boundary
62
5
39
2
10
119.339004
20
12.503022
11
119.803554
21
13.549821
0
LINE
8
boundary
62
5
39
2
10
119.803554
20
13.549821
11
120.183364
21
14.578851
0
LINE
8
boundary
62
5
39
2
10
120.183364
20
14.578851
11
120.521800
21
15.664427
0
LINE
8
boundary
62
5
39
2
10
120.521800
20
15.664427
11
120.728423
21
16.405333
0
LINE
8
boundary
62
5
39
2
10
120.728423
20
16.405333
11
121.056865
21
17.923971
0
LINE
8
boundary
62
5
39
2
10
121.056865
20
17.923971
11
121.258718
21
19.258636
0
LINE
8
boundary
62
5
39
2
10
121.258718
20
19.258636
11
121.395900
21
20.568700
0
LINE
8
boundary
62
5
39
2
10
121.395900
20
20.568700
11
108.665798
21
21.047202
0
LINE
8
boundary
62
5
39
2
10
108.665798
20
21.047202
11
108.665798
21
23.793202
0
LINE
8
boundary
62
5
39
2
10
108.665798
20
23.793202
11
121.500971
21
23.793203
0
LINE
8
boundary
62
5
39
2
10
121.500971
20
23.793203
11
121.493482
21
24.823996
0
LINE
8
boundary
62
5
39
2
10
121.493482
20
24.823996
11
121.429432
21
25.931696
0
LINE
8
boundary
62
5
39
2
10
121.429432
20
25.931696
11
121.334142
21
27.247928
0
LINE
8
boundary
62
5
39
2
10
121.334142
20
27.247928
11
121.143173
21
28.898739
0
LINE
8
boundary
62
5
39
2
10
121.143173
20
28.898739
11
120.884315
21
30.616201
0
LINE
8
boundary
62
5
39
2
10
120.884315
20
30.616201
11
120.693273
21
31.657863
0
LINE
8
boundary
62
5
39
2
10
120.693273
20
31.657863
11
120.559734
21
32.400478
0
LINE
8
boundary
62
5
39
2
10
120.559734
20
32.400478
11
120.308433
21
33.598833
0
LINE
8
boundary
62
5
39
2
10
120.308433
20
33.598833
11
120.169395
21
34.250822
0
LINE
8
boundary
62
5
39
2
10
120.169395
20
34.250822
11
119.713626
21
36.165957
0
LINE
8
boundary
62
5
39
2
10
119.713626
20
36.165957
11
119.267053
21
37.867813
0
LINE
8
boundary
62
5
39
2
10
119.267053
20
37.867813
11
119.069401
21
38.590665
0
LINE
8
boundary
62
5
39
2
10
119.069401
20
38.590665
11
118.676714
21
39.969363
0
LINE
8
boundary
62
5
39
2
10
118.676714
20
39.969363
11
102.957566
21
39.969363
0
LINE
8
boundary
62
5
39
2
10
102.957566
20
39.969363
11
102.957566
21
42.715363
0
LINE
8
boundary
62
5
39
2
10
102.957566
20
42.715363
11
117.779077
21
42.715363
0
LINE
8
boundary
62
5
39
2
10
117.779077
20
42.715363
11
117.385898
21
44.117461
0
LINE
8
boundary
62
5
39
2
10
117.385898
20
44.117461
11
117.208970
21
44.653494
0
LINE
8
boundary
62
5
39
2
10
117.208970
20
44.653494
11
116.525891
21
46.671437
0
LINE
8
boundary
62
5
39
2
10
116.525891
20
46.671437
11
115.994902
21
48.169823
0
LINE
8
boundary
62
5
39
2
10
115.994902
20
48.169823
11
115.721895
21
48.945483
0
LINE
8
boundary
62
5
39
2
10
115.721895
20
48.945483
11
115.206031
21
50.353061
0
LINE
8
boundary
62
5
39
2
10
115.206031
20
50.353061
11
114.869508
21
51.270375
0
LINE
8
boundary
62
5
39
2
10
114.869508
20
51.270375
11
114.687754
21
51.749025
0
LINE
8
boundary
62
5
39
2
10
114.687754
20
51.749025
11
113.973508
21
53.640265
0
LINE
8
boundary
62
5
39
2
10
113.973508
20
53.640265
11
113.308265
21
55.348829
0
LINE
8
boundary
62
5
39
2
10
113.308265
20
55.348829
11
113.032230
21
56.061403
0
LINE
8
boundary
62
5
39
2
10
113.032230
20
56.061403
11
112.446523
21
57.533104
0
LINE
8
boundary
62
5
39
2
10
112.446523
20
57.533104
11
112.052331
21
58.524639
0
LINE
8
boundary
62
5
39
2
10
112.052331
20
58.524639
11
96.215591
21
58.891524
0
LINE
8
boundary
62
5
39
2
10
96.215591
20
58.891524
11
96.215591
21
61.637524
0
LINE
8
boundary
62
5
39
2
10
96.215591
20
61.637524
11
110.712167
21
61.637524
0
LINE
8
boundary
62
5
39
2
10
110.712167
20
61.637524
11
109.818071
21
63.968488
0
LINE
8
boundary
62
5
39
2
10
109.818071
20
63.968488
11
109.452773
21
64.852067
0
LINE
8
boundary
62
5
39
2
10
109.452773
20
64.852067
11
108.969247
21
65.995908
0
LINE
8
boundary
62
5
39
2
10
108.969247
20
65.995908
11
107.805679
21
68.750748
0
LINE
8
boundary
62
5
39
2
10
107.805679
20
68.750748
11
107.009512
21
70.603989
0
LINE
8
boundary
62
5
39
2
10
107.009512
20
70.603989
11
106.102851
21
72.719670
0
LINE
8
boundary
62
5
39
2
10
106.102851
20
72.719670
11
104.592685
21
76.198265
0
LINE
8
boundary
62
5
39
2
10
104.592685
20
76.198265
11
104.351915
21
76.753258
0
LINE
8
boundary
62
5
39
2
10
104.351915
20
76.753258
11
103.888496
21
77.813685
0
LINE
8
boundary
62
5
39
2
10
103.888496
20
77.813685
11
89.386579
21
77.813685
0
LINE
8
boundary
62
5
39
2
10
89.386579
20
77.813685
11
89.386579
21
80.559685
0
LINE
8
boundary
62
5
39
2
10
89.386579
20
80.559685
11
102.613371
21
80.559685
0
LINE
8
boundary
62
5
39
2
10
102.613371
20
80.559685
11
101.547555
21
83.160757
0
LINE
8
boundary
62
5
39
2
10
101.547555
20
83.160757
11
100.764653
21
84.947245
0
LINE
8
boundary
62
5
39
2
10
100.764653
20
84.947245
11
99.001289
21
88.962015
0
LINE
8
boundary
62
5
39
2
10
99.001289
20
88.962015
11
97.111893
21
93.278075
0
LINE
8
boundary
62
5
39
2
10
97.111893
20
93.278075
11
96.430036
21
94.842230
0
LINE
8
boundary
62
5
39
2
10
96.430036
20
94.842230
11
95.671471
21
96.585847
0
LINE
8
boundary
62
5
39
2
10
95.671471
20
96.585847
11
82.632382
21
96.735846
0
LINE
8
boundary
62
5
39
2
10
82.632382
20
96.735846
11
82.632382
21
99.481846
0
LINE
8
boundary
62
5
39
2
10
82.632382
20
99.481846
11
94.342768
21
99.481846
0
LINE
8
boundary
62
5
39
2
10
94.342768
20
99.481846
11
94.024169
21
100.393323
0
LINE
8
boundary
62
5
39
2
10
94.024169
20
100.393323
11
93.471561
21
101.675237
0
LINE
8
boundary
62
5
39
2
10
93.471561
20
101.675237
11
91.709979
21
105.804748
0
LINE
8
boundary
62
5
39
2
10
91.709979
20
105.804748
11
89.913252
21
110.077881
0
LINE
8
boundary
62
5
39
2
10
89.913252
20
110.077881
11
89.543609
21
110.968652
0
LINE
8
boundary
62
5
39
2
10
89.543609
20
110.968652
11
88.176826
21
114.269397
0
LINE
8
boundary
62
5
39
2
10
88.176826
20
114.269397
11
87.670700
21
115.508007
0
LINE
8
boundary
62
5
39
2
10
87.670700
20
115.508007
11
76.000262
21
115.658007
0
LINE
8
boundary
62
5
39
2
10
76.000262
20
115.658007
11
76.000261
21
118.404007
0
LINE
8
boundary
62
5
39
2
10
76.000261
20
118.404007
11
86.418369
21
118.404007
0
LINE
8
boundary
62
5
39
2
10
86.418369
20
118.404007
11
85.440299
21
121.010970
0
LINE
8
boundary
62
5
39
2
10
85.440299
20
121.010970
11
84.784679
21
122.643925
0
LINE
8
boundary
62
5
39
2
10
84.784679
20
122.643925
11
83.480521
21
125.937900
0
LINE
8
boundary
62
5
39
2
10
83.480521
20
125.937900
11
83.129378
21
126.826407
0
LINE
8
boundary
62
5
39
2
10
83.129378
20
126.826407
11
81.571808
21
130.824452
0
LINE
8
boundary
62
5
39
2
10
81.571808
20
130.824452
11
81.084388
21
132.093553
0
LINE
8
boundary
62
5
39
2
10
81.084388
20
132.093553
11
80.130753
21
134.580168
0
LINE
8
boundary
62
5
39
2
10
80.130753
20
134.580168
11
69.374549
21
134.580168
0
LINE
8
boundary
62
5
39
2
10
69.374549
20
134.580168
11
69.374549
21
137.326168
0
LINE
8
boundary
62
5
39
2
10
69.374549
20
137.326168
11
79.023857
21
137.326168
0
LINE
8
boundary
62
5
39
2
10
79.023857
20
137.326168
11
78.330396
21
139.341746
0
LINE
8
boundary
62
5
39
2
10
78.330396
20
139.341746
11
77.920870
21
140.443367
0
LINE
8
boundary
62
5
39
2
10
77.920870
20
140.443367
11
76.785335
21
143.504159
0
LINE
8
boundary
62
5
39
2
10
76.785335
20
143.504159
11
76.148360
21
145.247044
0
LINE
8
boundary
62
5
39
2
10
76.148360
20
145.247044
11
75.267152
21
147.662712
0
LINE
8
boundary
62
5
39
2
10
75.267152
20
147.662712
11
74.403567
21
150.066681
0
LINE
8
boundary
62
5
39
2
10
74.403567
20
150.066681
11
73.775960
21
151.816718
0
LINE
8
boundary
62
5
39
2
10
73.775960
20
151.816718
11
73.180883
21
153.502329
0
LINE
8
boundary
62
5
39
2
10
73.180883
20
153.502329
11
62.642179
21
153.502329
0
LINE
8
boundary
62
5
39
2
10
62.642179
20
153.502329
11
62.642179
21
156.248329
0
LINE
8
boundary
62
5
39
2
10
62.642179
20
156.248329
11
72.151423
21
156.248329
0
LINE
8
boundary
62
5
39
2
10
72.151423
20
156.248329
11
70.982826
21
159.796912
0
LINE
8
boundary
62
5
39
2
10
70.982826
20
159.796912
11
70.327037
21
161.716230
0
LINE
8
boundary
62
5
39
2
10
70.327037
20
161.716230
11
69.465468
21
164.239160
0
LINE
8
boundary
62
5
39
2
10
69.465468
20
164.239160
11
68.082377
21
168.360777
0
LINE
8
boundary
62
5
39
2
10
68.082377
20
168.360777
11
67.649111
21
169.673632
0
LINE
8
boundary
62
5
39
2
10
67.649111
20
169.673632
11
66.742520
21
172.424490
0
LINE
8
boundary
62
5
39
2
10
66.742520
20
172.424490
11
55.978776
21
172.424489
0
LINE
8
boundary
62
5
39
2
10
55.978776
20
172.424489
11
55.978776
21
175.170490
0
LINE
8
boundary
62
5
39
2
10
55.978776
20
175.170490
11
65.792082
21
175.170490
0
LINE
8
boundary
62
5
39
2
10
65.792082
20
175.170490
11
65.665564
21
175.744656
0
LINE
8
boundary
62
5
39
2
10
65.665564
20
175.744656
11
65.398760
21
176.572782
0
LINE
8
boundary
62
5
39
2
10
65.398760
20
176.572782
11
64.935744
21
178.021591
0
LINE
8
boundary
62
5
39
2
10
64.935744
20
178.021591
11
64.745367
21
178.617927
0
LINE
8
boundary
62
5
39
2
10
64.745367
20
178.617927
11
64.210959
21
180.305792
0
LINE
8
boundary
62
5
39
2
10
64.210959
20
180.305792
11
63.491140
21
182.597706
0
LINE
8
boundary
62
5
39
2
10
63.491140
20
182.597706
11
63.224355
21
183.455470
0
LINE
8
boundary
62
5
39
2
10
63.224355
20
183.455470
11
62.826560
21
184.729840
0
LINE
8
boundary
62
5
39
2
10
62.826560
20
184.729840
11
62.199229
21
186.758138
0
LINE
8
boundary
62
5
39
2
10
62.199229
20
186.758138
11
61.579023
21
188.782083
0
LINE
8
boundary
62
5
39
2
10
61.579023
20
188.782083
11
61.357346
21
189.512163
0
LINE
8
boundary
62
5
39
2
10
61.357346
20
189.512163
11
60.966025
21
190.801396
0
LINE
8
boundary
62
5
39
2
10
60.966025
20
190.801396
11
60.802067
21
191.346650
0
LINE
8
boundary
62
5
39
2
10
60.802067
20
191.346650
11
49.711996
21
191.346651
0
LINE
8
boundary
62
5
39
2
10
49.711996
20
191.346651
11
49.711996
21
194.092651
0
LINE
8
boundary
62
5
39
2
10
49.711996
20
194.092651
11
59.925392
21
194.092651
0
LINE
8
boundary
62
5
39
2
10
59.925392
20
194.092651
11
59.696099
21
195.047648
0
LINE
8
boundary
62
5
39
2
10
59.696099
20
195.047648
11
59.117197
21
197.014641
0
LINE
8
boundary
62
5
39
2
10
59.117197
20
197.014641
11
58.679094
21
198.517199
0
LINE
8
boundary
62
5
39
2
10
58.679094
20
198.517199
11
58.393606
21
199.490812
0
LINE
8
boundary
62
5
39
2
10
58.393606
20
199.490812
11
57.752437
21
201.702571
0
LINE
8
boundary
62
5
39
2
10
57.752437
20
201.702571
11
57.555448
21
202.390937
0
LINE
8
boundary
62
5
39
2
10
57.555448
20
202.390937
11
57.120966
21
203.907115
0
LINE
8
boundary
62
5
39
2
10
57.120966
20
203.907115
11
56.782008
21
205.106187
0
LINE
8
boundary
62
5
39
2
10
56.782008
20
205.106187
11
56.499400
21
206.104233
0
LINE
8
boundary
62
5
39
2
10
56.499400
20
206.104233
11
56.015136
21
207.839036
0
LINE
8
boundary
62
5
39
2
10
56.015136
20
207.839036
11
55.406537
21
210.040788
0
LINE
8
boundary
62
5
39
2
10
55.406537
20
210.040788
11
44.177172
21
210.268812
0
LINE
8
boundary
62
5
39
2
10
44.177172
20
210.268812
11
44.177172
21
213.014812
0
LINE
8
boundary
62
5
39
2
10
44.177172
20
213.014812
11
54.538399
21
213.014812
0
LINE
8
boundary
62
5
39
2
10
54.538399
20
213.014812
11
54.098701
21
214.824791
0
LINE
8
boundary
62
5
39
2
10
54.098701
20
214.824791
11
53.740949
21
216.167309
0
LINE
8
boundary
62
5
39
2
10
53.740949
20
216.167309
11
53.521329
21
216.988416
0
LINE
8
boundary
62
5
39
2
10
53.521329
20
216.988416
11
52.997280
21
218.983969
0
LINE
8
boundary
62
5
39
2
10
52.997280
20
218.983969
11
52.823809
21
219.651458
0
LINE
8
boundary
62
5
39
2
10
52.823809
20
219.651458
11
52.391586
21
221.299579
0
LINE
8
boundary
62
5
39
2
10
52.391586
20
221.299579
11
52.253230
21
221.838120
0
LINE
8
boundary
62
5
39
2
10
52.253230
20
221.838120
11
51.836901
21
223.450123
0
LINE
8
boundary
62
5
39
2
10
51.836901
20
223.450123
11
50.846454
21
227.396587
0
LINE
8
boundary
62
5
39
2
10
50.846454
20
227.396587
11
50.690258
21
228.027588
0
LINE
8
boundary
62
5
39
2
10
50.690258
20
228.027588
11
50.403898
21
229.190973
0
LINE
8
boundary
62
5
39
2
10
50.403898
20
229.190973
11
39.085157
21
229.190973
0
LINE
8
boundary
62
5
39
2
10
39.085157
20
229.190973
11
39.085157
21
231.936972
0
LINE
8
boundary
62
5
39
2
10
39.085157
20
231.936972
11
49.681463
21
231.936973
0
LINE
8
boundary
62
5
39
2
10
49.681463
20
231.936973
11
48.879447
21
235.524322
0
LINE
8
boundary
62
5
39
2
10
48.879447
20
235.524322
11
48.695461
21
236.289238
0
LINE
8
boundary
62
5
39
2
10
48.695461
20
236.289238
11
48.412907
21
237.515941
0
LINE
8
boundary
62
5
39
2
10
48.412907
20
237.515941
11
47.704396
21
240.577253
0
LINE
8
boundary
62
5
39
2
10
47.704396
20
240.577253
11
47.308585
21
242.367661
0
LINE
8
boundary
62
5
39
2
10
47.308585
20
242.367661
11
46.740431
21
244.882783
0
LINE
8
boundary
62
5
39
2
10
46.740431
20
244.882783
11
46.044842
21
248.113133
0
LINE
8
boundary
62
5
39
2
10
46.044842
20
248.113133
11
34.178664
21
248.113133
0
LINE
8
boundary
62
5
39
2
10
34.178664
20
248.113133
11
34.178664
21
250.859133
0
LINE
8
boundary
62
5
39
2
10
34.178664
20
250.859133
11
45.418772
21
250.859134
0
LINE
8
boundary
62
5
39
2
10
45.418772
20
250.859134
11
45.280563
21
251.716334
0
LINE
8
boundary
62
5
39
2
10
45.280563
20
251.716334
11
44.884017
21
253.589415
0
LINE
8
boundary
62
5
39
2
10
44.884017
20
253.589415
11
44.671553
21
254.636518
0
LINE
8
boundary
62
5
39
2
10
44.671553
20
254.636518
11
44.291587
21
256.492383
0
LINE
8
boundary
62
5
39
2
10
44.291587
20
256.492383
11
44.090104
21
257.471377
0
LINE
8
boundary
62
5
39
2
10
44.090104
20
257.471377
11
43.974740
21
258.026356
0
LINE
8
boundary
62
5
39
2
10
43.974740
20
258.026356
11
43.536193
21
260.227232
0
LINE
8
boundary
62
5
39
2
10
43.536193
20
260.227232
11
43.068657
21
262.541362
0
LINE
8
boundary
62
5
39
2
10
43.068657
20
262.541362
11
42.895134
21
263.442373
0
LINE
8
boundary
62
5
39
2
10
42.895134
20
263.442373
11
42.666916
21
264.609792
0
LINE
8
boundary
62
5
39
2
10
42.666916
20
264.609792
11
42.281998
21
266.560031
0
LINE
8
boundary
62
5
39
2
10
42.281998
20
266.560031
11
29.481604
21
267.035294
0
LINE
8
boundary
62
5
39
2
10
29.481604
20
267.035294
11
29.481604
21
269.781294
0
LINE
8
boundary
62
5
39
2
10
29.481604
20
269.781294
11
41.611858
21
269.781294
0
LINE
8
boundary
62
5
39
2
10
41.611858
20
269.781294
11
41.374914
21
271.202172
0
LINE
8
boundary
62
5
39
2
10
41.374914
20
271.202172
11
41.112988
21
272.532216
0
LINE
8
boundary
62
5
39
2
10
41.112988
20
272.532216
11
40.858965
21
273.796360
0
LINE
8
boundary
62
5
39
2
10
40.858965
20
273.796360
11
40.552677
21
275.394271
0
LINE
8
boundary
62
5
39
2
10
40.552677
20
275.394271
11
40.272812
21
276.822840
0
LINE
8
boundary
62
5
39
2
10
40.272812
20
276.822840
11
40.004069
21
278.173961
0
LINE
8
boundary
62
5
39
2
10
40.004069
20
278.173961
11
39.690469
21
279.717768
0
LINE
8
boundary
62
5
39
2
10
39.690469
20
279.717768
11
39.464747
21
280.875578
0
LINE
8
boundary
62
5
39
2
10
39.464747
20
280.875578
11
39.290803
21
281.751494
0
LINE
8
boundary
62
5
39
2
10
39.290803
20
281.751494
11
38.936732
21
283.501613
0
LINE
8
boundary
62
5
39
2
10
38.936732
20
283.501613
11
38.451789
21
285.859938
0
LINE
8
boundary
62
5
39
2
10
38.451789
20
285.859938
11
25.214079
21
285.957455
0
LINE
8
boundary
62
5
39
2
10
25.214079
20
285.957455
11
25.214078
21
288.703455
0
LINE
8
boundary
62
5
39
2
10
25.214078
20
288.703455
11
37.824202
21
288.703455
0
LINE
8
boundary
62
5
39
2
10
37.824202
20
288.703455
11
37.561088
21
290.162141
0
LINE
8
boundary
62
5
39
2
10
37.561088
20
290.162141
11
37.396533
21
290.931569
0
LINE
8
boundary
62
5
39
2
10
37.396533
20
290.931569
11
37.121046
21
292.207581
0
LINE
8
boundary
62
5
39
2
10
37.121046
20
292.207581
11
36.897436
21
293.264109
0
LINE
8
boundary
62
5
39
2
10
36.897436
20
293.264109
11
36.775826
21
293.835065
0
LINE
8
boundary
62
5
39
2
10
36.775826
20
293.835065
11
36.405987
21
295.525479
0
LINE
8
boundary
62
5
39
2
10
36.405987
20
295.525479
11
36.031767
21
297.227305
0
LINE
8
boundary
62
5
39
2
10
36.031767
20
297.227305
11
35.700338
21
298.689413
0
LINE
8
boundary
62
5
39
2
10
35.700338
20
298.689413
11
35.440838
21
299.844570
0
LINE
8
boundary
62
5
39
2
10
35.440838
20
299.844570
11
35.320813
21
300.377933
0
LINE
8
boundary
62
5
39
2
10
35.320813
20
300.377933
11
34.967312
21
301.901635
0
LINE
8
boundary
62
5
39
2
10
34.967312
20
301.901635
11
34.453056
21
304.098936
0
LINE
8
boundary
62
5
39
2
10
34.453056
20
304.098936
11
34.264131
21
304.879616
0
LINE
8
boundary
62
5
39
2
10
34.264131
20
304.879616
11
21.171945
21
304.879616
0
LINE
8
boundary
62
5
39
2
10
21.171945
20
304.879616
11
21.171944
21
307.625616
0
LINE
8
boundary
62
5
39
2
10
21.171944
20
307.625616
11
33.546996
21
307.625616
0
LINE
8
boundary
62
5
39
2
10
33.546996
20
307.625616
11
33.451213
21
308.205201
0
LINE
8
boundary
62
5
39
2
10
33.451213
20
308.205201
11
33.125422
21
309.488183
0
LINE
8
boundary
62
5
39
2
10
33.125422
20
309.488183
11
32.587307
21
311.571623
0
LINE
8
boundary
62
5
39
2
10
32.587307
20
311.571623
11
32.082634
21
313.454261
0
LINE
8
boundary
62
5
39
2
10
32.082634
20
313.454261
11
31.746653
21
314.676637
0
LINE
8
boundary
62
5
39
2
10
31.746653
20
314.676637
11
31.479835
21
315.620223
0
LINE
8
boundary
62
5
39
2
10
31.479835
20
315.620223
11
31.200750
21
316.591704
0
LINE
8
boundary
62
5
39
2
10
31.200750
20
316.591704
11
31.022396
21
317.198709
0
LINE
8
boundary
62
5
39
2
10
31.022396
20
317.198709
11
30.762163
21
318.071041
0
LINE
8
boundary
62
5
39
2
10
30.762163
20
318.071041
11
30.351308
21
319.415537
0
LINE
8
boundary
62
5
39
2
10
30.351308
20
319.415537
11
29.887370
21
320.856231
0
LINE
8
boundary
62
5
39
2
10
29.887370
20
320.856231
11
29.601936
21
321.713562
0
LINE
8
boundary
62
5
39
2
10
29.601936
20
321.713562
11
29.201521
21
322.877940
0
LINE
8
boundary
62
5
39
2
10
29.201521
20
322.877940
11
29.011334
21
323.412524
0
LINE
8
boundary
62
5
39
2
10
29.011334
20
323.412524
11
17.945366
21
323.801777
0
LINE
8
boundary
62
5
39
2
10
17.945366
20
323.801777
11
17.945366
21
326.547777
0
LINE
8
boundary
62
5
39
2
10
17.945366
20
326.547777
11
27.709997
21
326.547777
0
LINE
8
boundary
62
5
39
2
10
27.709997
20
326.547777
11
27.297594
21
327.651265
0
LINE
8
boundary
62
5
39
2
10
27.297594
20
327.651265
11
26.300189
21
329.680515
0
LINE
8
boundary
62
5
39
2
10
26.300189
20
329.680515
11
25.358427
21
331.323969
0
LINE
8
boundary
62
5
39
2
10
25.358427
20
331.323969
11
24.951286
21
331.944552
0
LINE
8
boundary
62
5
39
2
10
24.951286
20
331.944552
11
24.550527
21
332.525495
0
LINE
8
boundary
62
5
39
2
10
24.550527
20
332.525495
11
24.140165
21
333.077220
0
LINE
8
boundary
62
5
39
2
10
24.140165
20
333.077220
11
23.718007
21
333.588283
0
LINE
8
boundary
62
5
39
2
10
23.718007
20
333.588283
11
23.287406
21
334.077228
0
LINE
8
boundary
62
5
39
2
10
23.287406
20
334.077228
11
22.845998
21
334.528106
0
LINE
8
boundary
62
5
39
2
10
22.845998
20
334.528106
11
22.394510
21
334.943097
0
LINE
8
boundary
62
5
39
2
10
22.394510
20
334.943097
11
21.934097
21
335.335425
0
LINE
8
boundary
62
5
39
2
10
21.934097
20
335.335425
11
21.463914
21
335.688646
0
LINE
8
boundary
62
5
39
2
10
21.463914
20
335.688646
11
20.985591
21
336.007201
0
LINE
8
boundary
62
5
39
2
10
20.985591
20
336.007201
11
20.499190
21
336.302569
0
LINE
8
boundary
62
5
39
2
10
20.499190
20
336.302569
11
20.005790
21
336.558216
0
LINE
8
boundary
62
5
39
2
10
20.005790
20
336.558216
11
19.506658
21
336.773000
0
LINE
8
boundary
62
5
39
2
10
19.506658
20
336.773000
11
19.000388
21
336.962465
0
LINE
8
boundary
62
5
39
2
10
19.000388
20
336.962465
11
18.488418
21
337.116947
0
LINE
8
boundary
62
5
39
2
10
18.488418
20
337.116947
11
17.974380
21
337.221668
0
LINE
8
boundary
62
5
39
2
10
17.974380
20
337.221668
11
17.454446
21
337.300373
0
LINE
8
boundary
62
5
39
2
10
17.454446
20
337.300373
11
16.928924
21
337.351115
0
LINE
8
boundary
62
5
39
2
10
16.928924
20
337.351115
11
16.324990
21
337.351389
0
LINE
8
boundary
62
5
39
2
10
16.324990
20
337.351389
11
16.067905
21
337.331477
0
LINE
8
annotation
62
1
39
211
10
101.472299
20
21.084444
11
101.472299
21
21.084444
0
LINE
8
annotation
62
1
39
211
10
101.472299
20
21.084444
11
101.489508
21
20.892792
0
LINE
8
annotation
62
1
39
211
10
101.489508
20
20.892792
11
101.539110
21
20.712543
0
LINE
8
annotation
62
1
39
211
10
101.539110
20
20.712543
11
101.618069
21
20.546674
0
LINE
8
annotation
62
1
39
211
10
101.618069
20
20.546674
11
101.723345
21
20.398159
0
LINE
8
annotation
62
1
39
211
10
101.723345
20
20.398159
11
101.851903
21
20.269975
0
LINE
8
annotation
62
1
39
211
10
101.851903
20
20.269975
11
102.000704
21
20.165097
0
LINE
8
annotation
62
1
39
211
10
102.000704
20
20.165097
11
102.166712
21
20.086500
0
LINE
8
annotation
62
1
39
211
10
102.166712
20
20.086500
11
102.346888
21
20.037160
0
LINE
8
annotation
62
1
39
211
10
102.346888
20
20.037160
11
102.538196
21
20.020052
0
LINE
8
annotation
62
1
39
211
10
102.538196
20
20.020052
11
102.538196
21
20.020052
0
LINE
8
annotation
62
1
39
211
10
102.538196
20
20.020052
11
102.729504
21
20.037160
0
LINE
8
annotation
62
1
39
211
10
102.729504
20
20.037160
11
102.909681
21
20.086500
0
LINE
8
annotation
62
1
39
211
10
102.909681
20
20.086500
11
103.075688
21
20.165097
0
LINE
8
annotation
62
1
39
211
10
103.075688
20
20.165097
11
103.224489
21
20.269975
0
LINE
8
annotation
62
1
39
211
10
103.224489
20
20.269975
11
103.353047
21
20.398159
0
LINE
8
annotation
62
1
39
211
10
103.353047
20
20.398159
11
103.458324
21
20.546674
0
LINE
8
annotation
62
1
39
211
10
103.458324
20
20.546674
11
103.537282
21
20.712543
0
LINE
8
annotation
62
1
39
211
10
103.537282
20
20.712543
11
103.586885
21
20.892792
0
LINE
8
annotation
62
1
39
211
10
103.586885
20
20.892792
11
103.604094
21
21.084444
0
LINE
8
annotation
62
1
39
211
10
103.604094
20
21.084444
11
103.604094
21
21.615436
0
LINE
8
annotation
62
1
39
211
10
103.604094
20
21.615436
11
103.604094
21
21.615436
0
LINE
8
annotation
62
1
39
211
10
103.604094
20
21.615436
11
103.586894
21
21.807182
0
LINE
8
annotation
62
1
39
211
10
103.586894
20
21.807182
11
103.537317
21
21.987680
0
LINE
8
annotation
62
1
39
211
10
103.537317
20
21.987680
11
103.458391
21
22.153909
0
LINE
8
annotation
62
1
39
211
10
103.458391
20
22.153909
11
103.353146
21
22.302851
0
LINE
8
annotation
62
1
39
211
10
103.353146
20
22.302851
11
103.224613
21
22.431485
0
LINE
8
annotation
62
1
39
211
10
103.224613
20
22.431485
11
103.075822
21
22.536790
0
LINE
8
annotation
62
1
39
211
10
103.075822
20
22.536790
11
102.909802
21
22.615748
0
LINE
8
annotation
62
1
39
211
10
102.909802
20
22.615748
11
102.729583
21
22.665337
0
LINE
8
annotation
62
1
39
211
10
102.729583
20
22.665337
11
102.538196
21
22.682538
0
LINE
8
annotation
62
1
39
211
10
102.538196
20
22.682538
11
102.538196
21
22.682538
0
LINE
8
annotation
62
1
39
211
10
102.538196
20
22.682538
11
102.346809
21
22.665327
0
LINE
8
annotation
62
1
39
211
10
102.346809
20
22.665327
11
102.166591
21
22.615713
0
LINE
8
annotation
62
1
39
211
10
102.166591
20
22.615713
11
102.000571
21
22.536724
0
LINE
8
annotation
62
1
39
211
10
102.000571
20
22.536724
11
101.851779
21
22.431386
0
LINE
8
annotation
62
1
39
211
10
101.851779
20
22.431386
11
101.723246
21
22.302727
0
LINE
8
annotation
62
1
39
211
10
101.723246
20
22.302727
11
101.618002
21
22.153776
0
LINE
8
annotation
62
1
39
211
10
101.618002
20
22.153776
11
101.539076
21
21.987558
0
LINE
8
annotation
62
1
39
211
10
101.539076
20
21.987558
11
101.489498
21
21.807103
0
LINE
8
annotation
62
1
39
211
10
101.489498
20
21.807103
11
101.472299
21
21.615436
0
LINE
8
annotation
62
1
39
211
10
101.472299
20
21.615436
11
101.472299
21
21.084444
0
LINE
8
annotation
62
1
39
211
10
103.604094
20
23.749940
11
103.604094
21
23.749940
0
LINE
8
annotation
62
1
39
211
10
103.604094
20
23.749940
11
103.586894
21
23.940800
0
LINE
8
annotation
62
1
39
211
10
103.586894
20
23.940800
11
103.537317
21
24.120628
0
LINE
8
annotation
62
1
39
211
10
103.537317
20
24.120628
11
103.458391
21
24.286373
0
LINE
8
annotation
62
1
39
211
10
103.458391
20
24.286373
11
103.353146
21
24.434987
0
LINE
8
annotation
62
1
39
211
10
103.353146
20
24.434987
11
103.224613
21
24.563418
0
LINE
8
annotation
62
1
39
211
10
103.224613
20
24.563418
11
103.075822
21
24.668619
0
LINE
8
annotation
62
1
39
211
10
103.075822
20
24.668619
11
102.909802
21
24.747538
0
LINE
8
annotation
62
1
39
211
10
102.909802
20
24.747538
11
102.729583
21
24.797126
0
LINE
8
annotation
62
1
39
211
10
102.729583
20
24.797126
11
102.538196
21
24.814333
0
LINE
8
annotation
62
1
39
211
10
102.538196
20
24.814333
11
102.538196
21
24.814333
0
LINE
8
annotation
62
1
39
211
10
102.538196
20
24.814333
11
102.346809
21
24.797126
0
LINE
8
annotation
62
1
39
211
10
102.346809
20
24.797126
11
102.166591
21
24.747538
0
LINE
8
annotation
62
1
39
211
10
102.166591
20
24.747538
11
102.000571
21
24.668619
0
LINE
8
annotation
62
1
39
211
10
102.000571
20
24.668619
11
101.851779
21
24.563418
0
LINE
8
annotation
62
1
39
211
10
101.851779
20
24.563418
11
101.723246
21
24.434987
0
LINE
8
annotation
62
1
39
211
10
101.723246
20
24.434987
11
101.618002
21
24.286373
0
LINE
8
annotation
62
1
39
211
10
101.618002
20
24.286373
11
101.539076
21
24.120628
0
LINE
8
annotation
62
1
39
211
10
101.539076
20
24.120628
11
101.489498
21
23.940800
0
LINE
8
annotation
62
1
39
211
10
101.489498
20
23.940800
11
101.472299
21
23.749940
0
LINE
8
annotation
62
1
39
211
10
101.472299
20
23.749940
11
101.472299
21
23.749940
0
LINE
8
annotation
62
1
39
211
10
101.472299
20
23.749940
11
101.489508
21
23.558185
0
LINE
8
annotation
62
1
39
211
10
101.489508
20
23.558185
11
101.539110
21
23.377659
0
LINE
8
annotation
62
1
39
211
10
101.539110
20
23.377659
11
101.618069
21
23.211389
0
LINE
8
annotation
62
1
39
211
10
101.618069
20
23.211389
11
101.723345
21
23.062400
0
LINE
8
annotation
62
1
39
211
10
101.723345
20
23.062400
11
101.851903
21
22.933716
0
LINE
8
annotation
62
1
39
211
10
101.851903
20
22.933716
11
102.000704
21
22.828363
0
LINE
8
annotation
62
1
39
211
10
102.000704
20
22.828363
11
102.166712
21
22.749366
0
LINE
8
annotation
62
1
39
211
10
102.166712
20
22.749366
11
102.346888
21
22.699749
0
LINE
8
annotation
62
1
39
211
10
102.346888
20
22.699749
11
102.538196
21
22.682538
0
LINE
8
annotation
62
1
39
211
10
102.538196
20
22.682538
11
102.538196
21
22.682538
0
LINE
8
annotation
62
1
39
211
10
102.538196
20
22.682538
11
102.729504
21
22.699749
0
LINE
8
annotation
62
1
39
211
10
102.729504
20
22.699749
11
102.909681
21
22.749366
0
LINE
8
annotation
62
1
39
211
10
102.909681
20
22.749366
11
103.075688
21
22.828363
0
LINE
8
annotation
62
1
39
211
10
103.075688
20
22.828363
11
103.224489
21
22.933716
0
LINE
8
annotation
62
1
39
211
10
103.224489
20
22.933716
11
103.353047
21
23.062400
0
LINE
8
annotation
62
1
39
211
10
103.353047
20
23.062400
11
103.458324
21
23.211389
0
LINE
8
annotation
62
1
39
211
10
103.458324
20
23.211389
11
103.537282
21
23.377659
0
LINE
8
annotation
62
1
39
211
10
103.537282
20
23.377659
11
103.586885
21
23.558185
0
LINE
8
annotation
62
1
39
211
10
103.586885
20
23.558185
11
103.604094
21
23.749940
0
LINE
8
annotation
62
1
39
211
10
96.296263
20
38.942363
11
96.296263
21
38.942363
0
LINE
8
annotation
62
1
39
211
10
96.296263
20
38.942363
11
96.601078
21
39.055953
0
LINE
8
annotation
62
1
39
211
10
96.601078
20
39.055953
11
96.880860
21
39.209489
0
LINE
8
annotation
62
1
39
211
10
96.880860
20
39.209489
11
97.132719
21
39.399060
0
LINE
8
annotation
62
1
39
211
10
97.132719
20
39.399060
11
97.353763
21
39.620755
0
LINE
8
annotation
62
1
39
211
10
97.353763
20
39.620755
11
97.541100
21
39.870661
0
LINE
8
annotation
62
1
39
211
10
97.541100
20
39.870661
11
97.691839
21
40.144866
0
LINE
8
annotation
62
1
39
211
10
97.691839
20
40.144866
11
97.803090
21
40.439459
0
LINE
8
annotation
62
1
39
211
10
97.803090
20
40.439459
11
97.871961
21
40.750527
0
LINE
8
annotation
62
1
39
211
10
97.871961
20
40.750527
11
97.895560
21
41.074158
0
LINE
8
annotation
62
1
39
211
10
97.895560
20
41.074158
11
97.895560
21
42.674961
0
LINE
8
annotation
62
1
39
211
10
97.895560
20
42.674961
11
97.895560
21
42.674961
0
LINE
8
annotation
62
1
39
211
10
97.895560
20
42.674961
11
97.878401
21
42.866717
0
LINE
8
annotation
62
1
39
211
10
97.878401
20
42.866717
11
97.828922
21
43.047242
0
LINE
8
annotation
62
1
39
211
10
97.828922
20
43.047242
11
97.750125
21
43.213512
0
LINE
8
annotation
62
1
39
211
10
97.750125
20
43.213512
11
97.645009
21
43.362501
0
LINE
8
annotation
62
1
39
211
10
97.645009
20
43.362501
11
97.516575
21
43.491185
0
LINE
8
annotation
62
1
39
211
10
97.516575
20
43.491185
11
97.367824
21
43.596538
0
LINE
8
annotation
62
1
39
211
10
97.367824
20
43.596538
11
97.201754
21
43.675535
0
LINE
8
annotation
62
1
39
211
10
97.201754
20
43.675535
11
97.021367
21
43.725152
0
LINE
8
annotation
62
1
39
211
10
97.021367
20
43.725152
11
96.829663
21
43.742363
0
LINE
8
annotation
62
1
39
211
10
96.829663
20
43.742363
11
96.829663
21
43.742363
0
LINE
8
annotation
62
1
39
211
10
96.829663
20
43.742363
11
96.638355
21
43.725152
0
LINE
8
annotation
62
1
39
211
10
96.638355
20
43.725152
11
96.458179
21
43.675535
0
LINE
8
annotation
62
1
39
211
10
96.458179
20
43.675535
11
96.292171
21
43.596538
0
LINE
8
annotation
62
1
39
211
10
96.292171
20
43.596538
11
96.143370
21
43.491185
0
LINE
8
annotation
62
1
39
211
10
96.143370
20
43.491185
11
96.014812
21
43.362501
0
LINE
8
annotation
62
1
39
211
10
96.014812
20
43.362501
11
95.909535
21
43.213512
0
LINE
8
annotation
62
1
39
211
10
95.909535
20
43.213512
11
95.830577
21
43.047242
0
LINE
8
annotation
62
1
39
211
10
95.830577
20
43.047242
11
95.780975
21
42.866717
0
LINE
8
annotation
62
1
39
211
10
95.780975
20
42.866717
11
95.763765
21
42.674961
0
LINE
8
annotation
62
1
39
211
10
95.763765
20
42.674961
11
95.763765
21
42.141260
0
LINE
8
annotation
62
1
39
211
10
95.763765
20
42.141260
11
95.763765
21
42.141260
0
LINE
8
annotation
62
1
39
211
10
95.763765
20
42.141260
11
95.780975
21
41.949514
0
LINE
8
annotation
62
1
39
211
10
95.780975
20
41.949514
11
95.830577
21
41.769017
0
LINE
8
annotation
62
1
39
211
10
95.830577
20
41.769017
11
95.909535
21
41.602787
0
LINE
8
annotation
62
1
39
211
10
95.909535
20
41.602787
11
96.014812
21
41.453845
0
LINE
8
annotation
62
1
39
211
10
96.014812
20
41.453845
11
96.143370
21
41.325211
0
LINE
8
annotation
62
1
39
211
10
96.143370
20
41.325211
11
96.292171
21
41.219906
0
LINE
8
annotation
62
1
39
211
10
96.292171
20
41.219906
11
96.458179
21
41.140948
0
LINE
8
annotation
62
1
39
211
10
96.458179
20
41.140948
11
96.638355
21
41.091359
0
LINE
8
annotation
62
1
39
211
10
96.638355
20
41.091359
11
96.829663
21
41.074158
0
LINE
8
annotation
62
1
39
211
10
96.829663
20
41.074158
11
97.895560
21
41.074158
0
LINE
8
annotation
62
1
39
211
10
95.630566
20
38.342363
11
98.030566
21
38.342363
0
LINE
8
annotation
62
1
39
211
10
88.714735
20
57.955664
11
88.714735
21
62.573384
0
LINE
8
annotation
62
1
39
211
10
88.714735
20
62.573384
11
87.688157
21
61.546516
0
LINE
8
annotation
62
1
39
211
10
91.187964
20
58.016574
11
91.187964
21
58.016574
0
LINE
8
annotation
62
1
39
211
10
91.187964
20
58.016574
11
91.295285
21
57.976454
0
LINE
8
annotation
62
1
39
211
10
91.295285
20
57.976454
11
91.405352
21
57.956522
0
LINE
8
annotation
62
1
39
211
10
91.405352
20
57.956522
11
91.515677
21
57.955965
0
LINE
8
annotation
62
1
39
211
10
91.515677
20
57.955965
11
91.623771
21
57.973969
0
LINE
8
annotation
62
1
39
211
10
91.623771
20
57.973969
11
91.727146
21
58.009723
0
LINE
8
annotation
62
1
39
211
10
91.727146
20
58.009723
11
91.823313
21
58.062414
0
LINE
8
annotation
62
1
39
211
10
91.823313
20
58.062414
11
91.909784
21
58.131228
0
LINE
8
annotation
62
1
39
211
10
91.909784
20
58.131228
11
91.984072
21
58.215354
0
LINE
8
annotation
62
1
39
211
10
91.984072
20
58.215354
11
92.043687
21
58.313977
0
LINE
8
annotation
62
1
39
211
10
92.043687
20
58.313977
11
92.043687
21
58.313977
0
LINE
8
annotation
62
1
39
211
10
92.043687
20
58.313977
11
92.221556
21
58.730325
0
LINE
8
annotation
62
1
39
211
10
92.221556
20
58.730325
11
92.354958
21
59.158722
0
LINE
8
annotation
62
1
39
211
10
92.354958
20
59.158722
11
92.443893
21
59.595755
0
LINE
8
annotation
62
1
39
211
10
92.443893
20
59.595755
11
92.488360
21
60.038007
0
LINE
8
annotation
62
1
39
211
10
92.488360
20
60.038007
11
92.488360
21
60.482064
0
LINE
8
annotation
62
1
39
211
10
92.488360
20
60.482064
11
92.443893
21
60.924510
0
LINE
8
annotation
62
1
39
211
10
92.443893
20
60.924510
11
92.354958
21
61.361928
0
LINE
8
annotation
62
1
39
211
10
92.354958
20
61.361928
11
92.221556
21
61.790905
0
LINE
8
annotation
62
1
39
211
10
92.221556
20
61.790905
11
92.043687
21
62.208025
0
LINE
8
annotation
62
1
39
211
10
92.043687
20
62.208025
11
92.043687
21
62.208025
0
LINE
8
annotation
62
1
39
211
10
92.043687
20
62.208025
11
92.021067
21
62.250121
0
LINE
8
annotation
62
1
39
211
10
92.021067
20
62.250121
11
91.995423
21
62.290368
0
LINE
8
annotation
62
1
39
211
10
91.995423
20
62.290368
11
91.966947
21
62.328567
0
LINE
8
annotation
62
1
39
211
10
91.966947
20
62.328567
11
91.935833
21
62.364521
0
LINE
8
annotation
62
1
39
211
10
91.935833
20
62.364521
11
91.902273
21
62.398032
0
LINE
8
annotation
62
1
39
211
10
91.902273
20
62.398032
11
91.866461
21
62.428903
0
LINE
8
annotation
62
1
39
211
10
91.866461
20
62.428903
11
91.828590
21
62.456935
0
LINE
8
annotation
62
1
39
211
10
91.828590
20
62.456935
11
91.788852
21
62.481930
0
LINE
8
annotation
62
1
39
211
10
91.788852
20
62.481930
11
91.747442
21
62.503691
0
LINE
8
annotation
62
1
39
211
10
91.747442
20
62.503691
11
91.747442
21
62.503691
0
LINE
8
annotation
62
1
39
211
10
91.747442
20
62.503691
11
91.639268
21
62.544680
0
LINE
8
annotation
62
1
39
211
10
91.639268
20
62.544680
11
91.528556
21
62.565293
0
LINE
8
annotation
62
1
39
211
10
91.528556
20
62.565293
11
91.417765
21
62.566348
0
LINE
8
annotation
62
1
39
211
10
91.417765
20
62.566348
11
91.309356
21
62.548663
0
LINE
8
annotation
62
1
39
211
10
91.309356
20
62.548663
11
91.205787
21
62.513054
0
LINE
8
annotation
62
1
39
211
10
91.205787
20
62.513054
11
91.109518
21
62.460339
0
LINE
8
annotation
62
1
39
211
10
91.109518
20
62.460339
11
91.023010
21
62.391336
0
LINE
8
annotation
62
1
39
211
10
91.023010
20
62.391336
11
90.948721
21
62.306862
0
LINE
8
annotation
62
1
39
211
10
90.948721
20
62.306862
11
90.889112
21
62.207735
0
LINE
8
annotation
62
1
39
211
10
90.889112
20
62.207735
11
90.889112
21
62.207735
0
LINE
8
annotation
62
1
39
211
10
90.889112
20
62.207735
11
90.712101
21
61.791474
0
LINE
8
annotation
62
1
39
211
10
90.712101
20
61.791474
11
90.579342
21
61.363140
0
LINE
8
annotation
62
1
39
211
10
90.579342
20
61.363140
11
90.490836
21
60.926151
0
LINE
8
annotation
62
1
39
211
10
90.490836
20
60.926151
11
90.446584
21
60.483920
0
LINE
8
annotation
62
1
39
211
10
90.446584
20
60.483920
11
90.446584
21
60.039863
0
LINE
8
annotation
62
1
39
211
10
90.446584
20
60.039863
11
90.490836
21
59.597396
0
LINE
8
annotation
62
1
39
211
10
90.490836
20
59.597396
11
90.579342
21
59.159934
0
LINE
8
annotation
62
1
39
211
10
90.579342
20
59.159934
11
90.712101
21
58.730893
0
LINE
8
annotation
62
1
39
211
10
90.712101
20
58.730893
11
90.889112
21
58.313688
0
LINE
8
annotation
62
1
39
211
10
90.889112
20
58.313688
11
90.889112
21
58.313688
0
LINE
8
annotation
62
1
39
211
10
90.889112
20
58.313688
11
90.911650
21
58.271675
0
LINE
8
annotation
62
1
39
211
10
90.911650
20
58.271675
11
90.937105
21
58.231629
0
LINE
8
annotation
62
1
39
211
10
90.937105
20
58.231629
11
90.965369
21
58.193671
0
LINE
8
annotation
62
1
39
211
10
90.965369
20
58.193671
11
90.996337
21
58.157922
0
LINE
8
annotation
62
1
39
211
10
90.996337
20
58.157922
11
91.029900
21
58.124504
0
LINE
8
annotation
62
1
39
211
10
91.029900
20
58.124504
11
91.065952
21
58.093539
0
LINE
8
annotation
62
1
39
211
10
91.065952
20
58.093539
11
91.104384
21
58.065148
0
LINE
8
annotation
62
1
39
211
10
91.104384
20
58.065148
11
91.145091
21
58.039452
0
LINE
8
annotation
62
1
39
211
10
91.145091
20
58.039452
11
91.187964
21
58.016574
0
LINE
8
annotation
62
1
39
211
10
82.359128
20
76.786685
11
82.359128
21
81.586685
0
LINE
8
annotation
62
1
39
211
10
82.359128
20
81.586685
11
81.292026
21
80.519283
0
LINE
8
annotation
62
1
39
211
10
85.226229
20
76.786685
11
85.226229
21
81.586685
0
LINE
8
annotation
62
1
39
211
10
85.226229
20
81.586685
11
84.159128
21
80.519283
0
LINE
8
annotation
62
1
39
211
10
75.129443
20
95.804671
11
75.129443
21
100.413021
0
LINE
8
annotation
62
1
39
211
10
75.129443
20
100.413021
11
74.104948
21
99.388237
0
LINE
8
annotation
62
1
39
211
10
78.904456
20
95.804634
11
76.857778
21
95.804634
0
LINE
8
annotation
62
1
39
211
10
76.857778
20
95.804634
11
78.748975
21
98.849219
0
LINE
8
annotation
62
1
39
211
10
78.748975
20
98.849219
11
78.748975
21
98.849219
0
LINE
8
annotation
62
1
39
211
10
78.748975
20
98.849219
11
78.751236
21
98.852017
0
LINE
8
annotation
62
1
39
211
10
78.751236
20
98.852017
11
78.753404
21
98.854838
0
LINE
8
annotation
62
1
39
211
10
78.753404
20
98.854838
11
78.755494
21
98.857707
0
LINE
8
annotation
62
1
39
211
10
78.755494
20
98.857707
11
78.757519
21
98.860648
0
LINE
8
annotation
62
1
39
211
10
78.757519
20
98.860648
11
78.759495
21
98.863683
0
LINE
8
annotation
62
1
39
211
10
78.759495
20
98.863683
11
78.761434
21
98.866838
0
LINE
8
annotation
62
1
39
211
10
78.761434
20
98.866838
11
78.763353
21
98.870135
0
LINE
8
annotation
62
1
39
211
10
78.763353
20
98.870135
11
78.765264
21
98.873598
0
LINE
8
annotation
62
1
39
211
10
78.765264
20
98.873598
11
78.767182
21
98.877252
0
LINE
8
annotation
62
1
39
211
10
78.767182
20
98.877252
11
78.767182
21
98.877252
0
LINE
8
annotation
62
1
39
211
10
78.767182
20
98.877252
11
78.845269
21
99.044912
0
LINE
8
annotation
62
1
39
211
10
78.845269
20
99.044912
11
78.890887
21
99.218706
0
LINE
8
annotation
62
1
39
211
10
78.890887
20
99.218706
11
78.905152
21
99.394707
0
LINE
8
annotation
62
1
39
211
10
78.905152
20
99.394707
11
78.889183
21
99.568989
0
LINE
8
annotation
62
1
39
211
10
78.889183
20
99.568989
11
78.844098
21
99.737623
0
LINE
8
annotation
62
1
39
211
10
78.844098
20
99.737623
11
78.771014
21
99.896684
0
LINE
8
annotation
62
1
39
211
10
78.771014
20
99.896684
11
78.671051
21
100.042245
0
LINE
8
annotation
62
1
39
211
10
78.671051
20
100.042245
11
78.545324
21
100.170377
0
LINE
8
annotation
62
1
39
211
10
78.545324
20
100.170377
11
78.394954
21
100.277155
0
LINE
8
annotation
62
1
39
211
10
78.394954
20
100.277155
11
78.394954
21
100.277155
0
LINE
8
annotation
62
1
39
211
10
78.394954
20
100.277155
11
78.226828
21
100.354132
0
LINE
8
annotation
62
1
39
211
10
78.226828
20
100.354132
11
78.052768
21
100.399046
0
LINE
8
annotation
62
1
39
211
10
78.052768
20
100.399046
11
77.876664
21
100.412908
0
LINE
8
annotation
62
1
39
211
10
77.876664
20
100.412908
11
77.702409
21
100.396729
0
LINE
8
annotation
62
1
39
211
10
77.702409
20
100.396729
11
77.533893
21
100.351519
0
LINE
8
annotation
62
1
39
211
10
77.533893
20
100.351519
11
77.375008
21
100.278289
0
LINE
8
annotation
62
1
39
211
10
77.375008
20
100.278289
11
77.229645
21
100.178051
0
LINE
8
annotation
62
1
39
211
10
77.229645
20
100.178051
11
77.101696
21
100.051815
0
LINE
8
annotation
62
1
39
211
10
77.101696
20
100.051815
11
76.995051
21
99.900591
0
LINE
8
annotation
62
1
39
211
10
76.995051
20
99.900591
11
76.860668
21
99.642806
0
LINE
8
annotation
62
1
39
211
10
68.497471
20
114.726498
11
68.497471
21
119.335516
0
LINE
8
annotation
62
1
39
211
10
68.497471
20
119.335516
11
67.472828
21
118.310583
0
LINE
8
annotation
62
1
39
211
10
70.225708
20
114.726643
11
71.249196
21
114.726643
0
LINE
8
annotation
62
1
39
211
10
71.249196
20
114.726643
11
71.249196
21
114.726643
0
LINE
8
annotation
62
1
39
211
10
71.249196
20
114.726643
11
71.433272
21
114.743156
0
LINE
8
annotation
62
1
39
211
10
71.433272
20
114.743156
11
71.606482
21
114.790747
0
LINE
8
annotation
62
1
39
211
10
71.606482
20
114.790747
11
71.765944
21
114.866495
0
LINE
8
annotation
62
1
39
211
10
71.765944
20
114.866495
11
71.908777
21
114.967479
0
LINE
8
annotation
62
1
39
211
10
71.908777
20
114.967479
11
72.032101
21
115.090777
0
LINE
8
annotation
62
1
39
211
10
72.032101
20
115.090777
11
72.133034
21
115.233468
0
LINE
8
annotation
62
1
39
211
10
72.133034
20
115.233468
11
72.208697
21
115.392630
0
LINE
8
annotation
62
1
39
211
10
72.208697
20
115.392630
11
72.256206
21
115.565343
0
LINE
8
annotation
62
1
39
211
10
72.256206
20
115.565343
11
72.272683
21
115.748685
0
LINE
8
annotation
62
1
39
211
10
72.272683
20
115.748685
11
72.272683
21
116.261151
0
LINE
8
annotation
62
1
39
211
10
72.272683
20
116.261151
11
72.272683
21
116.261151
0
LINE
8
annotation
62
1
39
211
10
72.272683
20
116.261151
11
72.256206
21
116.444417
0
LINE
8
annotation
62
1
39
211
10
72.256206
20
116.444417
11
72.208697
21
116.617090
0
LINE
8
annotation
62
1
39
211
10
72.208697
20
116.617090
11
72.133034
21
116.776240
0
LINE
8
annotation
62
1
39
211
10
72.133034
20
116.776240
11
72.032101
21
116.918941
0
LINE
8
annotation
62
1
39
211
10
72.032101
20
116.918941
11
71.908777
21
117.042263
0
LINE
8
annotation
62
1
39
211
10
71.908777
20
117.042263
11
71.765944
21
117.143277
0
LINE
8
annotation
62
1
39
211
10
71.765944
20
117.143277
11
71.606482
21
117.219056
0
LINE
8
annotation
62
1
39
211
10
71.606482
20
117.219056
11
71.433272
21
117.266671
0
LINE
8
annotation
62
1
39
211
10
71.433272
20
117.266671
11
71.249196
21
117.283194
0
LINE
8
annotation
62
1
39
211
10
71.249196
20
117.283194
11
70.736729
21
117.283194
0
LINE
8
annotation
62
1
39
211
10
70.736729
20
117.283194
11
71.249196
21
117.283194
0
LINE
8
annotation
62
1
39
211
10
71.249196
20
117.283194
11
71.249196
21
117.283194
0
LINE
8
annotation
62
1
39
211
10
71.249196
20
117.283194
11
71.433272
21
117.299720
0
LINE
8
annotation
62
1
39
211
10
71.433272
20
117.299720
11
71.606482
21
117.347363
0
LINE
8
annotation
62
1
39
211
10
71.606482
20
117.347363
11
71.765944
21
117.423217
0
LINE
8
annotation
62
1
39
211
10
71.765944
20
117.423217
11
71.908777
21
117.524378
0
LINE
8
annotation
62
1
39
211
10
71.908777
20
117.524378
11
72.032101
21
117.647942
0
LINE
8
annotation
62
1
39
211
10
72.032101
20
117.647942
11
72.133034
21
117.791003
0
LINE
8
annotation
62
1
39
211
10
72.133034
20
117.791003
11
72.208697
21
117.950657
0
LINE
8
annotation
62
1
39
211
10
72.208697
20
117.950657
11
72.256206
21
118.124000
0
LINE
8
annotation
62
1
39
211
10
72.256206
20
118.124000
11
72.272683
21
118.308126
0
LINE
8
annotation
62
1
39
211
10
72.272683
20
118.308126
11
72.272683
21
118.308126
0
LINE
8
annotation
62
1
39
211
10
72.272683
20
118.308126
11
72.256206
21
118.491392
0
LINE
8
annotation
62
1
39
211
10
72.256206
20
118.491392
11
72.208697
21
118.664065
0
LINE
8
annotation
62
1
39
211
10
72.208697
20
118.664065
11
72.133034
21
118.823215
0
LINE
8
annotation
62
1
39
211
10
72.133034
20
118.823215
11
72.032101
21
118.965916
0
LINE
8
annotation
62
1
39
211
10
72.032101
20
118.965916
11
71.908777
21
119.089238
0
LINE
8
annotation
62
1
39
211
10
71.908777
20
119.089238
11
71.765944
21
119.190252
0
LINE
8
annotation
62
1
39
211
10
71.765944
20
119.190252
11
71.606482
21
119.266031
0
LINE
8
annotation
62
1
39
211
10
71.606482
20
119.266031
11
71.433272
21
119.313646
0
LINE
8
annotation
62
1
39
211
10
71.433272
20
119.313646
11
71.249196
21
119.330169
0
LINE
8
annotation
62
1
39
211
10
71.249196
20
119.330169
11
70.225708
21
119.330169
0
LINE
8
annotation
62
1
39
211
10
61.773009
20
133.870850
11
61.773009
21
138.035486
0
LINE
8
annotation
62
1
39
211
10
61.773009
20
138.035486
11
60.847157
21
137.109373
0
LINE
8
annotation
62
1
39
211
10
65.647027
20
134.796702
11
63.334617
21
134.796702
0
LINE
8
annotation
62
1
39
211
10
63.334617
20
134.796702
11
64.258119
21
138.035486
0
LINE
8
annotation
62
1
39
211
10
64.953879
20
133.870850
11
64.953879
21
135.720464
0
LINE
8
annotation
62
1
39
211
10
55.377264
20
152.645142
11
55.377264
21
157.105515
0
LINE
8
annotation
62
1
39
211
10
55.377264
20
157.105515
11
54.385666
21
156.113638
0
LINE
8
annotation
62
1
39
211
10
57.049764
20
152.645142
11
58.040243
21
152.645142
0
LINE
8
annotation
62
1
39
211
10
58.040243
20
152.645142
11
58.040243
21
152.645142
0
LINE
8
annotation
62
1
39
211
10
58.040243
20
152.645142
11
58.218015
21
152.661126
0
LINE
8
annotation
62
1
39
211
10
58.218015
20
152.661126
11
58.385443
21
152.707207
0
LINE
8
annotation
62
1
39
211
10
58.385443
20
152.707207
11
58.539705
21
152.780577
0
LINE
8
annotation
62
1
39
211
10
58.539705
20
152.780577
11
58.677977
21
152.878432
0
LINE
8
annotation
62
1
39
211
10
58.677977
20
152.878432
11
58.797439
21
152.997964
0
LINE
8
annotation
62
1
39
211
10
58.797439
20
152.997964
11
58.895267
21
153.136367
0
LINE
8
annotation
62
1
39
211
10
58.895267
20
153.136367
11
58.968638
21
153.290836
0
LINE
8
annotation
62
1
39
211
10
58.968638
20
153.290836
11
59.014731
21
153.458562
0
LINE
8
annotation
62
1
39
211
10
59.014731
20
153.458562
11
59.030722
21
153.636740
0
LINE
8
annotation
62
1
39
211
10
59.030722
20
153.636740
11
59.030722
21
154.130162
0
LINE
8
annotation
62
1
39
211
10
59.030722
20
154.130162
11
59.030722
21
154.130162
0
LINE
8
annotation
62
1
39
211
10
59.030722
20
154.130162
11
59.014740
21
154.308254
0
LINE
8
annotation
62
1
39
211
10
59.014740
20
154.308254
11
58.968670
21
154.475749
0
LINE
8
annotation
62
1
39
211
10
58.968670
20
154.475749
11
58.895329
21
154.629882
0
LINE
8
annotation
62
1
39
211
10
58.895329
20
154.629882
11
58.797531
21
154.767888
0
LINE
8
annotation
62
1
39
211
10
58.797531
20
154.767888
11
58.678092
21
154.887003
0
LINE
8
annotation
62
1
39
211
10
58.678092
20
154.887003
11
58.539829
21
154.984460
0
LINE
8
annotation
62
1
39
211
10
58.539829
20
154.984460
11
58.385556
21
155.057496
0
LINE
8
annotation
62
1
39
211
10
58.385556
20
155.057496
11
58.218089
21
155.103345
0
LINE
8
annotation
62
1
39
211
10
58.218089
20
155.103345
11
58.040243
21
155.119242
0
LINE
8
annotation
62
1
39
211
10
58.040243
20
155.119242
11
57.049764
21
155.119242
0
LINE
8
annotation
62
1
39
211
10
57.049764
20
155.119242
11
57.049764
21
157.105515
0
LINE
8
annotation
62
1
39
211
10
57.049764
20
157.105515
11
59.030722
21
157.105515
0
LINE
8
annotation
62
1
39
211
10
48.533186
20
171.510853
11
48.533186
21
176.084127
0
LINE
8
annotation
62
1
39
211
10
48.533186
20
176.084127
11
47.516488
21
175.067143
0
LINE
8
annotation
62
1
39
211
10
51.773496
20
176.084127
11
51.773496
21
176.084127
0
LINE
8
annotation
62
1
39
211
10
51.773496
20
176.084127
11
51.482567
21
175.975046
0
LINE
8
annotation
62
1
39
211
10
51.482567
20
175.975046
11
51.215601
21
175.828072
0
LINE
8
annotation
62
1
39
211
10
51.215601
20
175.828072
11
50.975339
21
175.646888
0
LINE
8
annotation
62
1
39
211
10
50.975339
20
175.646888
11
50.764521
21
175.435176
0
LINE
8
annotation
62
1
39
211
10
50.764521
20
175.435176
11
50.585889
21
175.196618
0
LINE
8
annotation
62
1
39
211
10
50.585889
20
175.196618
11
50.442182
21
174.934897
0
LINE
8
annotation
62
1
39
211
10
50.442182
20
174.934897
11
50.336141
21
174.653695
0
LINE
8
annotation
62
1
39
211
10
50.336141
20
174.653695
11
50.270507
21
174.356694
0
LINE
8
annotation
62
1
39
211
10
50.270507
20
174.356694
11
50.248020
21
174.047577
0
LINE
8
annotation
62
1
39
211
10
50.248020
20
174.047577
11
50.248020
21
172.527550
0
LINE
8
annotation
62
1
39
211
10
50.248020
20
172.527550
11
50.248020
21
172.527550
0
LINE
8
annotation
62
1
39
211
10
50.248020
20
172.527550
11
50.264416
21
172.344862
0
LINE
8
annotation
62
1
39
211
10
50.264416
20
172.344862
11
50.311676
21
172.172890
0
LINE
8
annotation
62
1
39
211
10
50.311676
20
172.172890
11
50.386904
21
172.014512
0
LINE
8
annotation
62
1
39
211
10
50.386904
20
172.014512
11
50.487208
21
171.872605
0
LINE
8
annotation
62
1
39
211
10
50.487208
20
171.872605
11
50.609694
21
171.750047
0
LINE
8
annotation
62
1
39
211
10
50.609694
20
171.750047
11
50.751467
21
171.649716
0
LINE
8
annotation
62
1
39
211
10
50.751467
20
171.649716
11
50.909633
21
171.574488
0
LINE
8
annotation
62
1
39
211
10
50.909633
20
171.574488
11
51.081299
21
171.527241
0
LINE
8
annotation
62
1
39
211
10
51.081299
20
171.527241
11
51.263570
21
171.510853
0
LINE
8
annotation
62
1
39
211
10
51.263570
20
171.510853
11
51.263570
21
171.510853
0
LINE
8
annotation
62
1
39
211
10
51.263570
20
171.510853
11
51.446219
21
171.527241
0
LINE
8
annotation
62
1
39
211
10
51.446219
20
171.527241
11
51.618086
21
171.574488
0
LINE
8
annotation
62
1
39
211
10
51.618086
20
171.574488
11
51.776311
21
171.649716
0
LINE
8
annotation
62
1
39
211
10
51.776311
20
171.649716
11
51.918037
21
171.750047
0
LINE
8
annotation
62
1
39
211
10
51.918037
20
171.750047
11
52.040404
21
171.872605
0
LINE
8
annotation
62
1
39
211
10
52.040404
20
171.872605
11
52.140555
21
172.014512
0
LINE
8
annotation
62
1
39
211
10
52.140555
20
172.014512
11
52.215630
21
172.172890
0
LINE
8
annotation
62
1
39
211
10
52.215630
20
172.172890
11
52.262771
21
172.344862
0
LINE
8
annotation
62
1
39
211
10
52.262771
20
172.344862
11
52.279121
21
172.527550
0
LINE
8
annotation
62
1
39
211
10
52.279121
20
172.527550
11
52.279121
21
173.033461
0
LINE
8
annotation
62
1
39
211
10
52.279121
20
173.033461
11
52.279121
21
173.033461
0
LINE
8
annotation
62
1
39
211
10
52.279121
20
173.033461
11
52.262771
21
173.216061
0
LINE
8
annotation
62
1
39
211
10
52.262771
20
173.216061
11
52.215630
21
173.387796
0
LINE
8
annotation
62
1
39
211
10
52.215630
20
173.387796
11
52.140555
21
173.545830
0
LINE
8
annotation
62
1
39
211
10
52.140555
20
173.545830
11
52.040404
21
173.687330
0
LINE
8
annotation
62
1
39
211
10
52.040404
20
173.687330
11
51.918037
21
173.809459
0
LINE
8
annotation
62
1
39
211
10
51.918037
20
173.809459
11
51.776311
21
173.909383
0
LINE
8
annotation
62
1
39
211
10
51.776311
20
173.909383
11
51.618086
21
173.984268
0
LINE
8
annotation
62
1
39
211
10
51.618086
20
173.984268
11
51.446219
21
174.031277
0
LINE
8
annotation
62
1
39
211
10
51.446219
20
174.031277
11
51.263570
21
174.047577
0
LINE
8
annotation
62
1
39
211
10
51.263570
20
174.047577
11
50.248020
21
174.047577
0
LINE
8
annotation
62
1
39
211
10
50.120825
20
170.939193
11
52.407462
21
170.939193
0
LINE
8
annotation
62
1
39
211
10
42.208651
20
190.416390
11
42.208651
21
195.022911
0
LINE
8
annotation
62
1
39
211
10
42.208651
20
195.022911
11
41.184563
21
193.998534
0
LINE
8
annotation
62
1
39
211
10
44.960185
20
190.416390
11
45.984274
21
195.022911
0
LINE
8
annotation
62
1
39
211
10
45.984274
20
195.022911
11
43.935808
21
195.022911
0
LINE
8
annotation
62
1
39
211
10
45.984274
20
192.971556
11
44.960185
21
192.971556
0
LINE
8
annotation
62
1
39
211
10
36.674382
20
209.337303
11
36.674382
21
213.946320
0
LINE
8
annotation
62
1
39
211
10
36.674382
20
213.946320
11
35.649739
21
212.921388
0
LINE
8
annotation
62
1
39
211
10
38.402619
20
210.359201
11
38.402619
21
210.359201
0
LINE
8
annotation
62
1
39
211
10
38.402619
20
210.359201
11
38.419144
21
210.175173
0
LINE
8
annotation
62
1
39
211
10
38.419144
20
210.175173
11
38.466773
21
210.002097
0
LINE
8
annotation
62
1
39
211
10
38.466773
20
210.002097
11
38.542589
21
209.842827
0
LINE
8
annotation
62
1
39
211
10
38.542589
20
209.842827
11
38.643677
21
209.700222
0
LINE
8
annotation
62
1
39
211
10
38.643677
20
209.700222
11
38.767120
21
209.577138
0
LINE
8
annotation
62
1
39
211
10
38.767120
20
209.577138
11
38.910001
21
209.476432
0
LINE
8
annotation
62
1
39
211
10
38.910001
20
209.476432
11
39.069403
21
209.400963
0
LINE
8
annotation
62
1
39
211
10
39.069403
20
209.400963
11
39.242411
21
209.353586
0
LINE
8
annotation
62
1
39
211
10
39.242411
20
209.353586
11
39.426107
21
209.337158
0
LINE
8
annotation
62
1
39
211
10
39.426107
20
209.337158
11
39.426107
21
209.337158
0
LINE
8
annotation
62
1
39
211
10
39.426107
20
209.337158
11
39.609803
21
209.353586
0
LINE
8
annotation
62
1
39
211
10
39.609803
20
209.353586
11
39.782810
21
209.400963
0
LINE
8
annotation
62
1
39
211
10
39.782810
20
209.400963
11
39.942213
21
209.476432
0
LINE
8
annotation
62
1
39
211
10
39.942213
20
209.476432
11
40.085094
21
209.577138
0
LINE
8
annotation
62
1
39
211
10
40.085094
20
209.577138
11
40.208536
21
209.700222
0
LINE
8
annotation
62
1
39
211
10
40.208536
20
209.700222
11
40.309624
21
209.842827
0
LINE
8
annotation
62
1
39
211
10
40.309624
20
209.842827
11
40.385441
21
210.002097
0
LINE
8
annotation
62
1
39
211
10
40.385441
20
210.002097
11
40.433070
21
210.175173
0
LINE
8
annotation
62
1
39
211
10
40.433070
20
210.175173
11
40.449594
21
210.359201
0
LINE
8
annotation
62
1
39
211
10
40.449594
20
210.359201
11
40.449594
21
210.869066
0
LINE
8
annotation
62
1
39
211
10
40.449594
20
210.869066
11
40.449594
21
210.869066
0
LINE
8
annotation
62
1
39
211
10
40.449594
20
210.869066
11
40.433079
21
211.053182
0
LINE
8
annotation
62
1
39
211
10
40.433079
20
211.053182
11
40.385474
21
211.226498
0
LINE
8
annotation
62
1
39
211
10
40.385474
20
211.226498
11
40.309689
21
211.386114
0
LINE
8
annotation
62
1
39
211
10
40.309689
20
211.386114
11
40.208632
21
211.529129
0
LINE
8
annotation
62
1
39
211
10
40.208632
20
211.529129
11
40.085213
21
211.652645
0
LINE
8
annotation
62
1
39
211
10
40.085213
20
211.652645
11
39.942341
21
211.753761
0
LINE
8
annotation
62
1
39
211
10
39.942341
20
211.753761
11
39.782927
21
211.829577
0
LINE
8
annotation
62
1
39
211
10
39.782927
20
211.829577
11
39.609879
21
211.877193
0
LINE
8
annotation
62
1
39
211
10
39.609879
20
211.877193
11
39.426107
21
211.893709
0
LINE
8
annotation
62
1
39
211
10
39.426107
20
211.893709
11
39.426107
21
211.893709
0
LINE
8
annotation
62
1
39
211
10
39.426107
20
211.893709
11
39.242335
21
211.877183
0
LINE
8
annotation
62
1
39
211
10
39.242335
20
211.877183
11
39.069287
21
211.829543
0
LINE
8
annotation
62
1
39
211
10
39.069287
20
211.829543
11
38.909872
21
211.753696
0
LINE
8
annotation
62
1
39
211
10
38.909872
20
211.753696
11
38.767001
21
211.652550
0
LINE
8
annotation
62
1
39
211
10
38.767001
20
211.652550
11
38.643582
21
211.529010
0
LINE
8
annotation
62
1
39
211
10
38.643582
20
211.529010
11
38.542525
21
211.385985
0
LINE
8
annotation
62
1
39
211
10
38.542525
20
211.385985
11
38.466739
21
211.226381
0
LINE
8
annotation
62
1
39
211
10
38.466739
20
211.226381
11
38.419134
21
211.053106
0
LINE
8
annotation
62
1
39
211
10
38.419134
20
211.053106
11
38.402619
21
210.869066
0
LINE
8
annotation
62
1
39
211
10
38.402619
20
210.869066
11
38.402619
21
210.359201
0
LINE
8
annotation
62
1
39
211
10
40.449594
20
212.918642
11
40.449594
21
212.918642
0
LINE
8
annotation
62
1
39
211
10
40.449594
20
212.918642
11
40.433079
21
213.101908
0
LINE
8
annotation
62
1
39
211
10
40.433079
20
213.101908
11
40.385474
21
213.274580
0
LINE
8
annotation
62
1
39
211
10
40.385474
20
213.274580
11
40.309689
21
213.433731
0
LINE
8
annotation
62
1
39
211
10
40.309689
20
213.433731
11
40.208632
21
213.576431
0
LINE
8
annotation
62
1
39
211
10
40.208632
20
213.576431
11
40.085213
21
213.699753
0
LINE
8
annotation
62
1
39
211
10
40.085213
20
213.699753
11
39.942341
21
213.800768
0
LINE
8
annotation
62
1
39
211
10
39.942341
20
213.800768
11
39.782927
21
213.876547
0
LINE
8
annotation
62
1
39
211
10
39.782927
20
213.876547
11
39.609879
21
213.924162
0
LINE
8
annotation
62
1
39
211
10
39.609879
20
213.924162
11
39.426107
21
213.940684
0
LINE
8
annotation
62
1
39
211
10
39.426107
20
213.940684
11
39.426107
21
213.940684
0
LINE
8
annotation
62
1
39
211
10
39.426107
20
213.940684
11
39.242335
21
213.924162
0
LINE
8
annotation
62
1
39
211
10
39.242335
20
213.924162
11
39.069287
21
213.876547
0
LINE
8
annotation
62
1
39
211
10
39.069287
20
213.876547
11
38.909872
21
213.800768
0
LINE
8
annotation
62
1
39
211
10
38.909872
20
213.800768
11
38.767001
21
213.699753
0
LINE
8
annotation
62
1
39
211
10
38.767001
20
213.699753
11
38.643582
21
213.576431
0
LINE
8
annotation
62
1
39
211
10
38.643582
20
213.576431
11
38.542525
21
213.433731
0
LINE
8
annotation
62
1
39
211
10
38.542525
20
213.433731
11
38.466739
21
213.274580
0
LINE
8
annotation
62
1
39
211
10
38.466739
20
213.274580
11
38.419134
21
213.101908
0
LINE
8
annotation
62
1
39
211
10
38.419134
20
213.101908
11
38.402619
21
212.918642
0
LINE
8
annotation
62
1
39
211
10
38.402619
20
212.918642
11
38.402619
21
212.918642
0
LINE
8
annotation
62
1
39
211
10
38.402619
20
212.918642
11
38.419144
21
212.734516
0
LINE
8
annotation
62
1
39
211
10
38.419144
20
212.734516
11
38.466773
21
212.561173
0
LINE
8
annotation
62
1
39
211
10
38.466773
20
212.561173
11
38.542589
21
212.401519
0
LINE
8
annotation
62
1
39
211
10
38.542589
20
212.401519
11
38.643677
21
212.258457
0
LINE
8
annotation
62
1
39
211
10
38.643677
20
212.258457
11
38.767120
21
212.134894
0
LINE
8
annotation
62
1
39
211
10
38.767120
20
212.134894
11
38.910001
21
212.033733
0
LINE
8
annotation
62
1
39
211
10
38.910001
20
212.033733
11
39.069403
21
211.957878
0
LINE
8
annotation
62
1
39
211
10
39.069403
20
211.957878
11
39.242411
21
211.910236
0
LINE
8
annotation
62
1
39
211
10
39.242411
20
211.910236
11
39.426107
21
211.893709
0
LINE
8
annotation
62
1
39
211
10
39.426107
20
211.893709
11
39.426107
21
211.893709
0
LINE
8
annotation
62
1
39
211
10
39.426107
20
211.893709
11
39.609803
21
211.910236
0
LINE
8
annotation
62
1
39
211
10
39.609803
20
211.910236
11
39.782810
21
211.957878
0
LINE
8
annotation
62
1
39
211
10
39.782810
20
211.957878
11
39.942213
21
212.033733
0
LINE
8
annotation
62
1
39
211
10
39.942213
20
212.033733
11
40.085094
21
212.134894
0
LINE
8
annotation
62
1
39
211
10
40.085094
20
212.134894
11
40.208536
21
212.258457
0
LINE
8
annotation
62
1
39
211
10
40.208536
20
212.258457
11
40.309624
21
212.401519
0
LINE
8
annotation
62
1
39
211
10
40.309624
20
212.401519
11
40.385441
21
212.561173
0
LINE
8
annotation
62
1
39
211
10
40.385441
20
212.561173
11
40.433070
21
212.734516
0
LINE
8
annotation
62
1
39
211
10
40.433070
20
212.734516
11
40.449594
21
212.918642
0
LINE
8
annotation
62
1
39
211
10
31.582367
20
228.259464
11
31.582367
21
232.868481
0
LINE
8
annotation
62
1
39
211
10
31.582367
20
232.868481
11
30.557723
21
231.843549
0
LINE
8
annotation
62
1
39
211
10
33.821625
20
228.259464
11
33.821625
21
228.259464
0
LINE
8
annotation
62
1
39
211
10
33.821625
20
228.259464
11
34.114312
21
228.368533
0
LINE
8
annotation
62
1
39
211
10
34.114312
20
228.368533
11
34.382963
21
228.515961
0
LINE
8
annotation
62
1
39
211
10
34.382963
20
228.515961
11
34.624800
21
228.697990
0
LINE
8
annotation
62
1
39
211
10
34.624800
20
228.697990
11
34.837049
21
228.910864
0
LINE
8
annotation
62
1
39
211
10
34.837049
20
228.910864
11
35.016932
21
229.150826
0
LINE
8
annotation
62
1
39
211
10
35.016932
20
229.150826
11
35.161674
21
229.414121
0
LINE
8
annotation
62
1
39
211
10
35.161674
20
229.414121
11
35.268499
21
229.696993
0
LINE
8
annotation
62
1
39
211
10
35.268499
20
229.696993
11
35.334629
21
229.995684
0
LINE
8
annotation
62
1
39
211
10
35.334629
20
229.995684
11
35.357290
21
230.306439
0
LINE
8
annotation
62
1
39
211
10
35.357290
20
230.306439
11
35.357290
21
231.843549
0
LINE
8
annotation
62
1
39
211
10
35.357290
20
231.843549
11
35.357290
21
231.843549
0
LINE
8
annotation
62
1
39
211
10
35.357290
20
231.843549
11
35.340813
21
232.027675
0
LINE
8
annotation
62
1
39
211
10
35.340813
20
232.027675
11
35.293303
21
232.201017
0
LINE
8
annotation
62
1
39
211
10
35.293303
20
232.201017
11
35.217641
21
232.360672
0
LINE
8
annotation
62
1
39
211
10
35.217641
20
232.360672
11
35.116708
21
232.503733
0
LINE
8
annotation
62
1
39
211
10
35.116708
20
232.503733
11
34.993384
21
232.627296
0
LINE
8
annotation
62
1
39
211
10
34.993384
20
232.627296
11
34.850551
21
232.728458
0
LINE
8
annotation
62
1
39
211
10
34.850551
20
232.728458
11
34.691089
21
232.804312
0
LINE
8
annotation
62
1
39
211
10
34.691089
20
232.804312
11
34.517879
21
232.851955
0
LINE
8
annotation
62
1
39
211
10
34.517879
20
232.851955
11
34.333802
21
232.868481
0
LINE
8
annotation
62
1
39
211
10
34.333802
20
232.868481
11
34.333802
21
232.868481
0
LINE
8
annotation
62
1
39
211
10
34.333802
20
232.868481
11
34.150106
21
232.851955
0
LINE
8
annotation
62
1
39
211
10
34.150106
20
232.851955
11
33.977099
21
232.804312
0
LINE
8
annotation
62
1
39
211
10
33.977099
20
232.804312
11
33.817696
21
232.728458
0
LINE
8
annotation
62
1
39
211
10
33.817696
20
232.728458
11
33.674815
21
232.627296
0
LINE
8
annotation
62
1
39
211
10
33.674815
20
232.627296
11
33.551373
21
232.503733
0
LINE
8
annotation
62
1
39
211
10
33.551373
20
232.503733
11
33.450285
21
232.360672
0
LINE
8
annotation
62
1
39
211
10
33.450285
20
232.360672
11
33.374468
21
232.201017
0
LINE
8
annotation
62
1
39
211
10
33.374468
20
232.201017
11
33.326839
21
232.027675
0
LINE
8
annotation
62
1
39
211
10
33.326839
20
232.027675
11
33.310315
21
231.843549
0
LINE
8
annotation
62
1
39
211
10
33.310315
20
231.843549
11
33.310315
21
231.331082
0
LINE
8
annotation
62
1
39
211
10
33.310315
20
231.331082
11
33.310315
21
231.331082
0
LINE
8
annotation
62
1
39
211
10
33.310315
20
231.331082
11
33.326839
21
231.146966
0
LINE
8
annotation
62
1
39
211
10
33.326839
20
231.146966
11
33.374468
21
230.973650
0
LINE
8
annotation
62
1
39
211
10
33.374468
20
230.973650
11
33.450285
21
230.814034
0
LINE
8
annotation
62
1
39
211
10
33.450285
20
230.814034
11
33.551373
21
230.671018
0
LINE
8
annotation
62
1
39
211
10
33.551373
20
230.671018
11
33.674815
21
230.547503
0
LINE
8
annotation
62
1
39
211
10
33.674815
20
230.547503
11
33.817696
21
230.446387
0
LINE
8
annotation
62
1
39
211
10
33.817696
20
230.446387
11
33.977099
21
230.370571
0
LINE
8
annotation
62
1
39
211
10
33.977099
20
230.370571
11
34.150106
21
230.322955
0
LINE
8
annotation
62
1
39
211
10
34.150106
20
230.322955
11
34.333802
21
230.306439
0
LINE
8
annotation
62
1
39
211
10
34.333802
20
230.306439
11
35.357290
21
230.306439
0
LINE
8
annotation
62
1
39
211
10
33.182415
20
227.683337
11
35.486924
21
227.683337
0
LINE
8
annotation
62
1
39
211
10
27.341448
20
247.583509
11
25.651473
21
247.583509
0
LINE
8
annotation
62
1
39
211
10
25.651473
20
247.583509
11
27.213065
21
250.097471
0
LINE
8
annotation
62
1
39
211
10
27.213065
20
250.097471
11
27.213065
21
250.097471
0
LINE
8
annotation
62
1
39
211
10
27.213065
20
250.097471
11
27.214932
21
250.099781
0
LINE
8
annotation
62
1
39
211
10
27.214932
20
250.099781
11
27.216722
21
250.102111
0
LINE
8
annotation
62
1
39
211
10
27.216722
20
250.102111
11
27.218448
21
250.104480
0
LINE
8
annotation
62
1
39
211
10
27.218448
20
250.104480
11
27.220120
21
250.106908
0
LINE
8
annotation
62
1
39
211
10
27.220120
20
250.106908
11
27.221751
21
250.109414
0
LINE
8
annotation
62
1
39
211
10
27.221751
20
250.109414
11
27.223353
21
250.112019
0
LINE
8
annotation
62
1
39
211
10
27.223353
20
250.112019
11
27.224937
21
250.114741
0
LINE
8
annotation
62
1
39
211
10
27.224937
20
250.114741
11
27.226515
21
250.117601
0
LINE
8
annotation
62
1
39
211
10
27.226515
20
250.117601
11
27.228099
21
250.120618
0
LINE
8
annotation
62
1
39
211
10
27.228099
20
250.120618
11
27.228099
21
250.120618
0
LINE
8
annotation
62
1
39
211
10
27.228099
20
250.120618
11
27.292577
21
250.259058
0
LINE
8
annotation
62
1
39
211
10
27.292577
20
250.259058
11
27.330243
21
250.402562
0
LINE
8
annotation
62
1
39
211
10
27.330243
20
250.402562
11
27.342022
21
250.547889
0
LINE
8
annotation
62
1
39
211
10
27.342022
20
250.547889
11
27.328836
21
250.691796
0
LINE
8
annotation
62
1
39
211
10
27.328836
20
250.691796
11
27.291609
21
250.831040
0
LINE
8
annotation
62
1
39
211
10
27.291609
20
250.831040
11
27.231263
21
250.962380
0
LINE
8
annotation
62
1
39
211
10
27.231263
20
250.962380
11
27.148721
21
251.082571
0
LINE
8
annotation
62
1
39
211
10
27.148721
20
251.082571
11
27.044907
21
251.188372
0
LINE
8
annotation
62
1
39
211
10
27.044907
20
251.188372
11
26.920744
21
251.276540
0
LINE
8
annotation
62
1
39
211
10
26.920744
20
251.276540
11
26.920744
21
251.276540
0
LINE
8
annotation
62
1
39
211
10
26.920744
20
251.276540
11
26.781920
21
251.340101
0
LINE
8
annotation
62
1
39
211
10
26.781920
20
251.340101
11
26.638195
21
251.377188
0
LINE
8
annotation
62
1
39
211
10
26.638195
20
251.377188
11
26.492784
21
251.388634
0
LINE
8
annotation
62
1
39
211
10
26.492784
20
251.388634
11
26.348899
21
251.375274
0
LINE
8
annotation
62
1
39
211
10
26.348899
20
251.375274
11
26.209752
21
251.337944
0
LINE
8
annotation
62
1
39
211
10
26.209752
20
251.337944
11
26.078558
21
251.277477
0
LINE
8
annotation
62
1
39
211
10
26.078558
20
251.277477
11
25.958530
21
251.194708
0
LINE
8
annotation
62
1
39
211
10
25.958530
20
251.194708
11
25.852880
21
251.090473
0
LINE
8
annotation
62
1
39
211
10
25.852880
20
251.090473
11
25.764822
21
250.965606
0
LINE
8
annotation
62
1
39
211
10
25.764822
20
250.965606
11
25.653860
21
250.752748
0
LINE
8
annotation
62
1
39
211
10
29.379894
20
247.633732
11
29.379894
21
247.633732
0
LINE
8
annotation
62
1
39
211
10
29.379894
20
247.633732
11
29.468332
21
247.600672
0
LINE
8
annotation
62
1
39
211
10
29.468332
20
247.600672
11
29.559031
21
247.584247
0
LINE
8
annotation
62
1
39
211
10
29.559031
20
247.584247
11
29.649943
21
247.583788
0
LINE
8
annotation
62
1
39
211
10
29.649943
20
247.583788
11
29.739017
21
247.598624
0
LINE
8
annotation
62
1
39
211
10
29.739017
20
247.598624
11
29.824202
21
247.628087
0
LINE
8
annotation
62
1
39
211
10
29.824202
20
247.628087
11
29.903447
21
247.671506
0
LINE
8
annotation
62
1
39
211
10
29.903447
20
247.671506
11
29.974703
21
247.728212
0
LINE
8
annotation
62
1
39
211
10
29.974703
20
247.728212
11
30.035919
21
247.797534
0
LINE
8
annotation
62
1
39
211
10
30.035919
20
247.797534
11
30.085045
21
247.878804
0
LINE
8
annotation
62
1
39
211
10
30.085045
20
247.878804
11
30.085045
21
247.878804
0
LINE
8
annotation
62
1
39
211
10
30.085045
20
247.878804
11
30.231616
21
248.221891
0
LINE
8
annotation
62
1
39
211
10
30.231616
20
248.221891
11
30.341545
21
248.574908
0
LINE
8
annotation
62
1
39
211
10
30.341545
20
248.574908
11
30.414831
21
248.935041
0
LINE
8
annotation
62
1
39
211
10
30.414831
20
248.935041
11
30.451473
21
249.299474
0
LINE
8
annotation
62
1
39
211
10
30.451473
20
249.299474
11
30.451473
21
249.665395
0
LINE
8
annotation
62
1
39
211
10
30.451473
20
249.665395
11
30.414831
21
250.029988
0
LINE
8
annotation
62
1
39
211
10
30.414831
20
250.029988
11
30.341545
21
250.390438
0
LINE
8
annotation
62
1
39
211
10
30.341545
20
250.390438
11
30.231616
21
250.743933
0
LINE
8
annotation
62
1
39
211
10
30.231616
20
250.743933
11
30.085045
21
251.087656
0
LINE
8
annotation
62
1
39
211
10
30.085045
20
251.087656
11
30.085045
21
251.087656
0
LINE
8
annotation
62
1
39
211
10
30.085045
20
251.087656
11
30.066405
21
251.122345
0
LINE
8
annotation
62
1
39
211
10
30.066405
20
251.122345
11
30.045273
21
251.155510
0
LINE
8
annotation
62
1
39
211
10
30.045273
20
251.155510
11
30.021808
21
251.186987
0
LINE
8
annotation
62
1
39
211
10
30.021808
20
251.186987
11
29.996168
21
251.216615
0
LINE
8
annotation
62
1
39
211
10
29.996168
20
251.216615
11
29.968514
21
251.244230
0
LINE
8
annotation
62
1
39
211
10
29.968514
20
251.244230
11
29.939003
21
251.269668
0
LINE
8
annotation
62
1
39
211
10
29.939003
20
251.269668
11
29.907796
21
251.292767
0
LINE
8
annotation
62
1
39
211
10
29.907796
20
251.292767
11
29.875051
21
251.313365
0
LINE
8
annotation
62
1
39
211
10
29.875051
20
251.313365
11
29.840927
21
251.331296
0
LINE
8
annotation
62
1
39
211
10
29.840927
20
251.331296
11
29.840927
21
251.331296
0
LINE
8
annotation
62
1
39
211
10
29.840927
20
251.331296
11
29.751787
21
251.365073
0
LINE
8
annotation
62
1
39
211
10
29.751787
20
251.365073
11
29.660556
21
251.382059
0
LINE
8
annotation
62
1
39
211
10
29.660556
20
251.382059
11
29.569260
21
251.382929
0
LINE
8
annotation
62
1
39
211
10
29.569260
20
251.382929
11
29.479926
21
251.368355
0
LINE
8
annotation
62
1
39
211
10
29.479926
20
251.368355
11
29.394581
21
251.339012
0
LINE
8
annotation
62
1
39
211
10
29.394581
20
251.339012
11
29.315252
21
251.295573
0
LINE
8
annotation
62
1
39
211
10
29.315252
20
251.295573
11
29.243966
21
251.238711
0
LINE
8
annotation
62
1
39
211
10
29.243966
20
251.238711
11
29.182749
21
251.169102
0
LINE
8
annotation
62
1
39
211
10
29.182749
20
251.169102
11
29.133629
21
251.087417
0
LINE
8
annotation
62
1
39
211
10
29.133629
20
251.087417
11
29.133629
21
251.087417
0
LINE
8
annotation
62
1
39
211
10
29.133629
20
251.087417
11
28.987764
21
250.744401
0
LINE
8
annotation
62
1
39
211
10
28.987764
20
250.744401
11
28.878366
21
250.391437
0
LINE
8
annotation
62
1
39
211
10
28.878366
20
250.391437
11
28.805433
21
250.031340
0
LINE
8
annotation
62
1
39
211
10
28.805433
20
250.031340
11
28.768967
21
249.666924
0
LINE
8
annotation
62
1
39
211
10
28.768967
20
249.666924
11
28.768967
21
249.301003
0
LINE
8
annotation
62
1
39
211
10
28.768967
20
249.301003
11
28.805433
21
248.936393
0
LINE
8
annotation
62
1
39
211
10
28.805433
20
248.936393
11
28.878366
21
248.575907
0
LINE
8
annotation
62
1
39
211
10
28.878366
20
248.575907
11
28.987764
21
248.222360
0
LINE
8
annotation
62
1
39
211
10
28.987764
20
248.222360
11
29.133629
21
247.878566
0
LINE
8
annotation
62
1
39
211
10
29.133629
20
247.878566
11
29.133629
21
247.878566
0
LINE
8
annotation
62
1
39
211
10
29.133629
20
247.878566
11
29.152200
21
247.843946
0
LINE
8
annotation
62
1
39
211
10
29.152200
20
247.843946
11
29.173176
21
247.810946
0
LINE
8
annotation
62
1
39
211
10
29.173176
20
247.810946
11
29.196468
21
247.779667
0
LINE
8
annotation
62
1
39
211
10
29.196468
20
247.779667
11
29.221986
21
247.750209
0
LINE
8
annotation
62
1
39
211
10
29.221986
20
247.750209
11
29.249644
21
247.722671
0
LINE
8
annotation
62
1
39
211
10
29.249644
20
247.722671
11
29.279352
21
247.697154
0
LINE
8
annotation
62
1
39
211
10
29.279352
20
247.697154
11
29.311022
21
247.673759
0
LINE
8
annotation
62
1
39
211
10
29.311022
20
247.673759
11
29.344565
21
247.652585
0
LINE
8
annotation
62
1
39
211
10
29.344565
20
247.652585
11
29.379894
21
247.633732
0
LINE
8
annotation
62
1
39
211
10
23.001052
20
266.104082
11
20.954374
21
266.104082
0
LINE
8
annotation
62
1
39
211
10
20.954374
20
266.104082
11
22.845572
21
269.148668
0
LINE
8
annotation
62
1
39
211
10
22.845572
20
269.148668
11
22.845572
21
269.148668
0
LINE
8
annotation
62
1
39
211
10
22.845572
20
269.148668
11
22.847833
21
269.151465
0
LINE
8
annotation
62
1
39
211
10
22.847833
20
269.151465
11
22.850001
21
269.154287
0
LINE
8
annotation
62
1
39
211
10
22.850001
20
269.154287
11
22.852090
21
269.157156
0
LINE
8
annotation
62
1
39
211
10
22.852090
20
269.157156
11
22.854116
21
269.160096
0
LINE
8
annotation
62
1
39
211
10
22.854116
20
269.160096
11
22.856091
21
269.163131
0
LINE
8
annotation
62
1
39
211
10
22.856091
20
269.163131
11
22.858031
21
269.166286
0
LINE
8
annotation
62
1
39
211
10
22.858031
20
269.166286
11
22.859949
21
269.169583
0
LINE
8
annotation
62
1
39
211
10
22.859949
20
269.169583
11
22.861860
21
269.173046
0
LINE
8
annotation
62
1
39
211
10
22.861860
20
269.173046
11
22.863779
21
269.176700
0
LINE
8
annotation
62
1
39
211
10
22.863779
20
269.176700
11
22.863779
21
269.176700
0
LINE
8
annotation
62
1
39
211
10
22.863779
20
269.176700
11
22.941866
21
269.344360
0
LINE
8
annotation
62
1
39
211
10
22.941866
20
269.344360
11
22.987483
21
269.518154
0
LINE
8
annotation
62
1
39
211
10
22.987483
20
269.518154
11
23.001748
21
269.694155
0
LINE
8
annotation
62
1
39
211
10
23.001748
20
269.694155
11
22.985779
21
269.868437
0
LINE
8
annotation
62
1
39
211
10
22.985779
20
269.868437
11
22.940694
21
270.037072
0
LINE
8
annotation
62
1
39
211
10
22.940694
20
270.037072
11
22.867610
21
270.196133
0
LINE
8
annotation
62
1
39
211
10
22.867610
20
270.196133
11
22.767647
21
270.341693
0
LINE
8
annotation
62
1
39
211
10
22.767647
20
270.341693
11
22.641921
21
270.469825
0
LINE
8
annotation
62
1
39
211
10
22.641921
20
270.469825
11
22.491550
21
270.576603
0
LINE
8
annotation
62
1
39
211
10
22.491550
20
270.576603
11
22.491550
21
270.576603
0
LINE
8
annotation
62
1
39
211
10
22.491550
20
270.576603
11
22.323424
21
270.653580
0
LINE
8
annotation
62
1
39
211
10
22.323424
20
270.653580
11
22.149364
21
270.698495
0
LINE
8
annotation
62
1
39
211
10
22.149364
20
270.698495
11
21.973260
21
270.712357
0
LINE
8
annotation
62
1
39
211
10
21.973260
20
270.712357
11
21.799005
21
270.696177
0
LINE
8
annotation
62
1
39
211
10
21.799005
20
270.696177
11
21.630489
21
270.650967
0
LINE
8
annotation
62
1
39
211
10
21.630489
20
270.650967
11
21.471604
21
270.577737
0
LINE
8
annotation
62
1
39
211
10
21.471604
20
270.577737
11
21.326241
21
270.477499
0
LINE
8
annotation
62
1
39
211
10
21.326241
20
270.477499
11
21.198292
21
270.351263
0
LINE
8
annotation
62
1
39
211
10
21.198292
20
270.351263
11
21.091648
21
270.200039
0
LINE
8
annotation
62
1
39
211
10
21.091648
20
270.200039
11
20.957264
21
269.942254
0
LINE
8
annotation
62
1
39
211
10
25.754171
20
266.104120
11
25.754171
21
270.712469
0
LINE
8
annotation
62
1
39
211
10
25.754171
20
270.712469
11
24.729676
21
269.687685
0
LINE
8
annotation
62
1
39
211
10
18.374036
20
285.431014
11
16.686889
21
285.431014
0
LINE
8
annotation
62
1
39
211
10
16.686889
20
285.431014
11
18.245868
21
287.940770
0
LINE
8
annotation
62
1
39
211
10
18.245868
20
287.940770
11
18.245868
21
287.940770
0
LINE
8
annotation
62
1
39
211
10
18.245868
20
287.940770
11
18.247732
21
287.943077
0
LINE
8
annotation
62
1
39
211
10
18.247732
20
287.943077
11
18.249519
21
287.945402
0
LINE
8
annotation
62
1
39
211
10
18.249519
20
287.945402
11
18.251242
21
287.947767
0
LINE
8
annotation
62
1
39
211
10
18.251242
20
287.947767
11
18.252911
21
287.950191
0
LINE
8
annotation
62
1
39
211
10
18.252911
20
287.950191
11
18.254540
21
287.952693
0
LINE
8
annotation
62
1
39
211
10
18.254540
20
287.952693
11
18.256139
21
287.955294
0
LINE
8
annotation
62
1
39
211
10
18.256139
20
287.955294
11
18.257720
21
287.958012
0
LINE
8
annotation
62
1
39
211
10
18.257720
20
287.958012
11
18.259295
21
287.960867
0
LINE
8
annotation
62
1
39
211
10
18.259295
20
287.960867
11
18.260877
21
287.963879
0
LINE
8
annotation
62
1
39
211
10
18.260877
20
287.963879
11
18.260877
21
287.963879
0
LINE
8
annotation
62
1
39
211
10
18.260877
20
287.963879
11
18.325247
21
288.102086
0
LINE
8
annotation
62
1
39
211
10
18.325247
20
288.102086
11
18.362850
21
288.245351
0
LINE
8
annotation
62
1
39
211
10
18.362850
20
288.245351
11
18.374610
21
288.390435
0
LINE
8
annotation
62
1
39
211
10
18.374610
20
288.390435
11
18.361446
21
288.534101
0
LINE
8
annotation
62
1
39
211
10
18.361446
20
288.534101
11
18.324281
21
288.673113
0
LINE
8
annotation
62
1
39
211
10
18.324281
20
288.673113
11
18.264036
21
288.804232
0
LINE
8
annotation
62
1
39
211
10
18.264036
20
288.804232
11
18.181632
21
288.924222
0
LINE
8
annotation
62
1
39
211
10
18.181632
20
288.924222
11
18.077992
21
289.029846
0
LINE
8
annotation
62
1
39
211
10
18.077992
20
289.029846
11
17.954036
21
289.117867
0
LINE
8
annotation
62
1
39
211
10
17.954036
20
289.117867
11
17.954036
21
289.117867
0
LINE
8
annotation
62
1
39
211
10
17.954036
20
289.117867
11
17.815444
21
289.181322
0
LINE
8
annotation
62
1
39
211
10
17.815444
20
289.181322
11
17.671960
21
289.218346
0
LINE
8
annotation
62
1
39
211
10
17.671960
20
289.218346
11
17.526792
21
289.229773
0
LINE
8
annotation
62
1
39
211
10
17.526792
20
289.229773
11
17.383147
21
289.216436
0
LINE
8
annotation
62
1
39
211
10
17.383147
20
289.216436
11
17.244234
21
289.179168
0
LINE
8
annotation
62
1
39
211
10
17.244234
20
289.179168
11
17.113259
21
289.118802
0
LINE
8
annotation
62
1
39
211
10
17.113259
20
289.118802
11
16.993432
21
289.036172
0
LINE
8
annotation
62
1
39
211
10
16.993432
20
289.036172
11
16.887959
21
288.932111
0
LINE
8
annotation
62
1
39
211
10
16.887959
20
288.932111
11
16.800048
21
288.807453
0
LINE
8
annotation
62
1
39
211
10
16.800048
20
288.807453
11
16.689271
21
288.594951
0
LINE
8
annotation
62
1
39
211
10
21.486315
20
285.431014
11
19.799168
21
285.431014
0
LINE
8
annotation
62
1
39
211
10
19.799168
20
285.431014
11
21.358147
21
287.940770
0
LINE
8
annotation
62
1
39
211
10
21.358147
20
287.940770
11
21.358147
21
287.940770
0
LINE
8
annotation
62
1
39
211
10
21.358147
20
287.940770
11
21.360011
21
287.943077
0
LINE
8
annotation
62
1
39
211
10
21.360011
20
287.943077
11
21.361798
21
287.945402
0
LINE
8
annotation
62
1
39
211
10
21.361798
20
287.945402
11
21.363521
21
287.947767
0
LINE
8
annotation
62
1
39
211
10
21.363521
20
287.947767
11
21.365190
21
287.950191
0
LINE
8
annotation
62
1
39
211
10
21.365190
20
287.950191
11
21.366819
21
287.952693
0
LINE
8
annotation
62
1
39
211
10
21.366819
20
287.952693
11
21.368418
21
287.955294
0
LINE
8
annotation
62
1
39
211
10
21.368418
20
287.955294
11
21.369999
21
287.958012
0
LINE
8
annotation
62
1
39
211
10
21.369999
20
287.958012
11
21.371574
21
287.960867
0
LINE
8
annotation
62
1
39
211
10
21.371574
20
287.960867
11
21.373156
21
287.963879
0
LINE
8
annotation
62
1
39
211
10
21.373156
20
287.963879
11
21.373156
21
287.963879
0
LINE
8
annotation
62
1
39
211
10
21.373156
20
287.963879
11
21.437526
21
288.102086
0
LINE
8
annotation
62
1
39
211
10
21.437526
20
288.102086
11
21.475130
21
288.245351
0
LINE
8
annotation
62
1
39
211
10
21.475130
20
288.245351
11
21.486889
21
288.390435
0
LINE
8
annotation
62
1
39
211
10
21.486889
20
288.390435
11
21.473725
21
288.534101
0
LINE
8
annotation
62
1
39
211
10
21.473725
20
288.534101
11
21.436560
21
288.673113
0
LINE
8
annotation
62
1
39
211
10
21.436560
20
288.673113
11
21.376315
21
288.804232
0
LINE
8
annotation
62
1
39
211
10
21.376315
20
288.804232
11
21.293911
21
288.924222
0
LINE
8
annotation
62
1
39
211
10
21.293911
20
288.924222
11
21.190271
21
289.029846
0
LINE
8
annotation
62
1
39
211
10
21.190271
20
289.029846
11
21.066315
21
289.117867
0
LINE
8
annotation
62
1
39
211
10
21.066315
20
289.117867
11
21.066315
21
289.117867
0
LINE
8
annotation
62
1
39
211
10
21.066315
20
289.117867
11
20.927723
21
289.181322
0
LINE
8
annotation
62
1
39
211
10
20.927723
20
289.181322
11
20.784239
21
289.218346
0
LINE
8
annotation
62
1
39
211
10
20.784239
20
289.218346
11
20.639071
21
289.229773
0
LINE
8
annotation
62
1
39
211
10
20.639071
20
289.229773
11
20.495426
21
289.216436
0
LINE
8
annotation
62
1
39
211
10
20.495426
20
289.216436
11
20.356513
21
289.179168
0
LINE
8
annotation
62
1
39
211
10
20.356513
20
289.179168
11
20.225538
21
289.118802
0
LINE
8
annotation
62
1
39
211
10
20.225538
20
289.118802
11
20.105711
21
289.036172
0
LINE
8
annotation
62
1
39
211
10
20.105711
20
289.036172
11
20.000238
21
288.932111
0
LINE
8
annotation
62
1
39
211
10
20.000238
20
288.932111
11
19.912327
21
288.807453
0
LINE
8
annotation
62
1
39
211
10
19.912327
20
288.807453
11
19.801550
21
288.594951
0
LINE
8
annotation
62
1
39
211
10
14.332104
20
304.352947
11
12.644755
21
304.352947
0
LINE
8
annotation
62
1
39
211
10
12.644755
20
304.352947
11
14.203920
21
306.863004
0
LINE
8
annotation
62
1
39
211
10
14.203920
20
306.863004
11
14.203920
21
306.863004
0
LINE
8
annotation
62
1
39
211
10
14.203920
20
306.863004
11
14.205784
21
306.865311
0
LINE
8
annotation
62
1
39
211
10
14.205784
20
306.865311
11
14.207572
21
306.867637
0
LINE
8
annotation
62
1
39
211
10
14.207572
20
306.867637
11
14.209295
21
306.870002
0
LINE
8
annotation
62
1
39
211
10
14.209295
20
306.870002
11
14.210964
21
306.872426
0
LINE
8
annotation
62
1
39
211
10
14.210964
20
306.872426
11
14.212593
21
306.874929
0
LINE
8
annotation
62
1
39
211
10
14.212593
20
306.874929
11
14.214192
21
306.877529
0
LINE
8
annotation
62
1
39
211
10
14.214192
20
306.877529
11
14.215774
21
306.880248
0
LINE
8
annotation
62
1
39
211
10
14.215774
20
306.880248
11
14.217349
21
306.883103
0
LINE
8
annotation
62
1
39
211
10
14.217349
20
306.883103
11
14.218931
21
306.886115
0
LINE
8
annotation
62
1
39
211
10
14.218931
20
306.886115
11
14.218931
21
306.886115
0
LINE
8
annotation
62
1
39
211
10
14.218931
20
306.886115
11
14.283308
21
307.024340
0
LINE
8
annotation
62
1
39
211
10
14.283308
20
307.024340
11
14.320917
21
307.167621
0
LINE
8
annotation
62
1
39
211
10
14.320917
20
307.167621
11
14.332677
21
307.312722
0
LINE
8
annotation
62
1
39
211
10
14.332677
20
307.312722
11
14.319512
21
307.456406
0
LINE
8
annotation
62
1
39
211
10
14.319512
20
307.456406
11
14.282342
21
307.595434
0
LINE
8
annotation
62
1
39
211
10
14.282342
20
307.595434
11
14.222090
21
307.726569
0
LINE
8
annotation
62
1
39
211
10
14.222090
20
307.726569
11
14.139677
21
307.846574
0
LINE
8
annotation
62
1
39
211
10
14.139677
20
307.846574
11
14.036024
21
307.952210
0
LINE
8
annotation
62
1
39
211
10
14.036024
20
307.952210
11
13.912053
21
308.040241
0
LINE
8
annotation
62
1
39
211
10
13.912053
20
308.040241
11
13.912053
21
308.040241
0
LINE
8
annotation
62
1
39
211
10
13.912053
20
308.040241
11
13.773445
21
308.103704
0
LINE
8
annotation
62
1
39
211
10
13.773445
20
308.103704
11
13.629944
21
308.140733
0
LINE
8
annotation
62
1
39
211
10
13.629944
20
308.140733
11
13.484758
21
308.152161
0
LINE
8
annotation
62
1
39
211
10
13.484758
20
308.152161
11
13.341096
21
308.138822
0
LINE
8
annotation
62
1
39
211
10
13.341096
20
308.138822
11
13.202166
21
308.101550
0
LINE
8
annotation
62
1
39
211
10
13.202166
20
308.101550
11
13.071176
21
308.041177
0
LINE
8
annotation
62
1
39
211
10
13.071176
20
308.041177
11
12.951334
21
307.958537
0
LINE
8
annotation
62
1
39
211
10
12.951334
20
307.958537
11
12.845849
21
307.854463
0
LINE
8
annotation
62
1
39
211
10
12.845849
20
307.854463
11
12.757928
21
307.729790
0
LINE
8
annotation
62
1
39
211
10
12.757928
20
307.729790
11
12.647137
21
307.517263
0
LINE
8
annotation
62
1
39
211
10
15.757119
20
304.353098
11
16.600793
21
304.353098
0
LINE
8
annotation
62
1
39
211
10
16.600793
20
304.353098
11
16.600793
21
304.353098
0
LINE
8
annotation
62
1
39
211
10
16.600793
20
304.353098
11
16.752530
21
304.366709
0
LINE
8
annotation
62
1
39
211
10
16.752530
20
304.366709
11
16.895309
21
304.405939
0
LINE
8
annotation
62
1
39
211
10
16.895309
20
304.405939
11
17.026756
21
304.468379
0
LINE
8
annotation
62
1
39
211
10
17.026756
20
304.468379
11
17.144495
21
304.551622
0
LINE
8
annotation
62
1
39
211
10
17.144495
20
304.551622
11
17.246153
21
304.653258
0
LINE
8
annotation
62
1
39
211
10
17.246153
20
304.653258
11
17.329354
21
304.770880
0
LINE
8
annotation
62
1
39
211
10
17.329354
20
304.770880
11
17.391723
21
304.902080
0
LINE
8
annotation
62
1
39
211
10
17.391723
20
304.902080
11
17.430886
21
305.044449
0
LINE
8
annotation
62
1
39
211
10
17.430886
20
305.044449
11
17.444468
21
305.195581
0
LINE
8
annotation
62
1
39
211
10
17.444468
20
305.195581
11
17.444468
21
305.618014
0
LINE
8
annotation
62
1
39
211
10
17.444468
20
305.618014
11
17.444468
21
305.618014
0
LINE
8
annotation
62
1
39
211
10
17.444468
20
305.618014
11
17.430886
21
305.769082
0
LINE
8
annotation
62
1
39
211
10
17.430886
20
305.769082
11
17.391723
21
305.911418
0
LINE
8
annotation
62
1
39
211
10
17.391723
20
305.911418
11
17.329354
21
306.042609
0
LINE
8
annotation
62
1
39
211
10
17.329354
20
306.042609
11
17.246153
21
306.160238
0
LINE
8
annotation
62
1
39
211
10
17.246153
20
306.160238
11
17.144495
21
306.261894
0
LINE
8
annotation
62
1
39
211
10
17.144495
20
306.261894
11
17.026756
21
306.345162
0
LINE
8
annotation
62
1
39
211
10
17.026756
20
306.345162
11
16.895309
21
306.407628
0
LINE
8
annotation
62
1
39
211
10
16.895309
20
306.407628
11
16.752530
21
306.446877
0
LINE
8
annotation
62
1
39
211
10
16.752530
20
306.446877
11
16.600793
21
306.460497
0
LINE
8
annotation
62
1
39
211
10
16.600793
20
306.460497
11
16.178360
21
306.460497
0
LINE
8
annotation
62
1
39
211
10
16.178360
20
306.460497
11
16.600793
21
306.460497
0
LINE
8
annotation
62
1
39
211
10
16.600793
20
306.460497
11
16.600793
21
306.460497
0
LINE
8
annotation
62
1
39
211
10
16.600793
20
306.460497
11
16.752530
21
306.474120
0
LINE
8
annotation
62
1
39
211
10
16.752530
20
306.474120
11
16.895309
21
306.513392
0
LINE
8
annotation
62
1
39
211
10
16.895309
20
306.513392
11
17.026756
21
306.575920
0
LINE
8
annotation
62
1
39
211
10
17.026756
20
306.575920
11
17.144495
21
306.659309
0
LINE
8
annotation
62
1
39
211
10
17.144495
20
306.659309
11
17.246153
21
306.761164
0
LINE
8
annotation
62
1
39
211
10
17.246153
20
306.761164
11
17.329354
21
306.879091
0
LINE
8
annotation
62
1
39
211
10
17.329354
20
306.879091
11
17.391723
21
307.010696
0
LINE
8
annotation
62
1
39
211
10
17.391723
20
307.010696
11
17.430886
21
307.153585
0
LINE
8
annotation
62
1
39
211
10
17.430886
20
307.153585
11
17.444468
21
307.305363
0
LINE
8
annotation
62
1
39
211
10
17.444468
20
307.305363
11
17.444468
21
307.305363
0
LINE
8
annotation
62
1
39
211
10
17.444468
20
307.305363
11
17.430886
21
307.456431
0
LINE
8
annotation
62
1
39
211
10
17.430886
20
307.456431
11
17.391723
21
307.598768
0
LINE
8
annotation
62
1
39
211
10
17.391723
20
307.598768
11
17.329354
21
307.729958
0
LINE
8
annotation
62
1
39
211
10
17.329354
20
307.729958
11
17.246153
21
307.847588
0
LINE
8
annotation
62
1
39
211
10
17.246153
20
307.847588
11
17.144495
21
307.949243
0
LINE
8
annotation
62
1
39
211
10
17.144495
20
307.949243
11
17.026756
21
308.032511
0
LINE
8
annotation
62
1
39
211
10
17.026756
20
308.032511
11
16.895309
21
308.094977
0
LINE
8
annotation
62
1
39
211
10
16.895309
20
308.094977
11
16.752530
21
308.134226
0
LINE
8
annotation
62
1
39
211
10
16.752530
20
308.134226
11
16.600793
21
308.147846
0
LINE
8
annotation
62
1
39
211
10
16.600793
20
308.147846
11
15.757119
21
308.147846
0
LINE
8
annotation
62
1
39
211
10
10.969125
20
323.428689
11
9.418191
21
323.428689
0
LINE
8
annotation
62
1
39
211
10
9.418191
20
323.428689
11
10.851304
21
325.735818
0
LINE
8
annotation
62
1
39
211
10
10.851304
20
325.735818
11
10.851304
21
325.735818
0
LINE
8
annotation
62
1
39
211
10
10.851304
20
325.735818
11
10.853018
21
325.737938
0
LINE
8
annotation
62
1
39
211
10
10.853018
20
325.737938
11
10.854661
21
325.740076
0
LINE
8
annotation
62
1
39
211
10
10.854661
20
325.740076
11
10.856244
21
325.742250
0
LINE
8
annotation
62
1
39
211
10
10.856244
20
325.742250
11
10.857779
21
325.744478
0
LINE
8
annotation
62
1
39
211
10
10.857779
20
325.744478
11
10.859276
21
325.746778
0
LINE
8
annotation
62
1
39
211
10
10.859276
20
325.746778
11
10.860746
21
325.749168
0
LINE
8
annotation
62
1
39
211
10
10.860746
20
325.749168
11
10.862199
21
325.751667
0
LINE
8
annotation
62
1
39
211
10
10.862199
20
325.751667
11
10.863648
21
325.754291
0
LINE
8
annotation
62
1
39
211
10
10.863648
20
325.754291
11
10.865101
21
325.757060
0
LINE
8
annotation
62
1
39
211
10
10.865101
20
325.757060
11
10.865101
21
325.757060
0
LINE
8
annotation
62
1
39
211
10
10.865101
20
325.757060
11
10.924274
21
325.884110
0
LINE
8
annotation
62
1
39
211
10
10.924274
20
325.884110
11
10.958842
21
326.015807
0
LINE
8
annotation
62
1
39
211
10
10.958842
20
326.015807
11
10.969652
21
326.149178
0
LINE
8
annotation
62
1
39
211
10
10.969652
20
326.149178
11
10.957551
21
326.281245
0
LINE
8
annotation
62
1
39
211
10
10.957551
20
326.281245
11
10.923386
21
326.409033
0
LINE
8
annotation
62
1
39
211
10
10.923386
20
326.409033
11
10.868005
21
326.529566
0
LINE
8
annotation
62
1
39
211
10
10.868005
20
326.529566
11
10.792254
21
326.639869
0
LINE
8
annotation
62
1
39
211
10
10.792254
20
326.639869
11
10.696982
21
326.736965
0
LINE
8
annotation
62
1
39
211
10
10.696982
20
326.736965
11
10.583034
21
326.817879
0
LINE
8
annotation
62
1
39
211
10
10.583034
20
326.817879
11
10.583034
21
326.817879
0
LINE
8
annotation
62
1
39
211
10
10.583034
20
326.817879
11
10.455631
21
326.876211
0
LINE
8
annotation
62
1
39
211
10
10.455631
20
326.876211
11
10.323732
21
326.910247
0
LINE
8
annotation
62
1
39
211
10
10.323732
20
326.910247
11
10.190284
21
326.920751
0
LINE
8
annotation
62
1
39
211
10
10.190284
20
326.920751
11
10.058236
21
326.908490
0
LINE
8
annotation
62
1
39
211
10
10.058236
20
326.908490
11
9.930538
21
326.874231
0
LINE
8
annotation
62
1
39
211
10
9.930538
20
326.874231
11
9.810138
21
326.818739
0
LINE
8
annotation
62
1
39
211
10
9.810138
20
326.818739
11
9.699985
21
326.742780
0
LINE
8
annotation
62
1
39
211
10
9.699985
20
326.742780
11
9.603028
21
326.647121
0
LINE
8
annotation
62
1
39
211
10
9.603028
20
326.647121
11
9.522215
21
326.532527
0
LINE
8
annotation
62
1
39
211
10
9.522215
20
326.532527
11
9.420381
21
326.337182
0
LINE
8
annotation
62
1
39
211
10
14.217928
20
324.205060
11
12.278933
21
324.205060
0
LINE
8
annotation
62
1
39
211
10
12.278933
20
324.205060
11
13.053304
21
326.920836
0
LINE
8
annotation
62
1
39
211
10
13.636711
20
323.428718
11
13.636711
21
324.979651
0
LINE
8
annotation
62
1
39
211
10
24.393375
20
274.967130
11
21.088014
21
274.967130
0
LINE
8
annotation
62
1
39
211
10
21.088014
20
274.967130
11
24.393375
21
280.920065
0
LINE
8
annotation
62
1
39
211
10
24.393375
20
280.920065
11
21.088014
21
280.920065
0
LINE
8
annotation
62
1
39
211
10
29.881249
20
277.943598
11
26.626286
21
277.943598
0
LINE
8
annotation
62
1
39
211
10
32.773067
20
274.967130
11
32.773067
21
274.967130
0
LINE
8
annotation
62
1
39
211
10
32.773067
20
274.967130
11
33.151097
21
275.108003
0
LINE
8
annotation
62
1
39
211
10
33.151097
20
275.108003
11
33.498082
21
275.298418
0
LINE
8
annotation
62
1
39
211
10
33.498082
20
275.298418
11
33.810436
21
275.533523
0
LINE
8
annotation
62
1
39
211
10
33.810436
20
275.533523
11
34.084573
21
275.808468
0
LINE
8
annotation
62
1
39
211
10
34.084573
20
275.808468
11
34.316908
21
276.118400
0
LINE
8
annotation
62
1
39
211
10
34.316908
20
276.118400
11
34.503854
21
276.458468
0
LINE
8
annotation
62
1
39
211
10
34.503854
20
276.458468
11
34.641827
21
276.823820
0
LINE
8
annotation
62
1
39
211
10
34.641827
20
276.823820
11
34.727240
21
277.209605
0
LINE
8
annotation
62
1
39
211
10
34.727240
20
277.209605
11
34.756508
21
277.610971
0
LINE
8
annotation
62
1
39
211
10
34.756508
20
277.610971
11
34.756508
21
279.596278
0
LINE
8
annotation
62
1
39
211
10
34.756508
20
279.596278
11
34.756508
21
279.596278
0
LINE
8
annotation
62
1
39
211
10
34.756508
20
279.596278
11
34.735227
21
279.834093
0
LINE
8
annotation
62
1
39
211
10
34.735227
20
279.834093
11
34.673864
21
280.057980
0
LINE
8
annotation
62
1
39
211
10
34.673864
20
280.057980
11
34.576140
21
280.264186
0
LINE
8
annotation
62
1
39
211
10
34.576140
20
280.264186
11
34.445776
21
280.448962
0
LINE
8
annotation
62
1
39
211
10
34.445776
20
280.448962
11
34.286493
21
280.608555
0
LINE
8
annotation
62
1
39
211
10
34.286493
20
280.608555
11
34.102011
21
280.739213
0
LINE
8
annotation
62
1
39
211
10
34.102011
20
280.739213
11
33.896053
21
280.837186
0
LINE
8
annotation
62
1
39
211
10
33.896053
20
280.837186
11
33.672338
21
280.898720
0
LINE
8
annotation
62
1
39
211
10
33.672338
20
280.898720
11
33.434587
21
280.920065
0
LINE
8
annotation
62
1
39
211
10
33.434587
20
280.920065
11
33.434587
21
280.920065
0
LINE
8
annotation
62
1
39
211
10
33.434587
20
280.920065
11
33.197328
21
280.898720
0
LINE
8
annotation
62
1
39
211
10
33.197328
20
280.898720
11
32.973874
21
280.837186
0
LINE
8
annotation
62
1
39
211
10
32.973874
20
280.837186
11
32.767993
21
280.739213
0
LINE
8
annotation
62
1
39
211
10
32.767993
20
280.739213
11
32.583450
21
280.608555
0
LINE
8
annotation
62
1
39
211
10
32.583450
20
280.608555
11
32.424013
21
280.448962
0
LINE
8
annotation
62
1
39
211
10
32.424013
20
280.448962
11
32.293450
21
280.264186
0
LINE
8
annotation
62
1
39
211
10
32.293450
20
280.264186
11
32.195526
21
280.057980
0
LINE
8
annotation
62
1
39
211
10
32.195526
20
280.057980
11
32.134009
21
279.834093
0
LINE
8
annotation
62
1
39
211
10
32.134009
20
279.834093
11
32.112667
21
279.596278
0
LINE
8
annotation
62
1
39
211
10
32.112667
20
279.596278
11
32.112667
21
278.934385
0
LINE
8
annotation
62
1
39
211
10
32.112667
20
278.934385
11
32.112667
21
278.934385
0
LINE
8
annotation
62
1
39
211
10
32.112667
20
278.934385
11
32.134009
21
278.696583
0
LINE
8
annotation
62
1
39
211
10
32.134009
20
278.696583
11
32.195526
21
278.472731
0
LINE
8
annotation
62
1
39
211
10
32.195526
20
278.472731
11
32.293450
21
278.266573
0
LINE
8
annotation
62
1
39
211
10
32.293450
20
278.266573
11
32.424013
21
278.081857
0
LINE
8
annotation
62
1
39
211
10
32.424013
20
278.081857
11
32.583450
21
277.922326
0
LINE
8
annotation
62
1
39
211
10
32.583450
20
277.922326
11
32.767993
21
277.791726
0
LINE
8
annotation
62
1
39
211
10
32.767993
20
277.791726
11
32.973874
21
277.693804
0
LINE
8
annotation
62
1
39
211
10
32.973874
20
277.693804
11
33.197328
21
277.632303
0
LINE
8
annotation
62
1
39
211
10
33.197328
20
277.632303
11
33.434587
21
277.610971
0
LINE
8
annotation
62
1
39
211
10
33.434587
20
277.610971
11
34.756508
21
277.610971
0
LINE
8
annotation
62
1
39
211
10
31.947473
20
274.223013
11
34.923941
21
274.223013
0
LINE
8
boundary
62
5
39
2
10
125.281508
20
334.558310
11
125.385356
21
333.788765
0
LINE
8
boundary
62
5
39
2
10
125.385356
20
333.788765
11
125.535685
21
332.656447
0
LINE
8
boundary
62
5
39
2
10
125.535685
20
332.656447
11
125.786036
21
330.978856
0
LINE
8
boundary
62
5
39
2
10
125.786036
20
330.978856
11
126.030592
21
329.424512
0
LINE
8
boundary
62
5
39
2
10
126.030592
20
329.424512
11
126.250583
21
328.100230
0
LINE
8
boundary
62
5
39
2
10
126.250583
20
328.100230
11
126.361540
21
327.437509
0
LINE
8
boundary
62
5
39
2
10
126.361540
20
327.437509
11
126.484146
21
326.745798
0
LINE
8
boundary
62
5
39
2
10
126.484146
20
326.745798
11
126.659026
21
325.751167
0
LINE
8
boundary
62
5
39
2
10
126.659026
20
325.751167
11
126.977922
21
324.015033
0
LINE
8
boundary
62
5
39
2
10
126.977922
20
324.015033
11
127.268922
21
322.477101
0
LINE
8
boundary
62
5
39
2
10
127.268922
20
322.477101
11
127.559820
21
320.972169
0
LINE
8
boundary
62
5
39
2
10
127.559820
20
320.972169
11
127.686078
21
320.318476
0
LINE
8
boundary
62
5
39
2
10
127.686078
20
320.318476
11
127.862357
21
319.436822
0
LINE
8
boundary
62
5
39
2
10
127.862357
20
319.436822
11
128.070088
21
318.390174
0
LINE
8
boundary
62
5
39
2
10
128.070088
20
318.390174
11
128.231778
21
317.601608
0
LINE
8
boundary
62
5
39
2
10
128.231778
20
317.601608
11
128.476552
21
316.386970
0
LINE
8
boundary
62
5
39
2
10
128.476552
20
316.386970
11
128.812379
21
314.767101
0
LINE
8
boundary
62
5
39
2
10
128.812379
20
314.767101
11
129.110501
21
313.344761
0
LINE
8
boundary
62
5
39
2
10
129.110501
20
313.344761
11
129.339917
21
312.247029
0
LINE
8
boundary
62
5
39
2
10
129.339917
20
312.247029
11
129.801613
21
310.068302
0
LINE
8
boundary
62
5
39
2
10
129.801613
20
310.068302
11
129.958238
21
309.333204
0
LINE
8
boundary
62
5
39
2
10
129.958238
20
309.333204
11
130.277525
21
307.847514
0
LINE
8
boundary
62
5
39
2
10
130.277525
20
307.847514
11
130.546252
21
306.601178
0
LINE
8
boundary
62
5
39
2
10
130.546252
20
306.601178
11
130.766657
21
305.587285
0
LINE
8
boundary
62
5
39
2
10
130.766657
20
305.587285
11
131.153474
21
303.811969
0
LINE
8
boundary
62
5
39
2
10
131.153474
20
303.811969
11
131.268038
21
303.290222
0
LINE
8
boundary
62
5
39
2
10
131.268038
20
303.290222
11
131.778189
21
300.970312
0
LINE
8
boundary
62
5
39
2
10
131.778189
20
300.970312
11
132.310758
21
298.555660
0
LINE
8
boundary
62
5
39
2
10
132.310758
20
298.555660
11
132.429412
21
298.015618
0
LINE
8
boundary
62
5
39
2
10
132.429412
20
298.015618
11
132.848871
21
296.125315
0
LINE
8
boundary
62
5
39
2
10
132.848871
20
296.125315
11
133.092480
21
295.022965
0
LINE
8
boundary
62
5
39
2
10
133.092480
20
295.022965
11
133.393930
21
293.671630
0
LINE
8
boundary
62
5
39
2
10
133.393930
20
293.671630
11
133.765379
21
291.999117
0
LINE
8
boundary
62
5
39
2
10
133.765379
20
291.999117
11
133.945050
21
291.197267
0
LINE
8
boundary
62
5
39
2
10
133.945050
20
291.197267
11
134.446426
21
288.949308
0
LINE
8
boundary
62
5
39
2
10
134.446426
20
288.949308
11
134.745228
21
287.615504
0
LINE
8
boundary
62
5
39
2
10
134.745228
20
287.615504
11
135.066213
21
286.183354
0
LINE
8
boundary
62
5
39
2
10
135.066213
20
286.183354
11
135.636609
21
283.640919
0
LINE
8
boundary
62
5
39
2
10
135.636609
20
283.640919
11
135.834270
21
282.753985
0
LINE
8
boundary
62
5
39
2
10
135.834270
20
282.753985
11
136.208339
21
281.091655
0
LINE
8
boundary
62
5
39
2
10
136.208339
20
281.091655
11
136.531992
21
279.642068
0
LINE
8
boundary
62
5
39
2
10
136.531992
20
279.642068
11
136.780733
21
278.537987
0
LINE
8
boundary
62
5
39
2
10
136.780733
20
278.537987
11
137.926157
21
273.425965
0
LINE
8
boundary
62
5
39
2
10
137.926157
20
273.425965
11
138.310064
21
271.719124
0
LINE
8
boundary
62
5
39
2
10
138.310064
20
271.719124
11
138.620710
21
270.330754
0
LINE
8
boundary
62
5
39
2
10
138.620710
20
270.330754
11
139.837094
21
264.923603
0
LINE
8
boundary
62
5
39
2
10
139.837094
20
264.923603
11
140.771394
21
260.744255
0
LINE
8
boundary
62
5
39
2
10
140.771394
20
260.744255
11
140.965548
21
259.879747
0
LINE
8
boundary
62
5
39
2
10
140.965548
20
259.879747
11
141.370395
21
258.065758
0
LINE
8
boundary
62
5
39
2
10
141.370395
20
258.065758
11
142.080741
21
254.896389
0
LINE
8
boundary
62
5
39
2
10
142.080741
20
254.896389
11
142.377769
21
253.564775
0
LINE
8
boundary
62
5
39
2
10
142.377769
20
253.564775
11
143.176840
21
249.990439
0
LINE
8
boundary
62
5
39
2
10
143.176840
20
249.990439
11
143.482788
21
248.617694
0
LINE
8
boundary
62
5
39
2
10
143.482788
20
248.617694
11
143.716390
21
247.569972
0
LINE
8
boundary
62
5
39
2
10
143.716390
20
247.569972
11
144.106987
21
245.816238
0
LINE
8
boundary
62
5
39
2
10
144.106987
20
245.816238
11
144.250146
21
245.172668
0
LINE
8
boundary
62
5
39
2
10
144.250146
20
245.172668
11
144.721038
21
243.056597
0
LINE
8
boundary
62
5
39
2
10
144.721038
20
243.056597
11
145.139635
21
241.172908
0
LINE
8
boundary
62
5
39
2
10
145.139635
20
241.172908
11
145.300314
21
240.452452
0
LINE
8
boundary
62
5
39
2
10
145.300314
20
240.452452
11
145.817061
21
238.133200
0
LINE
8
boundary
62
5
39
2
10
145.817061
20
238.133200
11
146.327909
21
235.840569
0
LINE
8
boundary
62
5
39
2
10
146.327909
20
235.840569
11
146.498037
21
235.082903
0
LINE
8
boundary
62
5
39
2
10
146.498037
20
235.082903
11
146.833810
21
233.572825
0
LINE
8
boundary
62
5
39
2
10
146.833810
20
233.572825
11
147.072735
21
232.510795
0
LINE
8
boundary
62
5
39
2
10
147.072735
20
232.510795
11
147.335686
21
231.328204
0
LINE
8
boundary
62
5
39
2
10
147.335686
20
231.328204
11
147.640985
21
229.974320
0
LINE
8
boundary
62
5
39
2
10
147.640985
20
229.974320
11
147.834391
21
229.105013
0
LINE
8
boundary
62
5
39
2
10
147.834391
20
229.105013
11
148.203985
21
227.470551
0
LINE
8
boundary
62
5
39
2
10
148.203985
20
227.470551
11
148.330700
21
226.901660
0
LINE
8
boundary
62
5
39
2
10
148.330700
20
226.901660
11
149.116112
21
223.441219
0
LINE
8
boundary
62
5
39
2
10
149.116112
20
223.441219
11
149.322247
21
222.535096
0
LINE
8
boundary
62
5
39
2
10
149.322247
20
222.535096
11
149.976337
21
219.683467
0
LINE
8
boundary
62
5
39
2
10
149.976337
20
219.683467
11
150.124127
21
219.055214
0
LINE
8
boundary
62
5
39
2
10
150.124127
20
219.055214
11
150.798662
21
216.136460
0
LINE
8
boundary
62
5
39
2
10
150.798662
20
216.136460
11
151.128432
21
214.747787
0
LINE
8
boundary
62
5
39
2
10
151.128432
20
214.747787
11
151.623837
21
212.622111
0
LINE
8
boundary
62
5
39
2
10
151.623837
20
212.622111
11
152.133048
21
210.498794
0
LINE
8
boundary
62
5
39
2
10
152.133048
20
210.498794
11
152.453868
21
209.134886
0
LINE
8
boundary
62
5
39
2
10
152.453868
20
209.134886
11
153.141584
21
206.296241
0
LINE
8
boundary
62
5
39
2
10
153.141584
20
206.296241
11
153.290445
21
205.669651
0
LINE
8
boundary
62
5
39
2
10
153.290445
20
205.669651
11
154.024504
21
202.671009
0
LINE
8
boundary
62
5
39
2
10
154.024504
20
202.671009
11
154.158414
21
202.128042
0
LINE
8
boundary
62
5
39
2
10
154.158414
20
202.128042
11
154.987082
21
198.786337
0
LINE
8
boundary
62
5
39
2
10
154.987082
20
198.786337
11
155.193972
21
197.974090
0
LINE
8
boundary
62
5
39
2
10
155.193972
20
197.974090
11
155.849094
21
195.359288
0
LINE
8
boundary
62
5
39
2
10
155.849094
20
195.359288
11
156.242861
21
193.827182
0
LINE
8
boundary
62
5
39
2
10
156.242861
20
193.827182
11
156.721497
21
191.936218
0
LINE
8
boundary
62
5
39
2
10
156.721497
20
191.936218
11
157.306776
21
189.678227
0
LINE
8
boundary
62
5
39
2
10
157.306776
20
189.678227
11
157.604669
21
188.513113
0
LINE
8
boundary
62
5
39
2
10
157.604669
20
188.513113
11
157.957435
21
187.161257
0
LINE
8
boundary
62
5
39
2
10
157.957435
20
187.161257
11
158.448273
21
185.281102
0
LINE
8
boundary
62
5
39
2
10
158.448273
20
185.281102
11
158.942507
21
183.397894
0
LINE
8
boundary
62
5
39
2
10
158.942507
20
183.397894
11
159.402372
21
181.651525
0
LINE
8
boundary
62
5
39
2
10
159.402372
20
181.651525
11
159.857298
21
179.930253
0
LINE
8
boundary
62
5
39
2
10
159.857298
20
179.930253
11
160.314608
21
178.205960
0
LINE
8
boundary
62
5
39
2
10
160.314608
20
178.205960
11
160.449595
21
177.700411
0
LINE
8
boundary
62
5
39
2
10
160.449595
20
177.700411
11
160.774163
21
176.478251
0
LINE
8
boundary
62
5
39
2
10
160.774163
20
176.478251
11
160.958203
21
175.789667
0
LINE
8
boundary
62
5
39
2
10
160.958203
20
175.789667
11
161.235847
21
174.746739
0
LINE
8
boundary
62
5
39
2
10
161.235847
20
174.746739
11
161.469698
21
173.872339
0
LINE
8
boundary
62
5
39
2
10
161.469698
20
173.872339
11
161.699481
21
173.011074
0
LINE
8
boundary
62
5
39
2
10
161.699481
20
173.011074
11
161.983927
21
171.947830
0
LINE
8
boundary
62
5
39
2
10
161.983927
20
171.947830
11
162.164877
21
171.270903
0
LINE
8
boundary
62
5
39
2
10
162.164877
20
171.270903
11
162.500719
21
170.015616
0
LINE
8
boundary
62
5
39
2
10
162.500719
20
170.015616
11
163.019978
21
168.075134
0
LINE
8
boundary
62
5
39
2
10
163.019978
20
168.075134
11
163.541639
21
166.125900
0
LINE
8
boundary
62
5
39
2
10
163.541639
20
166.125900
11
163.822814
21
165.075270
0
LINE
8
boundary
62
5
39
2
10
163.822814
20
165.075270
11
164.040088
21
164.259219
0
LINE
8
boundary
62
5
39
2
10
164.040088
20
164.259219
11
164.510150
21
162.492777
0
LINE
8
boundary
62
5
39
2
10
164.510150
20
162.492777
11
164.981260
21
160.720467
0
LINE
8
boundary
62
5
39
2
10
164.981260
20
160.720467
11
165.119426
21
160.196932
0
LINE
8
boundary
62
5
39
2
10
165.119426
20
160.196932
11
165.453356
21
158.942059
0
LINE
8
boundary
62
5
39
2
10
165.453356
20
158.942059
11
165.649335
21
158.198656
0
LINE
8
boundary
62
5
39
2
10
165.649335
20
158.198656
11
165.926386
21
157.157405
0
LINE
8
boundary
62
5
39
2
10
165.926386
20
157.157405
11
166.181253
21
156.189676
0
LINE
8
boundary
62
5
39
2
10
166.181253
20
156.189676
11
166.400302
21
155.366332
0
LINE
8
boundary
62
5
39
2
10
166.400302
20
155.366332
11
166.715202
21
154.169646
0
LINE
8
boundary
62
5
39
2
10
166.715202
20
154.169646
11
166.875060
21
153.568749
0
LINE
8
boundary
62
5
39
2
10
166.875060
20
153.568749
11
167.740843
21
150.277580
0
LINE
8
boundary
62
5
39
2
10
167.740843
20
150.277580
11
168.111120
21
148.872519
0
LINE
8
boundary
62
5
39
2
10
168.111120
20
148.872519
11
168.778458
21
146.314901
0
LINE
8
boundary
62
5
39
2
10
168.778458
20
146.314901
11
169.408220
21
143.890768
0
LINE
8
boundary
62
5
39
2
10
169.408220
20
143.890768
11
169.731292
21
142.651915
0
LINE
8
boundary
62
5
39
2
10
169.731292
20
142.651915
11
170.059679
21
141.387979
0
LINE
8
boundary
62
5
39
2
10
170.059679
20
141.387979
11
170.684248
21
138.967532
0
LINE
8
boundary
62
5
39
2
10
170.684248
20
138.967532
11
171.357430
21
136.351380
0
LINE
8
boundary
62
5
39
2
10
171.357430
20
136.351380
11
171.638817
21
135.261821
0
LINE
8
boundary
62
5
39
2
10
171.638817
20
135.261821
11
171.889275
21
134.290339
0
LINE
8
boundary
62
5
39
2
10
171.889275
20
134.290339
11
172.592693
21
131.541156
0
LINE
8
boundary
62
5
39
2
10
172.592693
20
131.541156
11
173.197421
21
129.174299
0
LINE
8
boundary
62
5
39
2
10
173.197421
20
129.174299
11
173.549082
21
127.804192
0
LINE
8
boundary
62
5
39
2
10
173.549082
20
127.804192
11
173.940449
21
126.279502
0
LINE
8
boundary
62
5
39
2
10
173.940449
20
126.279502
11
174.505837
21
124.059093
0
LINE
8
boundary
62
5
39
2
10
174.505837
20
124.059093
11
175.067629
21
121.858823
0
LINE
8
boundary
62
5
39
2
10
175.067629
20
121.858823
11
175.465238
21
120.307210
0
LINE
8
boundary
62
5
39
2
10
175.465238
20
120.307210
11
175.848540
21
118.818324
0
LINE
8
boundary
62
5
39
2
10
175.848540
20
118.818324
11
176.426153
21
116.556927
0
LINE
8
boundary
62
5
39
2
10
176.426153
20
116.556927
11
177.106337
21
113.914701
0
LINE
8
boundary
62
5
39
2
10
177.106337
20
113.914701
11
177.391692
21
112.809021
0
LINE
8
boundary
62
5
39
2
10
177.391692
20
112.809021
11
177.624236
21
111.915477
0
LINE
8
boundary
62
5
39
2
10
177.624236
20
111.915477
11
178.165588
21
109.820389
0
LINE
8
boundary
62
5
39
2
10
178.165588
20
109.820389
11
178.642183
21
107.993567
0
LINE
8
boundary
62
5
39
2
10
178.642183
20
107.993567
11
178.944268
21
106.837997
0
LINE
8
boundary
62
5
39
2
10
178.944268
20
106.837997
11
179.274382
21
105.589346
0
LINE
8
boundary
62
5
39
2
10
179.274382
20
105.589346
11
179.726678
21
103.865855
0
LINE
8
boundary
62
5
39
2
10
179.726678
20
103.865855
11
180.199124
21
102.090641
0
LINE
8
boundary
62
5
39
2
10
180.199124
20
102.090641
11
180.515229
21
100.904071
0
LINE
8
boundary
62
5
39
2
10
180.515229
20
100.904071
11
180.806253
21
99.828393
0
LINE
8
boundary
62
5
39
2
10
180.806253
20
99.828393
11
181.309680
21
97.953676
0
LINE
8
boundary
62
5
39
2
10
181.309680
20
97.953676
11
181.958071
21
95.579555
0
LINE
8
boundary
62
5
39
2
10
181.958071
20
95.579555
11
182.112036
21
95.015890
0
LINE
8
boundary
62
5
39
2
10
182.112036
20
95.015890
11
182.919791
21
92.090043
0
LINE
8
boundary
62
5
39
2
10
182.919791
20
92.090043
11
183.550179
21
89.845063
0
LINE
8
boundary
62
5
39
2
10
183.550179
20
89.845063
11
183.736103
21
89.177772
0
LINE
8
boundary
62
5
39
2
10
183.736103
20
89.177772
11
184.100422
21
87.894697
0
LINE
8
boundary
62
5
39
2
10
184.100422
20
87.894697
11
184.559770
21
86.275883
0
LINE
8
boundary
62
5
39
2
10
184.559770
20
86.275883
11
184.788997
21
85.483242
0
LINE
8
boundary
62
5
39
2
10
184.788997
20
85.483242
11
185.392541
21
83.377835
0
LINE
8
boundary
62
5
39
2
10
185.392541
20
83.377835
11
186.336572
21
80.179716
0
LINE
8
boundary
62
5
39
2
10
186.336572
20
80.179716
11
187.090210
21
77.609460
0
LINE
8
boundary
62
5
39
2
10
187.090210
20
77.609460
11
187.793287
21
75.303299
0
LINE
8
boundary
62
5
39
2
10
187.793287
20
75.303299
11
188.834428
21
71.882137
0
LINE
8
boundary
62
5
39
2
10
188.834428
20
71.882137
11
189.878337
21
68.575082
0
LINE
8
boundary
62
5
39
2
10
189.878337
20
68.575082
11
190.635284
21
66.190768
0
LINE
8
boundary
62
5
39
2
10
190.635284
20
66.190768
11
190.896030
21
65.393756
0
LINE
8
boundary
62
5
39
2
10
190.896030
20
65.393756
11
191.324375
21
64.083999
0
LINE
8
boundary
62
5
39
2
10
191.324375
20
64.083999
11
191.922058
21
62.294679
0
LINE
8
boundary
62
5
39
2
10
191.922058
20
62.294679
11
192.222418
21
61.410622
0
LINE
8
boundary
62
5
39
2
10
192.222418
20
61.410622
11
192.722459
21
59.944022
0
LINE
8
boundary
62
5
39
2
10
192.722459
20
59.944022
11
192.958095
21
59.266905
0
LINE
8
boundary
62
5
39
2
10
192.958095
20
59.266905
11
193.434627
21
57.901481
0
LINE
8
boundary
62
5
39
2
10
193.434627
20
57.901481
11
194.000132
21
56.311303
0
LINE
8
boundary
62
5
39
2
10
194.000132
20
56.311303
11
194.429725
21
55.123003
0
LINE
8
boundary
62
5
39
2
10
194.429725
20
55.123003
11
194.843637
21
53.981693
0
LINE
8
boundary
62
5
39
2
10
194.843637
20
53.981693
11
195.044826
21
53.437665
0
LINE
8
boundary
62
5
39
2
10
195.044826
20
53.437665
11
195.520028
21
52.162797
0
LINE
8
boundary
62
5
39
2
10
195.520028
20
52.162797
11
196.077864
21
50.698249
0
LINE
8
boundary
62
5
39
2
10
196.077864
20
50.698249
11
196.798627
21
48.843927
0
LINE
8
boundary
62
5
39
2
10
196.798627
20
48.843927
11
197.093263
21
48.103389
0
LINE
8
boundary
62
5
39
2
10
197.093263
20
48.103389
11
197.320187
21
47.533581
0
LINE
8
boundary
62
5
39
2
10
197.320187
20
47.533581
11
197.752021
21
46.453659
0
LINE
8
boundary
62
5
39
2
10
197.752021
20
46.453659
11
198.106042
21
45.579931
0
LINE
8
boundary
62
5
39
2
10
198.106042
20
45.579931
11
198.339714
21
45.005995
0
LINE
8
boundary
62
5
39
2
10
198.339714
20
45.005995
11
198.693119
21
44.148934
0
LINE
8
boundary
62
5
39
2
10
198.693119
20
44.148934
11
198.950597
21
43.522409
0
LINE
8
boundary
62
5
39
2
10
198.950597
20
43.522409
11
199.587187
21
42.004519
0
LINE
8
boundary
62
5
39
2
10
199.587187
20
42.004519
11
200.171941
21
40.634163
0
LINE
8
boundary
62
5
39
2
10
200.171941
20
40.634163
11
200.400712
21
40.111190
0
LINE
8
boundary
62
5
39
2
10
200.400712
20
40.111190
11
200.757878
21
39.294874
0
LINE
8
boundary
62
5
39
2
10
200.757878
20
39.294874
11
201.296435
21
38.092163
0
LINE
8
boundary
62
5
39
2
10
201.296435
20
38.092163
11
201.641478
21
37.336440
0
LINE
8
boundary
62
5
39
2
10
201.641478
20
37.336440
11
202.415498
21
35.680177
0
LINE
8
boundary
62
5
39
2
10
202.415498
20
35.680177
11
203.011269
21
34.440812
0
LINE
8
boundary
62
5
39
2
10
203.011269
20
34.440812
11
203.612772
21
33.219082
0
LINE
8
boundary
62
5
39
2
10
203.612772
20
33.219082
11
204.040168
21
32.366995
0
LINE
8
boundary
62
5
39
2
10
204.040168
20
32.366995
11
204.777753
21
30.929067
0
LINE
8
boundary
62
5
39
2
10
204.777753
20
30.929067
11
205.508713
21
29.538780
0
LINE
8
boundary
62
5
39
2
10
205.508713
20
29.538780
11
205.780953
21
29.028412
0
LINE
8
boundary
62
5
39
2
10
205.780953
20
29.028412
11
206.166803
21
28.322543
0
LINE
8
boundary
62
5
39
2
10
206.166803
20
28.322543
11
206.693641
21
27.368287
0
LINE
8
boundary
62
5
39
2
10
206.693641
20
27.368287
11
207.235088
21
26.419335
0
LINE
8
boundary
62
5
39
2
10
207.235088
20
26.419335
11
207.521468
21
25.916991
0
LINE
8
boundary
62
5
39
2
10
207.521468
20
25.916991
11
208.210614
21
24.747014
0
LINE
8
boundary
62
5
39
2
10
208.210614
20
24.747014
11
208.586728
21
24.116945
0
LINE
8
boundary
62
5
39
2
10
208.586728
20
24.116945
11
208.912487
21
23.587422
0
LINE
8
boundary
62
5
39
2
10
208.912487
20
23.587422
11
209.565660
21
22.534776
0
LINE
8
boundary
62
5
39
2
10
209.565660
20
22.534776
11
210.556591
21
20.999842
0
LINE
8
boundary
62
5
39
2
10
210.556591
20
20.999842
11
211.067085
21
20.241520
0
LINE
8
boundary
62
5
39
2
10
211.067085
20
20.241520
11
211.983132
21
18.911037
0
LINE
8
boundary
62
5
39
2
10
211.983132
20
18.911037
11
212.449182
21
18.271335
0
LINE
8
boundary
62
5
39
2
10
212.449182
20
18.271335
11
213.284903
21
17.131337
0
LINE
8
boundary
62
5
39
2
10
213.284903
20
17.131337
11
213.598241
21
16.713923
0
LINE
8
boundary
62
5
39
2
10
213.598241
20
16.713923
11
214.269265
21
15.866606
0
LINE
8
boundary
62
5
39
2
10
214.269265
20
15.866606
11
214.720043
21
15.300913
0
LINE
8
boundary
62
5
39
2
10
214.720043
20
15.300913
11
215.263913
21
14.657070
0
LINE
8
boundary
62
5
39
2
10
215.263913
20
14.657070
11
215.650700
21
14.198828
0
LINE
8
boundary
62
5
39
2
10
215.650700
20
14.198828
11
216.309138
21
13.469393
0
LINE
8
boundary
62
5
39
2
10
216.309138
20
13.469393
11
216.671778
21
13.070200
0
LINE
8
boundary
62
5
39
2
10
216.671778
20
13.070200
11
217.073808
21
12.657627
0
LINE
8
boundary
62
5
39
2
10
217.073808
20
12.657627
11
217.690907
21
12.028395
0
LINE
8
boundary
62
5
39
2
10
217.690907
20
12.028395
11
218.322746
21
11.433444
0
LINE
8
boundary
62
5
39
2
10
218.322746
20
11.433444
11
218.700548
21
11.079782
0
LINE
8
boundary
62
5
39
2
10
218.700548
20
11.079782
11
219.373725
21
10.501252
0
LINE
8
boundary
62
5
39
2
10
219.373725
20
10.501252
11
220.136183
21
9.882387
0
LINE
8
boundary
62
5
39
2
10
220.136183
20
9.882387
11
220.674978
21
9.464842
0
LINE
8
boundary
62
5
39
2
10
220.674978
20
9.464842
11
221.638119
21
8.790933
0
LINE
8
boundary
62
5
39
2
10
221.638119
20
8.790933
11
222.391274
21
8.327148
0
LINE
8
boundary
62
5
39
2
10
222.391274
20
8.327148
11
223.123081
21
7.922368
0
LINE
8
boundary
62
5
39
2
10
223.123081
20
7.922368
11
223.844183
21
7.569193
0
LINE
8
boundary
62
5
39
2
10
223.844183
20
7.569193
11
224.367002
21
7.337220
0
LINE
8
boundary
62
5
39
2
10
224.367002
20
7.337220
11
225.219718
21
7.030617
0
LINE
8
boundary
62
5
39
2
10
225.219718
20
7.030617
11
225.916614
21
6.849363
0
LINE
8
boundary
62
5
39
2
10
225.916614
20
6.849363
11
226.566736
21
6.735917
0
LINE
8
boundary
62
5
39
2
10
226.566736
20
6.735917
11
227.195285
21
6.680884
0
LINE
8
boundary
62
5
39
2
10
227.195285
20
6.680884
11
227.799973
21
6.682871
0
LINE
8
boundary
62
5
39
2
10
227.799973
20
6.682871
11
228.378842
21
6.740661
0
LINE
8
boundary
62
5
39
2
10
228.378842
20
6.740661
11
228.897604
21
6.843636
0
LINE
8
boundary
62
5
39
2
10
228.897604
20
6.843636
11
229.448408
21
7.031001
0
LINE
8
boundary
62
5
39
2
10
229.448408
20
7.031001
11
229.933414
21
7.267595
0
LINE
8
boundary
62
5
39
2
10
229.933414
20
7.267595
11
230.386698
21
7.557672
0
LINE
8
boundary
62
5
39
2
10
230.386698
20
7.557672
11
230.807483
21
7.899366
0
LINE
8
boundary
62
5
39
2
10
230.807483
20
7.899366
11
231.196125
21
8.289217
0
LINE
8
boundary
62
5
39
2
10
231.196125
20
8.289217
11
231.553492
21
8.722363
0
LINE
8
boundary
62
5
39
2
10
231.553492
20
8.722363
11
231.878439
21
9.197440
0
LINE
8
boundary
62
5
39
2
10
231.878439
20
9.197440
11
232.166041
21
9.720382
0
LINE
8
boundary
62
5
39
2
10
232.166041
20
9.720382
11
232.424481
21
10.273972
0
LINE
8
boundary
62
5
39
2
10
232.424481
20
10.273972
11
232.654868
21
10.853478
0
LINE
8
boundary
62
5
39
2
10
232.654868
20
10.853478
11
232.827137
21
11.344835
0
LINE
8
boundary
62
5
39
2
10
232.827137
20
11.344835
11
233.028819
21
12.086374
0
LINE
8
boundary
62
5
39
2
10
233.028819
20
12.086374
11
233.201237
21
12.891302
0
LINE
8
boundary
62
5
39
2
10
233.201237
20
12.891302
11
233.320844
21
13.658319
0
LINE
8
boundary
62
5
39
2
10
233.320844
20
13.658319
11
233.406510
21
14.387870
0
LINE
8
boundary
62
5
39
2
10
233.406510
20
14.387870
11
233.480996
21
15.394907
0
LINE
8
boundary
62
5
39
2
10
233.480996
20
15.394907
11
233.504312
21
15.938663
0
LINE
8
boundary
62
5
39
2
10
233.504312
20
15.938663
11
233.522180
21
16.979195
0
LINE
8
boundary
62
5
39
2
10
233.522180
20
16.979195
11
233.519127
21
17.713058
0
LINE
8
boundary
62
5
39
2
10
233.519127
20
17.713058
11
233.499515
21
18.462376
0
LINE
8
boundary
62
5
39
2
10
233.499515
20
18.462376
11
222.432134
21
18.612375
0
LINE
8
boundary
62
5
39
2
10
222.432134
20
18.612375
11
222.432134
21
21.358375
0
LINE
8
boundary
62
5
39
2
10
222.432134
20
21.358375
11
233.286361
21
21.358375
0
LINE
8
boundary
62
5
39
2
10
233.286361
20
21.358375
11
233.263516
21
21.868589
0
LINE
8
boundary
62
5
39
2
10
233.263516
20
21.868589
11
233.173656
21
22.697862
0
LINE
8
boundary
62
5
39
2
10
233.173656
20
22.697862
11
233.070915
21
23.581484
0
LINE
8
boundary
62
5
39
2
10
233.070915
20
23.581484
11
232.983791
21
24.249708
0
LINE
8
boundary
62
5
39
2
10
232.983791
20
24.249708
11
232.879705
21
25.011080
0
LINE
8
boundary
62
5
39
2
10
232.879705
20
25.011080
11
232.721211
21
26.071993
0
LINE
8
boundary
62
5
39
2
10
232.721211
20
26.071993
11
232.603920
21
26.824907
0
LINE
8
boundary
62
5
39
2
10
232.603920
20
26.824907
11
232.397708
21
28.053528
0
LINE
8
boundary
62
5
39
2
10
232.397708
20
28.053528
11
232.125239
21
29.581510
0
LINE
8
boundary
62
5
39
2
10
232.125239
20
29.581510
11
231.783783
21
31.332997
0
LINE
8
boundary
62
5
39
2
10
231.783783
20
31.332997
11
231.331976
21
33.518665
0
LINE
8
boundary
62
5
39
2
10
231.331976
20
33.518665
11
231.055962
21
34.764921
0
LINE
8
boundary
62
5
39
2
10
231.055962
20
34.764921
11
230.620279
21
36.683036
0
LINE
8
boundary
62
5
39
2
10
230.620279
20
36.683036
11
230.416938
21
37.534536
0
LINE
8
boundary
62
5
39
2
10
230.416938
20
37.534536
11
215.710030
21
37.534536
0
LINE
8
boundary
62
5
39
2
10
215.710030
20
37.534536
11
215.710030
21
40.280536
0
LINE
8
boundary
62
5
39
2
10
215.710030
20
40.280536
11
229.690206
21
40.280536
0
LINE
8
boundary
62
5
39
2
10
229.690206
20
40.280536
11
229.269498
21
42.120060
0
LINE
8
boundary
62
5
39
2
10
229.269498
20
42.120060
11
228.913503
21
43.452097
0
LINE
8
boundary
62
5
39
2
10
228.913503
20
43.452097
11
228.315341
21
45.657915
0
LINE
8
boundary
62
5
39
2
10
228.315341
20
45.657915
11
228.022659
21
46.703873
0
LINE
8
boundary
62
5
39
2
10
228.022659
20
46.703873
11
227.389691
21
48.908460
0
LINE
8
boundary
62
5
39
2
10
227.389691
20
48.908460
11
226.801277
21
50.911391
0
LINE
8
boundary
62
5
39
2
10
226.801277
20
50.911391
11
226.395741
21
52.282916
0
LINE
8
boundary
62
5
39
2
10
226.395741
20
52.282916
11
225.925744
21
53.842033
0
LINE
8
boundary
62
5
39
2
10
225.925744
20
53.842033
11
225.319083
21
55.796091
0
LINE
8
boundary
62
5
39
2
10
225.319083
20
55.796091
11
225.110583
21
56.456697
0
LINE
8
boundary
62
5
39
2
10
225.110583
20
56.456697
11
209.188253
21
56.456697
0
LINE
8
boundary
62
5
39
2
10
209.188253
20
56.456697
11
209.188253
21
59.202697
0
LINE
8
boundary
62
5
39
2
10
209.188253
20
59.202697
11
224.183607
21
59.202697
0
LINE
8
boundary
62
5
39
2
10
224.183607
20
59.202697
11
223.588834
21
61.235788
0
LINE
8
boundary
62
5
39
2
10
223.588834
20
61.235788
11
222.924767
21
63.245083
0
LINE
8
boundary
62
5
39
2
10
222.924767
20
63.245083
11
222.190418
21
65.443645
0
LINE
8
boundary
62
5
39
2
10
222.190418
20
65.443645
11
221.603912
21
67.191766
0
LINE
8
boundary
62
5
39
2
10
221.603912
20
67.191766
11
221.047274
21
68.839533
0
LINE
8
boundary
62
5
39
2
10
221.047274
20
68.839533
11
220.204561
21
71.288804
0
LINE
8
boundary
62
5
39
2
10
220.204561
20
71.288804
11
219.711230
21
72.713280
0
LINE
8
boundary
62
5
39
2
10
219.711230
20
72.713280
11
218.830876
21
75.228859
0
LINE
8
boundary
62
5
39
2
10
218.830876
20
75.228859
11
202.900296
21
75.378858
0
LINE
8
boundary
62
5
39
2
10
202.900296
20
75.378858
11
202.900296
21
78.124858
0
LINE
8
boundary
62
5
39
2
10
202.900296
20
78.124858
11
217.746413
21
78.124858
0
LINE
8
boundary
62
5
39
2
10
217.746413
20
78.124858
11
217.162785
21
79.950619
0
LINE
8
boundary
62
5
39
2
10
217.162785
20
79.950619
11
216.930605
21
80.606648
0
LINE
8
boundary
62
5
39
2
10
216.930605
20
80.606648
11
215.537514
21
84.501863
0
LINE
8
boundary
62
5
39
2
10
215.537514
20
84.501863
11
215.181085
21
85.493862
0
LINE
8
boundary
62
5
39
2
10
215.181085
20
85.493862
11
214.022947
21
88.710708
0
LINE
8
boundary
62
5
39
2
10
214.022947
20
88.710708
11
213.846324
21
89.195991
0
LINE
8
boundary
62
5
39
2
10
213.846324
20
89.195991
11
212.524627
21
92.855408
0
LINE
8
boundary
62
5
39
2
10
212.524627
20
92.855408
11
212.099715
21
94.019596
0
LINE
8
boundary
62
5
39
2
10
212.099715
20
94.019596
11
196.777746
21
94.301019
0
LINE
8
boundary
62
5
39
2
10
196.777746
20
94.301019
11
196.777745
21
97.047019
0
LINE
8
boundary
62
5
39
2
10
196.777745
20
97.047019
11
210.941081
21
97.047019
0
LINE
8
boundary
62
5
39
2
10
210.941081
20
97.047019
11
210.309513
21
98.955970
0
LINE
8
boundary
62
5
39
2
10
210.309513
20
98.955970
11
209.434874
21
101.383309
0
LINE
8
boundary
62
5
39
2
10
209.434874
20
101.383309
11
208.487290
21
103.987916
0
LINE
8
boundary
62
5
39
2
10
208.487290
20
103.987916
11
207.838905
21
105.796888
0
LINE
8
boundary
62
5
39
2
10
207.838905
20
105.796888
11
206.644993
21
109.097450
0
LINE
8
boundary
62
5
39
2
10
206.644993
20
109.097450
11
206.205885
21
110.332259
0
LINE
8
boundary
62
5
39
2
10
206.205885
20
110.332259
11
205.218363
21
113.073180
0
LINE
8
boundary
62
5
39
2
10
205.218363
20
113.073180
11
190.865883
21
113.223180
0
LINE
8
boundary
62
5
39
2
10
190.865883
20
113.223180
11
190.865882
21
115.969180
0
LINE
8
boundary
62
5
39
2
10
190.865882
20
115.969180
11
204.125073
21
115.969180
0
LINE
8
boundary
62
5
39
2
10
204.125073
20
115.969180
11
203.396492
21
118.215516
0
LINE
8
boundary
62
5
39
2
10
203.396492
20
118.215516
11
202.943065
21
119.481228
0
LINE
8
boundary
62
5
39
2
10
202.943065
20
119.481228
11
202.179914
21
121.663082
0
LINE
8
boundary
62
5
39
2
10
202.179914
20
121.663082
11
201.107690
21
124.720614
0
LINE
8
boundary
62
5
39
2
10
201.107690
20
124.720614
11
200.473103
21
126.577797
0
LINE
8
boundary
62
5
39
2
10
200.473103
20
126.577797
11
199.295600
21
129.972115
0
LINE
8
boundary
62
5
39
2
10
199.295600
20
129.972115
11
198.612958
21
131.995343
0
LINE
8
boundary
62
5
39
2
10
198.612958
20
131.995343
11
185.169390
21
132.145340
0
LINE
8
boundary
62
5
39
2
10
185.169390
20
132.145340
11
185.169390
21
134.891341
0
LINE
8
boundary
62
5
39
2
10
185.169390
20
134.891341
11
197.574742
21
134.891340
0
LINE
8
boundary
62
5
39
2
10
197.574742
20
134.891340
11
197.434486
21
135.494427
0
LINE
8
boundary
62
5
39
2
10
197.434486
20
135.494427
11
195.779899
21
140.461571
0
LINE
8
boundary
62
5
39
2
10
195.779899
20
140.461571
11
194.293323
21
145.066903
0
LINE
8
boundary
62
5
39
2
10
194.293323
20
145.066903
11
194.092906
21
145.679738
0
LINE
8
boundary
62
5
39
2
10
194.092906
20
145.679738
11
193.260619
21
148.281489
0
LINE
8
boundary
62
5
39
2
10
193.260619
20
148.281489
11
192.914198
21
149.385467
0
LINE
8
boundary
62
5
39
2
10
192.914198
20
149.385467
11
192.445116
21
150.874587
0
LINE
8
boundary
62
5
39
2
10
192.445116
20
150.874587
11
179.669381
21
151.067501
0
LINE
8
boundary
62
5
39
2
10
179.669381
20
151.067501
11
179.669382
21
153.813501
0
LINE
8
boundary
62
5
39
2
10
179.669382
20
153.813501
11
191.482898
21
153.813502
0
LINE
8
boundary
62
5
39
2
10
191.482898
20
153.813502
11
191.077767
21
155.331512
0
LINE
8
boundary
62
5
39
2
10
191.077767
20
155.331512
11
190.861404
21
156.034135
0
LINE
8
boundary
62
5
39
2
10
190.861404
20
156.034135
11
190.084524
21
158.601051
0
LINE
8
boundary
62
5
39
2
10
190.084524
20
158.601051
11
189.785581
21
159.608760
0
LINE
8
boundary
62
5
39
2
10
189.785581
20
159.608760
11
189.325012
21
161.157361
0
LINE
8
boundary
62
5
39
2
10
189.325012
20
161.157361
11
188.807860
21
162.932233
0
LINE
8
boundary
62
5
39
2
10
188.807860
20
162.932233
11
188.582871
21
163.702793
0
LINE
8
boundary
62
5
39
2
10
188.582871
20
163.702793
11
187.861550
21
166.224982
0
LINE
8
boundary
62
5
39
2
10
187.861550
20
166.224982
11
187.140725
21
168.760110
0
LINE
8
boundary
62
5
39
2
10
187.140725
20
168.760110
11
186.946465
21
169.457083
0
LINE
8
boundary
62
5
39
2
10
186.946465
20
169.457083
11
186.797971
21
169.989662
0
LINE
8
boundary
62
5
39
2
10
186.797971
20
169.989662
11
174.412922
21
169.989662
0
LINE
8
boundary
62
5
39
2
10
174.412922
20
169.989662
11
174.412922
21
172.735662
0
LINE
8
boundary
62
5
39
2
10
174.412922
20
172.735662
11
185.989635
21
172.735662
0
LINE
8
boundary
62
5
39
2
10
185.989635
20
172.735662
11
185.683314
21
174.045955
0
LINE
8
boundary
62
5
39
2
10
185.683314
20
174.045955
11
185.027145
21
176.502491
0
LINE
8
boundary
62
5
39
2
10
185.027145
20
176.502491
11
184.695033
21
177.766566
0
LINE
8
boundary
62
5
39
2
10
184.695033
20
177.766566
11
184.222999
21
179.547443
0
LINE
8
boundary
62
5
39
2
10
184.222999
20
179.547443
11
184.083866
21
180.081894
0
LINE
8
boundary
62
5
39
2
10
184.083866
20
180.081894
11
183.515139
21
182.272406
0
LINE
8
boundary
62
5
39
2
10
183.515139
20
182.272406
11
183.171990
21
183.616629
0
LINE
8
boundary
62
5
39
2
10
183.171990
20
183.616629
11
182.825226
21
184.979683
0
LINE
8
boundary
62
5
39
2
10
182.825226
20
184.979683
11
182.289077
21
187.120800
0
LINE
8
boundary
62
5
39
2
10
182.289077
20
187.120800
11
182.152415
21
187.668851
0
LINE
8
boundary
62
5
39
2
10
182.152415
20
187.668851
11
181.883869
21
188.761824
0
LINE
8
boundary
62
5
39
2
10
181.883869
20
188.761824
11
169.447335
21
188.911823
0
LINE
8
boundary
62
5
39
2
10
169.447335
20
188.911823
11
169.447336
21
191.657823
0
LINE
8
boundary
62
5
39
2
10
169.447336
20
191.657823
11
181.123750
21
191.657824
0
LINE
8
boundary
62
5
39
2
10
181.123750
20
191.657824
11
180.845118
21
192.989492
0
LINE
8
boundary
62
5
39
2
10
180.845118
20
192.989492
11
180.601655
21
193.996993
0
LINE
8
boundary
62
5
39
2
10
180.601655
20
193.996993
11
180.211862
21
195.620094
0
LINE
8
boundary
62
5
39
2
10
180.211862
20
195.620094
11
179.793277
21
197.382027
0
LINE
8
boundary
62
5
39
2
10
179.793277
20
197.382027
11
179.593086
21
198.230490
0
LINE
8
boundary
62
5
39
2
10
179.593086
20
198.230490
11
179.006868
21
200.739586
0
LINE
8
boundary
62
5
39
2
10
179.006868
20
200.739586
11
178.391111
21
203.388221
0
LINE
8
boundary
62
5
39
2
10
178.391111
20
203.388221
11
178.239693
21
204.043485
0
LINE
8
boundary
62
5
39
2
10
178.239693
20
204.043485
11
177.806377
21
205.934553
0
LINE
8
boundary
62
5
39
2
10
177.806377
20
205.934553
11
177.491450
21
207.318173
0
LINE
8
boundary
62
5
39
2
10
177.491450
20
207.318173
11
177.375092
21
207.833984
0
LINE
8
boundary
62
5
39
2
10
177.375092
20
207.833984
11
164.871335
21
207.833984
0
LINE
8
boundary
62
5
39
2
10
164.871335
20
207.833984
11
164.871335
21
210.579985
0
LINE
8
boundary
62
5
39
2
10
164.871335
20
210.579985
11
176.718913
21
210.579984
0
LINE
8
boundary
62
5
39
2
10
176.718913
20
210.579984
11
176.385026
21
212.278143
0
LINE
8
boundary
62
5
39
2
10
176.385026
20
212.278143
11
176.123012
21
213.440254
0
LINE
8
boundary
62
5
39
2
10
176.123012
20
213.440254
11
175.911493
21
214.398820
0
LINE
8
boundary
62
5
39
2
10
175.911493
20
214.398820
11
175.050108
21
218.330013
0
LINE
8
boundary
62
5
39
2
10
175.050108
20
218.330013
11
174.078803
21
222.853819
0
LINE
8
boundary
62
5
39
2
10
174.078803
20
222.853819
11
173.969808
21
223.360027
0
LINE
8
boundary
62
5
39
2
10
173.969808
20
223.360027
11
173.283211
21
226.606147
0
LINE
8
boundary
62
5
39
2
10
173.283211
20
226.606147
11
160.625760
21
226.756145
0
LINE
8
boundary
62
5
39
2
10
160.625760
20
226.756145
11
160.625760
21
229.502145
0
LINE
8
boundary
62
5
39
2
10
160.625760
20
229.502145
11
172.636025
21
229.502145
0
LINE
8
boundary
62
5
39
2
10
172.636025
20
229.502145
11
172.126869
21
232.156011
0
LINE
8
boundary
62
5
39
2
10
172.126869
20
232.156011
11
172.006189
21
232.747823
0
LINE
8
boundary
62
5
39
2
10
172.006189
20
232.747823
11
171.148517
21
236.960679
0
LINE
8
boundary
62
5
39
2
10
171.148517
20
236.960679
11
170.380057
21
240.816889
0
LINE
8
boundary
62
5
39
2
10
170.380057
20
240.816889
11
170.266562
21
241.389960
0
LINE
8
boundary
62
5
39
2
10
170.266562
20
241.389960
11
170.151393
21
241.984666
0
LINE
8
boundary
62
5
39
2
10
170.151393
20
241.984666
11
169.434805
21
245.678306
0
LINE
8
boundary
62
5
39
2
10
169.434805
20
245.678306
11
156.607355
21
245.678306
0
LINE
8
boundary
62
5
39
2
10
156.607355
20
245.678306
11
156.607356
21
248.424306
0
LINE
8
boundary
62
5
39
2
10
156.607356
20
248.424306
11
168.877235
21
248.424306
0
LINE
8
boundary
62
5
39
2
10
168.877235
20
248.424306
11
168.740124
21
249.354824
0
LINE
8
boundary
62
5
39
2
10
168.740124
20
249.354824
11
168.617448
21
250.007183
0
LINE
8
boundary
62
5
39
2
10
168.617448
20
250.007183
11
168.499059
21
250.657950
0
LINE
8
boundary
62
5
39
2
10
168.499059
20
250.657950
11
167.705783
21
255.041429
0
LINE
8
boundary
62
5
39
2
10
167.705783
20
255.041429
11
167.036905
21
258.907701
0
LINE
8
boundary
62
5
39
2
10
167.036905
20
258.907701
11
166.853434
21
259.981662
0
LINE
8
boundary
62
5
39
2
10
166.853434
20
259.981662
11
166.583165
21
261.653301
0
LINE
8
boundary
62
5
39
2
10
166.583165
20
261.653301
11
166.130593
21
264.450471
0
LINE
8
boundary
62
5
39
2
10
166.130593
20
264.450471
11
152.826187
21
264.600467
0
LINE
8
boundary
62
5
39
2
10
152.826187
20
264.600467
11
152.826187
21
267.346467
0
LINE
8
boundary
62
5
39
2
10
152.826187
20
267.346467
11
165.652550
21
267.346467
0
LINE
8
boundary
62
5
39
2
10
165.652550
20
267.346467
11
165.336997
21
269.672284
0
LINE
8
boundary
62
5
39
2
10
165.336997
20
269.672284
11
164.721789
21
273.986757
0
LINE
8
boundary
62
5
39
2
10
164.721789
20
273.986757
11
164.618238
21
274.720265
0
LINE
8
boundary
62
5
39
2
10
164.618238
20
274.720265
11
164.018288
21
279.160197
0
LINE
8
boundary
62
5
39
2
10
164.018288
20
279.160197
11
163.591132
21
282.380945
0
LINE
8
boundary
62
5
39
2
10
163.591132
20
282.380945
11
163.462096
21
283.372634
0
LINE
8
boundary
62
5
39
2
10
163.462096
20
283.372634
11
149.371840
21
283.522628
0
LINE
8
boundary
62
5
39
2
10
149.371840
20
283.522628
11
149.371840
21
286.268628
0
LINE
8
boundary
62
5
39
2
10
149.371840
20
286.268628
11
163.054843
21
286.268628
0
LINE
8
boundary
62
5
39
2
10
163.054843
20
286.268628
11
162.797204
21
288.464783
0
LINE
8
boundary
62
5
39
2
10
162.797204
20
288.464783
11
162.619503
21
289.801816
0
LINE
8
boundary
62
5
39
2
10
162.619503
20
289.801816
11
162.393105
21
291.525455
0
LINE
8
boundary
62
5
39
2
10
162.393105
20
291.525455
11
162.224364
21
292.782713
0
LINE
8
boundary
62
5
39
2
10
162.224364
20
292.782713
11
161.983760
21
294.562775
0
LINE
8
boundary
62
5
39
2
10
161.983760
20
294.562775
11
161.649769
21
296.958593
0
LINE
8
boundary
62
5
39
2
10
161.649769
20
296.958593
11
161.565173
21
297.570013
0
LINE
8
boundary
62
5
39
2
10
161.565173
20
297.570013
11
161.132433
21
300.556082
0
LINE
8
boundary
62
5
39
2
10
161.132433
20
300.556082
11
160.874218
21
302.264295
0
LINE
8
boundary
62
5
39
2
10
160.874218
20
302.264295
11
145.976892
21
302.444789
0
LINE
8
boundary
62
5
39
2
10
145.976892
20
302.444789
11
145.976892
21
305.190789
0
LINE
8
boundary
62
5
39
2
10
145.976892
20
305.190789
11
160.378166
21
305.190789
0
LINE
8
boundary
62
5
39
2
10
160.378166
20
305.190789
11
160.089275
21
307.145959
0
LINE
8
boundary
62
5
39
2
10
160.089275
20
307.145959
11
159.805255
21
308.779246
0
LINE
8
boundary
62
5
39
2
10
159.805255
20
308.779246
11
159.714522
21
309.297856
0
LINE
8
boundary
62
5
39
2
10
159.714522
20
309.297856
11
159.524252
21
310.331647
0
LINE
8
boundary
62
5
39
2
10
159.524252
20
310.331647
11
159.322770
21
311.427540
0
LINE
8
boundary
62
5
39
2
10
159.322770
20
311.427540
11
159.214696
21
311.984244
0
LINE
8
boundary
62
5
39
2
10
159.214696
20
311.984244
11
158.912612
21
313.532207
0
LINE
8
boundary
62
5
39
2
10
158.912612
20
313.532207
11
158.580166
21
315.141004
0
LINE
8
boundary
62
5
39
2
10
158.580166
20
315.141004
11
158.285733
21
316.503189
0
LINE
8
boundary
62
5
39
2
10
158.285733
20
316.503189
11
158.033465
21
317.647486
0
LINE
8
boundary
62
5
39
2
10
158.033465
20
317.647486
11
157.894359
21
318.240194
0
LINE
8
boundary
62
5
39
2
10
157.894359
20
318.240194
11
157.560261
21
319.657412
0
LINE
8
boundary
62
5
39
2
10
157.560261
20
319.657412
11
157.167977
21
321.216950
0
LINE
8
boundary
62
5
39
2
10
157.167977
20
321.216950
11
142.172049
21
321.366950
0
LINE
8
boundary
62
5
39
2
10
142.172049
20
321.366950
11
142.172049
21
324.112950
0
LINE
8
boundary
62
5
39
2
10
142.172049
20
324.112950
11
156.328251
21
324.112950
0
LINE
8
boundary
62
5
39
2
10
156.328251
20
324.112950
11
155.993264
21
325.450653
0
LINE
8
boundary
62
5
39
2
10
155.993264
20
325.450653
11
155.498755
21
327.034136
0
LINE
8
boundary
62
5
39
2
10
155.498755
20
327.034136
11
155.250022
21
327.789688
0
LINE
8
boundary
62
5
39
2
10
155.250022
20
327.789688
11
154.811933
21
329.087337
0
LINE
8
boundary
62
5
39
2
10
154.811933
20
329.087337
11
154.573739
21
329.740896
0
LINE
8
boundary
62
5
39
2
10
154.573739
20
329.740896
11
154.176147
21
330.828665
0
LINE
8
boundary
62
5
39
2
10
154.176147
20
330.828665
11
153.965578
21
331.358893
0
LINE
8
boundary
62
5
39
2
10
153.965578
20
331.358893
11
153.507036
21
332.515033
0
LINE
8
boundary
62
5
39
2
10
153.507036
20
332.515033
11
153.095174
21
333.457470
0
LINE
8
boundary
62
5
39
2
10
153.095174
20
333.457470
11
152.570311
21
334.666682
0
LINE
8
boundary
62
5
39
2
10
152.570311
20
334.666682
11
151.994265
21
335.856764
0
LINE
8
boundary
62
5
39
2
10
151.994265
20
335.856764
11
151.580002
21
336.710047
0
LINE
8
boundary
62
5
39
2
10
151.580002
20
336.710047
11
150.543011
21
338.640256
0
LINE
8
boundary
62
5
39
2
10
150.543011
20
338.640256
11
149.909309
21
339.709794
0
LINE
8
boundary
62
5
39
2
10
149.909309
20
339.709794
11
149.566081
21
340.289111
0
LINE
8
boundary
62
5
39
2
10
149.566081
20
340.289111
11
136.864474
21
340.289111
0
LINE
8
boundary
62
5
39
2
10
136.864474
20
340.289111
11
136.864474
21
343.035111
0
LINE
8
boundary
62
5
39
2
10
136.864474
20
343.035111
11
147.605877
21
343.035111
0
LINE
8
boundary
62
5
39
2
10
147.605877
20
343.035111
11
147.219854
21
343.733811
0
LINE
8
boundary
62
5
39
2
10
147.219854
20
343.733811
11
146.871641
21
344.169798
0
LINE
8
boundary
62
5
39
2
10
146.871641
20
344.169798
11
146.059530
21
345.192329
0
LINE
8
boundary
62
5
39
2
10
146.059530
20
345.192329
11
145.353572
21
345.994425
0
LINE
8
boundary
62
5
39
2
10
145.353572
20
345.994425
11
144.882905
21
346.533055
0
LINE
8
boundary
62
5
39
2
10
144.882905
20
346.533055
11
143.855234
21
347.590538
0
LINE
8
boundary
62
5
39
2
10
143.855234
20
347.590538
11
143.006701
21
348.396175
0
LINE
8
boundary
62
5
39
2
10
143.006701
20
348.396175
11
142.501847
21
348.858549
0
LINE
8
boundary
62
5
39
2
10
142.501847
20
348.858549
11
141.307860
21
349.837996
0
LINE
8
boundary
62
5
39
2
10
141.307860
20
349.837996
11
140.119189
21
350.702503
0
LINE
8
boundary
62
5
39
2
10
140.119189
20
350.702503
11
139.602417
21
351.026590
0
LINE
8
boundary
62
5
39
2
10
139.602417
20
351.026590
11
138.941123
21
351.453613
0
LINE
8
boundary
62
5
39
2
10
138.941123
20
351.453613
11
138.281820
21
351.810512
0
LINE
8
boundary
62
5
39
2
10
138.281820
20
351.810512
11
137.779003
21
352.092812
0
LINE
8
boundary
62
5
39
2
10
137.779003
20
352.092812
11
137.016008
21
352.441099
0
LINE
8
boundary
62
5
39
2
10
137.016008
20
352.441099
11
135.808175
21
352.929984
0
LINE
8
boundary
62
5
39
2
10
135.808175
20
352.929984
11
134.660945
21
353.287830
0
LINE
8
boundary
62
5
39
2
10
134.660945
20
353.287830
11
133.576451
21
353.524375
0
LINE
8
boundary
62
5
39
2
10
133.576451
20
353.524375
11
132.556447
21
353.648472
0
LINE
8
boundary
62
5
39
2
10
132.556447
20
353.648472
11
131.602295
21
353.668306
0
LINE
8
boundary
62
5
39
2
10
131.602295
20
353.668306
11
130.715189
21
353.591113
0
LINE
8
boundary
62
5
39
2
10
130.715189
20
353.591113
11
129.896036
21
353.423585
0
LINE
8
boundary
62
5
39
2
10
129.896036
20
353.423585
11
129.145590
21
353.171805
0
LINE
8
boundary
62
5
39
2
10
129.145590
20
353.171805
11
128.464494
21
352.841220
0
LINE
8
boundary
62
5
39
2
10
128.464494
20
352.841220
11
127.852531
21
352.436939
0
LINE
8
boundary
62
5
39
2
10
127.852531
20
352.436939
11
127.306750
21
351.964030
0
LINE
8
boundary
62
5
39
2
10
127.306750
20
351.964030
11
126.822685
21
351.427187
0
LINE
8
boundary
62
5
39
2
10
126.822685
20
351.427187
11
126.496724
21
351.013653
0
LINE
8
boundary
62
5
39
2
10
126.496724
20
351.013653
11
126.063894
21
350.276493
0
LINE
8
boundary
62
5
39
2
10
126.063894
20
350.276493
11
125.737917
21
349.552381
0
LINE
8
boundary
62
5
39
2
10
125.737917
20
349.552381
11
125.438544
21
348.675029
0
LINE
8
boundary
62
5
39
2
10
125.438544
20
348.675029
11
125.219380
21
347.832821
0
LINE
8
boundary
62
5
39
2
10
125.219380
20
347.832821
11
125.040785
21
346.942964
0
LINE
8
boundary
62
5
39
2
10
125.040785
20
346.942964
11
124.947026
21
346.434876
0
LINE
8
boundary
62
5
39
2
10
124.947026
20
346.434876
11
124.810952
21
345.268710
0
LINE
8
boundary
62
5
39
2
10
124.810952
20
345.268710
11
124.728255
21
344.024516
0
LINE
8
boundary
62
5
39
2
10
124.728255
20
344.024516
11
124.704934
21
342.894323
0
LINE
8
boundary
62
5
39
2
10
124.704934
20
342.894323
11
124.713915
21
341.740437
0
LINE
8
boundary
62
5
39
2
10
124.713915
20
341.740437
11
124.719332
21
341.224268
0
LINE
8
boundary
62
5
39
2
10
124.719332
20
341.224268
11
124.752234
21
340.543370
0
LINE
8
boundary
62
5
39
2
10
124.752234
20
340.543370
11
124.788786
21
339.701305
0
LINE
8
boundary
62
5
39
2
10
124.788786
20
339.701305
11
124.905491
21
338.097788
0
LINE
8
boundary
62
5
39
2
10
124.905491
20
338.097788
11
125.044322
21
336.659393
0
LINE
8
boundary
62
5
39
2
10
125.044322
20
336.659393
11
125.202869
21
335.246127
0
LINE
8
boundary
62
5
39
2
10
125.202869
20
335.246127
11
125.281508
21
334.558310
0
LINE
8
annotation
62
1
39
211
10
215.238635
20
17.585526
11
216.304532
21
17.585526
0
LINE
8
annotation
62
1
39
211
10
216.304532
20
17.585526
11
216.304532
21
17.585526
0
LINE
8
annotation
62
1
39
211
10
216.304532
20
17.585526
11
216.496236
21
17.602723
0
LINE
8
annotation
62
1
39
211
10
216.496236
20
17.602723
11
216.676623
21
17.652286
0
LINE
8
annotation
62
1
39
211
10
216.676623
20
17.652286
11
216.842693
21
17.731173
0
LINE
8
annotation
62
1
39
211
10
216.842693
20
17.731173
11
216.991445
21
17.836341
0
LINE
8
annotation
62
1
39
211
10
216.991445
20
17.836341
11
217.119879
21
17.964748
0
LINE
8
annotation
62
1
39
211
10
217.119879
20
17.964748
11
217.224994
21
18.113352
0
LINE
8
annotation
62
1
39
211
10
217.224994
20
18.113352
11
217.303791
21
18.279109
0
LINE
8
annotation
62
1
39
211
10
217.303791
20
18.279109
11
217.353270
21
18.458979
0
LINE
8
annotation
62
1
39
211
10
217.353270
20
18.458979
11
217.370430
21
18.649918
0
LINE
8
annotation
62
1
39
211
10
217.370430
20
18.649918
11
217.370430
21
19.183619
0
LINE
8
annotation
62
1
39
211
10
217.370430
20
19.183619
11
217.370430
21
19.183619
0
LINE
8
annotation
62
1
39
211
10
217.370430
20
19.183619
11
217.353270
21
19.374479
0
LINE
8
annotation
62
1
39
211
10
217.353270
20
19.374479
11
217.303791
21
19.554307
0
LINE
8
annotation
62
1
39
211
10
217.303791
20
19.554307
11
217.224994
21
19.720052
0
LINE
8
annotation
62
1
39
211
10
217.224994
20
19.720052
11
217.119879
21
19.868666
0
LINE
8
annotation
62
1
39
211
10
217.119879
20
19.868666
11
216.991445
21
19.997097
0
LINE
8
annotation
62
1
39
211
10
216.991445
20
19.997097
11
216.842693
21
20.102298
0
LINE
8
annotation
62
1
39
211
10
216.842693
20
20.102298
11
216.676623
21
20.181217
0
LINE
8
annotation
62
1
39
211
10
216.676623
20
20.181217
11
216.496236
21
20.230805
0
LINE
8
annotation
62
1
39
211
10
216.496236
20
20.230805
11
216.304532
21
20.248012
0
LINE
8
annotation
62
1
39
211
10
216.304532
20
20.248012
11
215.770831
21
20.248012
0
LINE
8
annotation
62
1
39
211
10
215.770831
20
20.248012
11
216.304532
21
20.248012
0
LINE
8
annotation
62
1
39
211
10
216.304532
20
20.248012
11
216.304532
21
20.248012
0
LINE
8
annotation
62
1
39
211
10
216.304532
20
20.248012
11
216.496236
21
20.265223
0
LINE
8
annotation
62
1
39
211
10
216.496236
20
20.265223
11
216.676623
21
20.314840
0
LINE
8
annotation
62
1
39
211
10
216.676623
20
20.314840
11
216.842693
21
20.393837
0
LINE
8
annotation
62
1
39
211
10
216.842693
20
20.393837
11
216.991445
21
20.499190
0
LINE
8
annotation
62
1
39
211
10
216.991445
20
20.499190
11
217.119879
21
20.627874
0
LINE
8
annotation
62
1
39
211
10
217.119879
20
20.627874
11
217.224994
21
20.776863
0
LINE
8
annotation
62
1
39
211
10
217.224994
20
20.776863
11
217.303791
21
20.943133
0
LINE
8
annotation
62
1
39
211
10
217.303791
20
20.943133
11
217.353270
21
21.123658
0
LINE
8
annotation
62
1
39
211
10
217.353270
20
21.123658
11
217.370430
21
21.315414
0
LINE
8
annotation
62
1
39
211
10
217.370430
20
21.315414
11
217.370430
21
21.315414
0
LINE
8
annotation
62
1
39
211
10
217.370430
20
21.315414
11
217.353270
21
21.506274
0
LINE
8
annotation
62
1
39
211
10
217.353270
20
21.506274
11
217.303791
21
21.686101
0
LINE
8
annotation
62
1
39
211
10
217.303791
20
21.686101
11
217.224994
21
21.851847
0
LINE
8
annotation
62
1
39
211
10
217.224994
20
21.851847
11
217.119879
21
22.000460
0
LINE
8
annotation
62
1
39
211
10
217.119879
20
22.000460
11
216.991445
21
22.128892
0
LINE
8
annotation
62
1
39
211
10
216.991445
20
22.128892
11
216.842693
21
22.234092
0
LINE
8
annotation
62
1
39
211
10
216.842693
20
22.234092
11
216.676623
21
22.313011
0
LINE
8
annotation
62
1
39
211
10
216.676623
20
22.313011
11
216.496236
21
22.362599
0
LINE
8
annotation
62
1
39
211
10
216.496236
20
22.362599
11
216.304532
21
22.379806
0
LINE
8
annotation
62
1
39
211
10
216.304532
20
22.379806
11
215.238635
21
22.379806
0
LINE
8
annotation
62
1
39
211
10
210.915025
20
37.574638
11
208.249830
21
37.574638
0
LINE
8
annotation
62
1
39
211
10
208.249830
20
37.574638
11
209.314223
21
41.307536
0
LINE
8
annotation
62
1
39
211
10
210.116129
20
36.507536
11
210.116129
21
38.639331
0
LINE
8
annotation
62
1
39
211
10
201.994753
20
55.429697
11
203.060651
21
55.429697
0
LINE
8
annotation
62
1
39
211
10
203.060651
20
55.429697
11
203.060651
21
55.429697
0
LINE
8
annotation
62
1
39
211
10
203.060651
20
55.429697
11
203.251959
21
55.446898
0
LINE
8
annotation
62
1
39
211
10
203.251959
20
55.446898
11
203.432135
21
55.496487
0
LINE
8
annotation
62
1
39
211
10
203.432135
20
55.496487
11
203.598143
21
55.575445
0
LINE
8
annotation
62
1
39
211
10
203.598143
20
55.575445
11
203.746944
21
55.680750
0
LINE
8
annotation
62
1
39
211
10
203.746944
20
55.680750
11
203.875502
21
55.809384
0
LINE
8
annotation
62
1
39
211
10
203.875502
20
55.809384
11
203.980779
21
55.958326
0
LINE
8
annotation
62
1
39
211
10
203.980779
20
55.958326
11
204.059737
21
56.124555
0
LINE
8
annotation
62
1
39
211
10
204.059737
20
56.124555
11
204.109339
21
56.305053
0
LINE
8
annotation
62
1
39
211
10
204.109339
20
56.305053
11
204.126548
21
56.496799
0
LINE
8
annotation
62
1
39
211
10
204.126548
20
56.496799
11
204.126548
21
57.027791
0
LINE
8
annotation
62
1
39
211
10
204.126548
20
57.027791
11
204.126548
21
57.027791
0
LINE
8
annotation
62
1
39
211
10
204.126548
20
57.027791
11
204.109349
21
57.219443
0
LINE
8
annotation
62
1
39
211
10
204.109349
20
57.219443
11
204.059771
21
57.399692
0
LINE
8
annotation
62
1
39
211
10
204.059771
20
57.399692
11
203.980845
21
57.565561
0
LINE
8
annotation
62
1
39
211
10
203.980845
20
57.565561
11
203.875601
21
57.714076
0
LINE
8
annotation
62
1
39
211
10
203.875601
20
57.714076
11
203.747068
21
57.842260
0
LINE
8
annotation
62
1
39
211
10
203.747068
20
57.842260
11
203.598276
21
57.947138
0
LINE
8
annotation
62
1
39
211
10
203.598276
20
57.947138
11
203.432256
21
58.025735
0
LINE
8
annotation
62
1
39
211
10
203.432256
20
58.025735
11
203.252038
21
58.075075
0
LINE
8
annotation
62
1
39
211
10
203.252038
20
58.075075
11
203.060651
21
58.092183
0
LINE
8
annotation
62
1
39
211
10
203.060651
20
58.092183
11
201.994753
21
58.092183
0
LINE
8
annotation
62
1
39
211
10
201.994753
20
58.092183
11
201.994753
21
60.229697
0
LINE
8
annotation
62
1
39
211
10
201.994753
20
60.229697
11
204.126548
21
60.229697
0
LINE
8
annotation
62
1
39
211
10
197.307901
20
79.151858
11
197.307901
21
79.151858
0
LINE
8
annotation
62
1
39
211
10
197.307901
20
79.151858
11
197.002548
21
79.037369
0
LINE
8
annotation
62
1
39
211
10
197.002548
20
79.037369
11
196.722346
21
78.883109
0
LINE
8
annotation
62
1
39
211
10
196.722346
20
78.883109
11
196.470173
21
78.692942
0
LINE
8
annotation
62
1
39
211
10
196.470173
20
78.692942
11
196.248904
21
78.470734
0
LINE
8
annotation
62
1
39
211
10
196.248904
20
78.470734
11
196.061416
21
78.220350
0
LINE
8
annotation
62
1
39
211
10
196.061416
20
78.220350
11
195.910585
21
77.945654
0
LINE
8
annotation
62
1
39
211
10
195.910585
20
77.945654
11
195.799287
21
77.650511
0
LINE
8
annotation
62
1
39
211
10
195.799287
20
77.650511
11
195.730399
21
77.338786
0
LINE
8
annotation
62
1
39
211
10
195.730399
20
77.338786
11
195.706797
21
77.014344
0
LINE
8
annotation
62
1
39
211
10
195.706797
20
77.014344
11
195.706797
21
75.418959
0
LINE
8
annotation
62
1
39
211
10
195.706797
20
75.418959
11
195.706797
21
75.418959
0
LINE
8
annotation
62
1
39
211
10
195.706797
20
75.418959
11
195.724006
21
75.227214
0
LINE
8
annotation
62
1
39
211
10
195.724006
20
75.227214
11
195.773608
21
75.046716
0
LINE
8
annotation
62
1
39
211
10
195.773608
20
75.046716
11
195.852567
21
74.880487
0
LINE
8
annotation
62
1
39
211
10
195.852567
20
74.880487
11
195.957843
21
74.731545
0
LINE
8
annotation
62
1
39
211
10
195.957843
20
74.731545
11
196.086401
21
74.602911
0
LINE
8
annotation
62
1
39
211
10
196.086401
20
74.602911
11
196.235202
21
74.497605
0
LINE
8
annotation
62
1
39
211
10
196.235202
20
74.497605
11
196.401210
21
74.418648
0
LINE
8
annotation
62
1
39
211
10
196.401210
20
74.418648
11
196.581386
21
74.369059
0
LINE
8
annotation
62
1
39
211
10
196.581386
20
74.369059
11
196.772694
21
74.351858
0
LINE
8
annotation
62
1
39
211
10
196.772694
20
74.351858
11
196.772694
21
74.351858
0
LINE
8
annotation
62
1
39
211
10
196.772694
20
74.351858
11
196.964398
21
74.369059
0
LINE
8
annotation
62
1
39
211
10
196.964398
20
74.369059
11
197.144785
21
74.418648
0
LINE
8
annotation
62
1
39
211
10
197.144785
20
74.418648
11
197.310855
21
74.497605
0
LINE
8
annotation
62
1
39
211
10
197.310855
20
74.497605
11
197.459607
21
74.602911
0
LINE
8
annotation
62
1
39
211
10
197.459607
20
74.602911
11
197.588041
21
74.731545
0
LINE
8
annotation
62
1
39
211
10
197.588041
20
74.731545
11
197.693156
21
74.880487
0
LINE
8
annotation
62
1
39
211
10
197.693156
20
74.880487
11
197.771954
21
75.046716
0
LINE
8
annotation
62
1
39
211
10
197.771954
20
75.046716
11
197.821432
21
75.227214
0
LINE
8
annotation
62
1
39
211
10
197.821432
20
75.227214
11
197.838592
21
75.418959
0
LINE
8
annotation
62
1
39
211
10
197.838592
20
75.418959
11
197.838592
21
75.949952
0
LINE
8
annotation
62
1
39
211
10
197.838592
20
75.949952
11
197.838592
21
75.949952
0
LINE
8
annotation
62
1
39
211
10
197.838592
20
75.949952
11
197.821432
21
76.141604
0
LINE
8
annotation
62
1
39
211
10
197.821432
20
76.141604
11
197.771954
21
76.321853
0
LINE
8
annotation
62
1
39
211
10
197.771954
20
76.321853
11
197.693156
21
76.487722
0
LINE
8
annotation
62
1
39
211
10
197.693156
20
76.487722
11
197.588041
21
76.636236
0
LINE
8
annotation
62
1
39
211
10
197.588041
20
76.636236
11
197.459607
21
76.764421
0
LINE
8
annotation
62
1
39
211
10
197.459607
20
76.764421
11
197.310855
21
76.869299
0
LINE
8
annotation
62
1
39
211
10
197.310855
20
76.869299
11
197.144785
21
76.947896
0
LINE
8
annotation
62
1
39
211
10
197.144785
20
76.947896
11
196.964398
21
76.997236
0
LINE
8
annotation
62
1
39
211
10
196.964398
20
76.997236
11
196.772694
21
77.014344
0
LINE
8
annotation
62
1
39
211
10
196.772694
20
77.014344
11
195.706797
21
77.014344
0
LINE
8
annotation
62
1
39
211
10
195.573296
20
73.751858
11
197.973296
21
73.751858
0
LINE
8
annotation
62
1
39
211
10
190.650143
20
93.274019
11
191.717245
21
98.074019
0
LINE
8
annotation
62
1
39
211
10
191.717245
20
98.074019
11
189.582741
21
98.074019
0
LINE
8
annotation
62
1
39
211
10
191.717245
20
95.936505
11
190.650143
21
95.936505
0
LINE
8
annotation
62
1
39
211
10
183.672383
20
113.260422
11
183.672383
21
113.260422
0
LINE
8
annotation
62
1
39
211
10
183.672383
20
113.260422
11
183.689592
21
113.068769
0
LINE
8
annotation
62
1
39
211
10
183.689592
20
113.068769
11
183.739194
21
112.888520
0
LINE
8
annotation
62
1
39
211
10
183.739194
20
112.888520
11
183.818153
21
112.722651
0
LINE
8
annotation
62
1
39
211
10
183.818153
20
112.722651
11
183.923429
21
112.574137
0
LINE
8
annotation
62
1
39
211
10
183.923429
20
112.574137
11
184.051987
21
112.445953
0
LINE
8
annotation
62
1
39
211
10
184.051987
20
112.445953
11
184.200789
21
112.341074
0
LINE
8
annotation
62
1
39
211
10
184.200789
20
112.341074
11
184.366796
21
112.262477
0
LINE
8
annotation
62
1
39
211
10
184.366796
20
112.262477
11
184.546973
21
112.213137
0
LINE
8
annotation
62
1
39
211
10
184.546973
20
112.213137
11
184.738280
21
112.196029
0
LINE
8
annotation
62
1
39
211
10
184.738280
20
112.196029
11
184.738280
21
112.196029
0
LINE
8
annotation
62
1
39
211
10
184.738280
20
112.196029
11
184.929588
21
112.213137
0
LINE
8
annotation
62
1
39
211
10
184.929588
20
112.213137
11
185.109765
21
112.262477
0
LINE
8
annotation
62
1
39
211
10
185.109765
20
112.262477
11
185.275772
21
112.341074
0
LINE
8
annotation
62
1
39
211
10
185.275772
20
112.341074
11
185.424574
21
112.445953
0
LINE
8
annotation
62
1
39
211
10
185.424574
20
112.445953
11
185.553131
21
112.574137
0
LINE
8
annotation
62
1
39
211
10
185.553131
20
112.574137
11
185.658408
21
112.722651
0
LINE
8
annotation
62
1
39
211
10
185.658408
20
112.722651
11
185.737366
21
112.888520
0
LINE
8
annotation
62
1
39
211
10
185.737366
20
112.888520
11
185.786969
21
113.068769
0
LINE
8
annotation
62
1
39
211
10
185.786969
20
113.068769
11
185.804178
21
113.260422
0
LINE
8
annotation
62
1
39
211
10
185.804178
20
113.260422
11
185.804178
21
113.791414
0
LINE
8
annotation
62
1
39
211
10
185.804178
20
113.791414
11
185.804178
21
113.791414
0
LINE
8
annotation
62
1
39
211
10
185.804178
20
113.791414
11
185.786979
21
113.983159
0
LINE
8
annotation
62
1
39
211
10
185.786979
20
113.983159
11
185.737401
21
114.163657
0
LINE
8
annotation
62
1
39
211
10
185.737401
20
114.163657
11
185.658475
21
114.329887
0
LINE
8
annotation
62
1
39
211
10
185.658475
20
114.329887
11
185.553230
21
114.478828
0
LINE
8
annotation
62
1
39
211
10
185.553230
20
114.478828
11
185.424697
21
114.607462
0
LINE
8
annotation
62
1
39
211
10
185.424697
20
114.607462
11
185.275906
21
114.712768
0
LINE
8
annotation
62
1
39
211
10
185.275906
20
114.712768
11
185.109886
21
114.791725
0
LINE
8
annotation
62
1
39
211
10
185.109886
20
114.791725
11
184.929667
21
114.841314
0
LINE
8
annotation
62
1
39
211
10
184.929667
20
114.841314
11
184.738280
21
114.858515
0
LINE
8
annotation
62
1
39
211
10
184.738280
20
114.858515
11
184.738280
21
114.858515
0
LINE
8
annotation
62
1
39
211
10
184.738280
20
114.858515
11
184.546893
21
114.841304
0
LINE
8
annotation
62
1
39
211
10
184.546893
20
114.841304
11
184.366675
21
114.791690
0
LINE
8
annotation
62
1
39
211
10
184.366675
20
114.791690
11
184.200655
21
114.712701
0
LINE
8
annotation
62
1
39
211
10
184.200655
20
114.712701
11
184.051863
21
114.607363
0
LINE
8
annotation
62
1
39
211
10
184.051863
20
114.607363
11
183.923330
21
114.478704
0
LINE
8
annotation
62
1
39
211
10
183.923330
20
114.478704
11
183.818086
21
114.329753
0
LINE
8
annotation
62
1
39
211
10
183.818086
20
114.329753
11
183.739160
21
114.163535
0
LINE
8
annotation
62
1
39
211
10
183.739160
20
114.163535
11
183.689582
21
113.983080
0
LINE
8
annotation
62
1
39
211
10
183.689582
20
113.983080
11
183.672383
21
113.791414
0
LINE
8
annotation
62
1
39
211
10
183.672383
20
113.791414
11
183.672383
21
113.260422
0
LINE
8
annotation
62
1
39
211
10
185.804178
20
115.925918
11
185.804178
21
115.925918
0
LINE
8
annotation
62
1
39
211
10
185.804178
20
115.925918
11
185.786979
21
116.116777
0
LINE
8
annotation
62
1
39
211
10
185.786979
20
116.116777
11
185.737401
21
116.296605
0
LINE
8
annotation
62
1
39
211
10
185.737401
20
116.296605
11
185.658475
21
116.462350
0
LINE
8
annotation
62
1
39
211
10
185.658475
20
116.462350
11
185.553230
21
116.610964
0
LINE
8
annotation
62
1
39
211
10
185.553230
20
116.610964
11
185.424697
21
116.739396
0
LINE
8
annotation
62
1
39
211
10
185.424697
20
116.739396
11
185.275906
21
116.844596
0
LINE
8
annotation
62
1
39
211
10
185.275906
20
116.844596
11
185.109886
21
116.923515
0
LINE
8
annotation
62
1
39
211
10
185.109886
20
116.923515
11
184.929667
21
116.973103
0
LINE
8
annotation
62
1
39
211
10
184.929667
20
116.973103
11
184.738280
21
116.990310
0
LINE
8
annotation
62
1
39
211
10
184.738280
20
116.990310
11
184.738280
21
116.990310
0
LINE
8
annotation
62
1
39
211
10
184.738280
20
116.990310
11
184.546893
21
116.973103
0
LINE
8
annotation
62
1
39
211
10
184.546893
20
116.973103
11
184.366675
21
116.923515
0
LINE
8
annotation
62
1
39
211
10
184.366675
20
116.923515
11
184.200655
21
116.844596
0
LINE
8
annotation
62
1
39
211
10
184.200655
20
116.844596
11
184.051863
21
116.739396
0
LINE
8
annotation
62
1
39
211
10
184.051863
20
116.739396
11
183.923330
21
116.610964
0
LINE
8
annotation
62
1
39
211
10
183.923330
20
116.610964
11
183.818086
21
116.462350
0
LINE
8
annotation
62
1
39
211
10
183.818086
20
116.462350
11
183.739160
21
116.296605
0
LINE
8
annotation
62
1
39
211
10
183.739160
20
116.296605
11
183.689582
21
116.116777
0
LINE
8
annotation
62
1
39
211
10
183.689582
20
116.116777
11
183.672383
21
115.925918
0
LINE
8
annotation
62
1
39
211
10
183.672383
20
115.925918
11
183.672383
21
115.925918
0
LINE
8
annotation
62
1
39
211
10
183.672383
20
115.925918
11
183.689592
21
115.734162
0
LINE
8
annotation
62
1
39
211
10
183.689592
20
115.734162
11
183.739194
21
115.553636
0
LINE
8
annotation
62
1
39
211
10
183.739194
20
115.553636
11
183.818153
21
115.387367
0
LINE
8
annotation
62
1
39
211
10
183.818153
20
115.387367
11
183.923429
21
115.238377
0
LINE
8
annotation
62
1
39
211
10
183.923429
20
115.238377
11
184.051987
21
115.109694
0
LINE
8
annotation
62
1
39
211
10
184.051987
20
115.109694
11
184.200789
21
115.004341
0
LINE
8
annotation
62
1
39
211
10
184.200789
20
115.004341
11
184.366796
21
114.925343
0
LINE
8
annotation
62
1
39
211
10
184.366796
20
114.925343
11
184.546973
21
114.875726
0
LINE
8
annotation
62
1
39
211
10
184.546973
20
114.875726
11
184.738280
21
114.858515
0
LINE
8
annotation
62
1
39
211
10
184.738280
20
114.858515
11
184.738280
21
114.858515
0
LINE
8
annotation
62
1
39
211
10
184.738280
20
114.858515
11
184.929588
21
114.875726
0
LINE
8
annotation
62
1
39
211
10
184.929588
20
114.875726
11
185.109765
21
114.925343
0
LINE
8
annotation
62
1
39
211
10
185.109765
20
114.925343
11
185.275772
21
115.004341
0
LINE
8
annotation
62
1
39
211
10
185.275772
20
115.004341
11
185.424574
21
115.109694
0
LINE
8
annotation
62
1
39
211
10
185.424574
20
115.109694
11
185.553131
21
115.238377
0
LINE
8
annotation
62
1
39
211
10
185.553131
20
115.238377
11
185.658408
21
115.387367
0
LINE
8
annotation
62
1
39
211
10
185.658408
20
115.387367
11
185.737366
21
115.553636
0
LINE
8
annotation
62
1
39
211
10
185.737366
20
115.553636
11
185.786969
21
115.734162
0
LINE
8
annotation
62
1
39
211
10
185.786969
20
115.734162
11
185.804178
21
115.925918
0
LINE
8
annotation
62
1
39
211
10
178.508087
20
131.118341
11
178.508087
21
131.118341
0
LINE
8
annotation
62
1
39
211
10
178.508087
20
131.118341
11
178.812902
21
131.231930
0
LINE
8
annotation
62
1
39
211
10
178.812902
20
131.231930
11
179.092685
21
131.385466
0
LINE
8
annotation
62
1
39
211
10
179.092685
20
131.385466
11
179.344543
21
131.575038
0
LINE
8
annotation
62
1
39
211
10
179.344543
20
131.575038
11
179.565587
21
131.796732
0
LINE
8
annotation
62
1
39
211
10
179.565587
20
131.796732
11
179.752924
21
132.046638
0
LINE
8
annotation
62
1
39
211
10
179.752924
20
132.046638
11
179.903664
21
132.320844
0
LINE
8
annotation
62
1
39
211
10
179.903664
20
132.320844
11
180.014914
21
132.615436
0
LINE
8
annotation
62
1
39
211
10
180.014914
20
132.615436
11
180.083785
21
132.926504
0
LINE
8
annotation
62
1
39
211
10
180.083785
20
132.926504
11
180.107384
21
133.250135
0
LINE
8
annotation
62
1
39
211
10
180.107384
20
133.250135
11
180.107384
21
134.850938
0
LINE
8
annotation
62
1
39
211
10
180.107384
20
134.850938
11
180.107384
21
134.850938
0
LINE
8
annotation
62
1
39
211
10
180.107384
20
134.850938
11
180.090225
21
135.042694
0
LINE
8
annotation
62
1
39
211
10
180.090225
20
135.042694
11
180.040746
21
135.223219
0
LINE
8
annotation
62
1
39
211
10
180.040746
20
135.223219
11
179.961949
21
135.389489
0
LINE
8
annotation
62
1
39
211
10
179.961949
20
135.389489
11
179.856834
21
135.538478
0
LINE
8
annotation
62
1
39
211
10
179.856834
20
135.538478
11
179.728400
21
135.667162
0
LINE
8
annotation
62
1
39
211
10
179.728400
20
135.667162
11
179.579648
21
135.772515
0
LINE
8
annotation
62
1
39
211
10
179.579648
20
135.772515
11
179.413578
21
135.851513
0
LINE
8
annotation
62
1
39
211
10
179.413578
20
135.851513
11
179.233191
21
135.901129
0
LINE
8
annotation
62
1
39
211
10
179.233191
20
135.901129
11
179.041487
21
135.918341
0
LINE
8
annotation
62
1
39
211
10
179.041487
20
135.918341
11
179.041487
21
135.918341
0
LINE
8
annotation
62
1
39
211
10
179.041487
20
135.918341
11
178.850179
21
135.901129
0
LINE
8
annotation
62
1
39
211
10
178.850179
20
135.901129
11
178.670003
21
135.851513
0
LINE
8
annotation
62
1
39
211
10
178.670003
20
135.851513
11
178.503995
21
135.772515
0
LINE
8
annotation
62
1
39
211
10
178.503995
20
135.772515
11
178.355194
21
135.667162
0
LINE
8
annotation
62
1
39
211
10
178.355194
20
135.667162
11
178.226636
21
135.538478
0
LINE
8
annotation
62
1
39
211
10
178.226636
20
135.538478
11
178.121359
21
135.389489
0
LINE
8
annotation
62
1
39
211
10
178.121359
20
135.389489
11
178.042401
21
135.223219
0
LINE
8
annotation
62
1
39
211
10
178.042401
20
135.223219
11
177.992799
21
135.042694
0
LINE
8
annotation
62
1
39
211
10
177.992799
20
135.042694
11
177.975590
21
134.850938
0
LINE
8
annotation
62
1
39
211
10
177.975590
20
134.850938
11
177.975590
21
134.317237
0
LINE
8
annotation
62
1
39
211
10
177.975590
20
134.317237
11
177.975590
21
134.317237
0
LINE
8
annotation
62
1
39
211
10
177.975590
20
134.317237
11
177.992799
21
134.125491
0
LINE
8
annotation
62
1
39
211
10
177.992799
20
134.125491
11
178.042401
21
133.944994
0
LINE
8
annotation
62
1
39
211
10
178.042401
20
133.944994
11
178.121359
21
133.778764
0
LINE
8
annotation
62
1
39
211
10
178.121359
20
133.778764
11
178.226636
21
133.629822
0
LINE
8
annotation
62
1
39
211
10
178.226636
20
133.629822
11
178.355194
21
133.501189
0
LINE
8
annotation
62
1
39
211
10
178.355194
20
133.501189
11
178.503995
21
133.395883
0
LINE
8
annotation
62
1
39
211
10
178.503995
20
133.395883
11
178.670003
21
133.316925
0
LINE
8
annotation
62
1
39
211
10
178.670003
20
133.316925
11
178.850179
21
133.267336
0
LINE
8
annotation
62
1
39
211
10
178.850179
20
133.267336
11
179.041487
21
133.250135
0
LINE
8
annotation
62
1
39
211
10
179.041487
20
133.250135
11
180.107384
21
133.250135
0
LINE
8
annotation
62
1
39
211
10
177.842390
20
130.518341
11
180.242390
21
130.518341
0
LINE
8
annotation
62
1
39
211
10
172.168526
20
150.131642
11
172.168526
21
154.749361
0
LINE
8
annotation
62
1
39
211
10
172.168526
20
154.749361
11
171.141947
21
153.722494
0
LINE
8
annotation
62
1
39
211
10
174.641754
20
150.192551
11
174.641754
21
150.192551
0
LINE
8
annotation
62
1
39
211
10
174.641754
20
150.192551
11
174.749076
21
150.152431
0
LINE
8
annotation
62
1
39
211
10
174.749076
20
150.152431
11
174.859143
21
150.132499
0
LINE
8
annotation
62
1
39
211
10
174.859143
20
150.132499
11
174.969468
21
150.131942
0
LINE
8
annotation
62
1
39
211
10
174.969468
20
150.131942
11
175.077562
21
150.149947
0
LINE
8
annotation
62
1
39
211
10
175.077562
20
150.149947
11
175.180936
21
150.185701
0
LINE
8
annotation
62
1
39
211
10
175.180936
20
150.185701
11
175.277103
21
150.238391
0
LINE
8
annotation
62
1
39
211
10
175.277103
20
150.238391
11
175.363575
21
150.307206
0
LINE
8
annotation
62
1
39
211
10
175.363575
20
150.307206
11
175.437862
21
150.391331
0
LINE
8
annotation
62
1
39
211
10
175.437862
20
150.391331
11
175.497478
21
150.489955
0
LINE
8
annotation
62
1
39
211
10
175.497478
20
150.489955
11
175.497478
21
150.489955
0
LINE
8
annotation
62
1
39
211
10
175.497478
20
150.489955
11
175.675347
21
150.906302
0
LINE
8
annotation
62
1
39
211
10
175.675347
20
150.906302
11
175.808749
21
151.334699
0
LINE
8
annotation
62
1
39
211
10
175.808749
20
151.334699
11
175.897684
21
151.771732
0
LINE
8
annotation
62
1
39
211
10
175.897684
20
151.771732
11
175.942151
21
152.213985
0
LINE
8
annotation
62
1
39
211
10
175.942151
20
152.213985
11
175.942151
21
152.658041
0
LINE
8
annotation
62
1
39
211
10
175.942151
20
152.658041
11
175.897684
21
153.100487
0
LINE
8
annotation
62
1
39
211
10
175.897684
20
153.100487
11
175.808749
21
153.537906
0
LINE
8
annotation
62
1
39
211
10
175.808749
20
153.537906
11
175.675347
21
153.966883
0
LINE
8
annotation
62
1
39
211
10
175.675347
20
153.966883
11
175.497478
21
154.384002
0
LINE
8
annotation
62
1
39
211
10
175.497478
20
154.384002
11
175.497478
21
154.384002
0
LINE
8
annotation
62
1
39
211
10
175.497478
20
154.384002
11
175.474858
21
154.426098
0
LINE
8
annotation
62
1
39
211
10
175.474858
20
154.426098
11
175.449213
21
154.466345
0
LINE
8
annotation
62
1
39
211
10
175.449213
20
154.466345
11
175.420738
21
154.504544
0
LINE
8
annotation
62
1
39
211
10
175.420738
20
154.504544
11
175.389623
21
154.540498
0
LINE
8
annotation
62
1
39
211
10
175.389623
20
154.540498
11
175.356064
21
154.574010
0
LINE
8
annotation
62
1
39
211
10
175.356064
20
154.574010
11
175.320252
21
154.604880
0
LINE
8
annotation
62
1
39
211
10
175.320252
20
154.604880
11
175.282380
21
154.632912
0
LINE
8
annotation
62
1
39
211
10
175.282380
20
154.632912
11
175.242643
21
154.657907
0
LINE
8
annotation
62
1
39
211
10
175.242643
20
154.657907
11
175.201232
21
154.679668
0
LINE
8
annotation
62
1
39
211
10
175.201232
20
154.679668
11
175.201232
21
154.679668
0
LINE
8
annotation
62
1
39
211
10
175.201232
20
154.679668
11
175.093059
21
154.720657
0
LINE
8
annotation
62
1
39
211
10
175.093059
20
154.720657
11
174.982347
21
154.741271
0
LINE
8
annotation
62
1
39
211
10
174.982347
20
154.741271
11
174.871556
21
154.742326
0
LINE
8
annotation
62
1
39
211
10
174.871556
20
154.742326
11
174.763146
21
154.724640
0
LINE
8
annotation
62
1
39
211
10
174.763146
20
154.724640
11
174.659578
21
154.689031
0
LINE
8
annotation
62
1
39
211
10
174.659578
20
154.689031
11
174.563309
21
154.636316
0
LINE
8
annotation
62
1
39
211
10
174.563309
20
154.636316
11
174.476801
21
154.567313
0
LINE
8
annotation
62
1
39
211
10
174.476801
20
154.567313
11
174.402512
21
154.482839
0
LINE
8
annotation
62
1
39
211
10
174.402512
20
154.482839
11
174.342903
21
154.383712
0
LINE
8
annotation
62
1
39
211
10
174.342903
20
154.383712
11
174.342903
21
154.383712
0
LINE
8
annotation
62
1
39
211
10
174.342903
20
154.383712
11
174.165891
21
153.967451
0
LINE
8
annotation
62
1
39
211
10
174.165891
20
153.967451
11
174.033133
21
153.539118
0
LINE
8
annotation
62
1
39
211
10
174.033133
20
153.539118
11
173.944627
21
153.102128
0
LINE
8
annotation
62
1
39
211
10
173.944627
20
153.102128
11
173.900374
21
152.659897
0
LINE
8
annotation
62
1
39
211
10
173.900374
20
152.659897
11
173.900374
21
152.215840
0
LINE
8
annotation
62
1
39
211
10
173.900374
20
152.215840
11
173.944627
21
151.773373
0
LINE
8
annotation
62
1
39
211
10
173.944627
20
151.773373
11
174.033133
21
151.335911
0
LINE
8
annotation
62
1
39
211
10
174.033133
20
151.335911
11
174.165891
21
150.906870
0
LINE
8
annotation
62
1
39
211
10
174.165891
20
150.906870
11
174.342903
21
150.489665
0
LINE
8
annotation
62
1
39
211
10
174.342903
20
150.489665
11
174.342903
21
150.489665
0
LINE
8
annotation
62
1
39
211
10
174.342903
20
150.489665
11
174.365440
21
150.447653
0
LINE
8
annotation
62
1
39
211
10
174.365440
20
150.447653
11
174.390895
21
150.407607
0
LINE
8
annotation
62
1
39
211
10
174.390895
20
150.407607
11
174.419160
21
150.369648
0
LINE
8
annotation
62
1
39
211
10
174.419160
20
150.369648
11
174.450128
21
150.333899
0
LINE
8
annotation
62
1
39
211
10
174.450128
20
150.333899
11
174.483691
21
150.300482
0
LINE
8
annotation
62
1
39
211
10
174.483691
20
150.300482
11
174.519743
21
150.269516
0
LINE
8
annotation
62
1
39
211
10
174.519743
20
150.269516
11
174.558175
21
150.241125
0
LINE
8
annotation
62
1
39
211
10
174.558175
20
150.241125
11
174.598882
21
150.215429
0
LINE
8
annotation
62
1
39
211
10
174.598882
20
150.215429
11
174.641754
21
150.192551
0
LINE
8
annotation
62
1
39
211
10
167.385470
20
168.962662
11
167.385470
21
173.762662
0
LINE
8
annotation
62
1
39
211
10
167.385470
20
173.762662
11
166.318369
21
172.695260
0
LINE
8
annotation
62
1
39
211
10
170.252572
20
168.962662
11
170.252572
21
173.762662
0
LINE
8
annotation
62
1
39
211
10
170.252572
20
173.762662
11
169.185470
21
172.695260
0
LINE
8
annotation
62
1
39
211
10
161.944397
20
187.980649
11
161.944397
21
192.588998
0
LINE
8
annotation
62
1
39
211
10
161.944397
20
192.588998
11
160.919902
21
191.564214
0
LINE
8
annotation
62
1
39
211
10
165.719410
20
187.980611
11
163.672732
21
187.980611
0
LINE
8
annotation
62
1
39
211
10
163.672732
20
187.980611
11
165.563929
21
191.025197
0
LINE
8
annotation
62
1
39
211
10
165.563929
20
191.025197
11
165.563929
21
191.025197
0
LINE
8
annotation
62
1
39
211
10
165.563929
20
191.025197
11
165.566190
21
191.027994
0
LINE
8
annotation
62
1
39
211
10
165.566190
20
191.027994
11
165.568358
21
191.030816
0
LINE
8
annotation
62
1
39
211
10
165.568358
20
191.030816
11
165.570448
21
191.033685
0
LINE
8
annotation
62
1
39
211
10
165.570448
20
191.033685
11
165.572473
21
191.036625
0
LINE
8
annotation
62
1
39
211
10
165.572473
20
191.036625
11
165.574448
21
191.039660
0
LINE
8
annotation
62
1
39
211
10
165.574448
20
191.039660
11
165.576388
21
191.042815
0
LINE
8
annotation
62
1
39
211
10
165.576388
20
191.042815
11
165.578307
21
191.046112
0
LINE
8
annotation
62
1
39
211
10
165.578307
20
191.046112
11
165.580218
21
191.049576
0
LINE
8
annotation
62
1
39
211
10
165.580218
20
191.049576
11
165.582136
21
191.053229
0
LINE
8
annotation
62
1
39
211
10
165.582136
20
191.053229
11
165.582136
21
191.053229
0
LINE
8
annotation
62
1
39
211
10
165.582136
20
191.053229
11
165.660223
21
191.220889
0
LINE
8
annotation
62
1
39
211
10
165.660223
20
191.220889
11
165.705840
21
191.394683
0
LINE
8
annotation
62
1
39
211
10
165.705840
20
191.394683
11
165.720105
21
191.570684
0
LINE
8
annotation
62
1
39
211
10
165.720105
20
191.570684
11
165.704136
21
191.744966
0
LINE
8
annotation
62
1
39
211
10
165.704136
20
191.744966
11
165.659051
21
191.913601
0
LINE
8
annotation
62
1
39
211
10
165.659051
20
191.913601
11
165.585968
21
192.072662
0
LINE
8
annotation
62
1
39
211
10
165.585968
20
192.072662
11
165.486004
21
192.218222
0
LINE
8
annotation
62
1
39
211
10
165.486004
20
192.218222
11
165.360278
21
192.346354
0
LINE
8
annotation
62
1
39
211
10
165.360278
20
192.346354
11
165.209908
21
192.453132
0
LINE
8
annotation
62
1
39
211
10
165.209908
20
192.453132
11
165.209908
21
192.453132
0
LINE
8
annotation
62
1
39
211
10
165.209908
20
192.453132
11
165.041782
21
192.530109
0
LINE
8
annotation
62
1
39
211
10
165.041782
20
192.530109
11
164.867721
21
192.575024
0
LINE
8
annotation
62
1
39
211
10
164.867721
20
192.575024
11
164.691618
21
192.588886
0
LINE
8
annotation
62
1
39
211
10
164.691618
20
192.588886
11
164.517362
21
192.572706
0
LINE
8
annotation
62
1
39
211
10
164.517362
20
192.572706
11
164.348847
21
192.527496
0
LINE
8
annotation
62
1
39
211
10
164.348847
20
192.527496
11
164.189962
21
192.454266
0
LINE
8
annotation
62
1
39
211
10
164.189962
20
192.454266
11
164.044599
21
192.354028
0
LINE
8
annotation
62
1
39
211
10
164.044599
20
192.354028
11
163.916650
21
192.227792
0
LINE
8
annotation
62
1
39
211
10
163.916650
20
192.227792
11
163.810005
21
192.076569
0
LINE
8
annotation
62
1
39
211
10
163.810005
20
192.076569
11
163.675621
21
191.818783
0
LINE
8
annotation
62
1
39
211
10
157.368545
20
206.902476
11
157.368545
21
211.511493
0
LINE
8
annotation
62
1
39
211
10
157.368545
20
211.511493
11
156.343901
21
210.486560
0
LINE
8
annotation
62
1
39
211
10
159.096782
20
206.902620
11
160.120269
21
206.902620
0
LINE
8
annotation
62
1
39
211
10
160.120269
20
206.902620
11
160.120269
21
206.902620
0
LINE
8
annotation
62
1
39
211
10
160.120269
20
206.902620
11
160.304346
21
206.919133
0
LINE
8
annotation
62
1
39
211
10
160.304346
20
206.919133
11
160.477556
21
206.966724
0
LINE
8
annotation
62
1
39
211
10
160.477556
20
206.966724
11
160.637018
21
207.042472
0
LINE
8
annotation
62
1
39
211
10
160.637018
20
207.042472
11
160.779851
21
207.143456
0
LINE
8
annotation
62
1
39
211
10
160.779851
20
207.143456
11
160.903175
21
207.266754
0
LINE
8
annotation
62
1
39
211
10
160.903175
20
207.266754
11
161.004108
21
207.409445
0
LINE
8
annotation
62
1
39
211
10
161.004108
20
207.409445
11
161.079770
21
207.568607
0
LINE
8
annotation
62
1
39
211
10
161.079770
20
207.568607
11
161.127280
21
207.741320
0
LINE
8
annotation
62
1
39
211
10
161.127280
20
207.741320
11
161.143757
21
207.924662
0
LINE
8
annotation
62
1
39
211
10
161.143757
20
207.924662
11
161.143757
21
208.437129
0
LINE
8
annotation
62
1
39
211
10
161.143757
20
208.437129
11
161.143757
21
208.437129
0
LINE
8
annotation
62
1
39
211
10
161.143757
20
208.437129
11
161.127280
21
208.620395
0
LINE
8
annotation
62
1
39
211
10
161.127280
20
208.620395
11
161.079770
21
208.793067
0
LINE
8
annotation
62
1
39
211
10
161.079770
20
208.793067
11
161.004108
21
208.952218
0
LINE
8
annotation
62
1
39
211
10
161.004108
20
208.952218
11
160.903175
21
209.094918
0
LINE
8
annotation
62
1
39
211
10
160.903175
20
209.094918
11
160.779851
21
209.218240
0
LINE
8
annotation
62
1
39
211
10
160.779851
20
209.218240
11
160.637018
21
209.319255
0
LINE
8
annotation
62
1
39
211
10
160.637018
20
209.319255
11
160.477556
21
209.395034
0
LINE
8
annotation
62
1
39
211
10
160.477556
20
209.395034
11
160.304346
21
209.442648
0
LINE
8
annotation
62
1
39
211
10
160.304346
20
209.442648
11
160.120269
21
209.459171
0
LINE
8
annotation
62
1
39
211
10
160.120269
20
209.459171
11
159.607803
21
209.459171
0
LINE
8
annotation
62
1
39
211
10
159.607803
20
209.459171
11
160.120269
21
209.459171
0
LINE
8
annotation
62
1
39
211
10
160.120269
20
209.459171
11
160.120269
21
209.459171
0
LINE
8
annotation
62
1
39
211
10
160.120269
20
209.459171
11
160.304346
21
209.475697
0
LINE
8
annotation
62
1
39
211
10
160.304346
20
209.475697
11
160.477556
21
209.523340
0
LINE
8
annotation
62
1
39
211
10
160.477556
20
209.523340
11
160.637018
21
209.599194
0
LINE
8
annotation
62
1
39
211
10
160.637018
20
209.599194
11
160.779851
21
209.700356
0
LINE
8
annotation
62
1
39
211
10
160.779851
20
209.700356
11
160.903175
21
209.823919
0
LINE
8
annotation
62
1
39
211
10
160.903175
20
209.823919
11
161.004108
21
209.966980
0
LINE
8
annotation
62
1
39
211
10
161.004108
20
209.966980
11
161.079770
21
210.126635
0
LINE
8
annotation
62
1
39
211
10
161.079770
20
210.126635
11
161.127280
21
210.299977
0
LINE
8
annotation
62
1
39
211
10
161.127280
20
210.299977
11
161.143757
21
210.484104
0
LINE
8
annotation
62
1
39
211
10
161.143757
20
210.484104
11
161.143757
21
210.484104
0
LINE
8
annotation
62
1
39
211
10
161.143757
20
210.484104
11
161.127280
21
210.667369
0
LINE
8
annotation
62
1
39
211
10
161.127280
20
210.667369
11
161.079770
21
210.840042
0
LINE
8
annotation
62
1
39
211
10
161.079770
20
210.840042
11
161.004108
21
210.999193
0
LINE
8
annotation
62
1
39
211
10
161.004108
20
210.999193
11
160.903175
21
211.141893
0
LINE
8
annotation
62
1
39
211
10
160.903175
20
211.141893
11
160.779851
21
211.265215
0
LINE
8
annotation
62
1
39
211
10
160.779851
20
211.265215
11
160.637018
21
211.366229
0
LINE
8
annotation
62
1
39
211
10
160.637018
20
211.366229
11
160.477556
21
211.442008
0
LINE
8
annotation
62
1
39
211
10
160.477556
20
211.442008
11
160.304346
21
211.489623
0
LINE
8
annotation
62
1
39
211
10
160.304346
20
211.489623
11
160.120269
21
211.506146
0
LINE
8
annotation
62
1
39
211
10
160.120269
20
211.506146
11
159.096782
21
211.506146
0
LINE
8
annotation
62
1
39
211
10
153.024220
20
226.046827
11
153.024220
21
230.211463
0
LINE
8
annotation
62
1
39
211
10
153.024220
20
230.211463
11
152.098368
21
229.285350
0
LINE
8
annotation
62
1
39
211
10
156.898238
20
226.972679
11
154.585828
21
226.972679
0
LINE
8
annotation
62
1
39
211
10
154.585828
20
226.972679
11
155.509329
21
230.211463
0
LINE
8
annotation
62
1
39
211
10
156.205089
20
226.046827
11
156.205089
21
227.896442
0
LINE
8
annotation
62
1
39
211
10
149.104566
20
244.746797
11
149.104566
21
249.355815
0
LINE
8
annotation
62
1
39
211
10
149.104566
20
249.355815
11
148.079922
21
248.330882
0
LINE
8
annotation
62
1
39
211
10
150.832803
20
244.746797
11
151.856290
21
244.746797
0
LINE
8
annotation
62
1
39
211
10
151.856290
20
244.746797
11
151.856290
21
244.746797
0
LINE
8
annotation
62
1
39
211
10
151.856290
20
244.746797
11
152.039986
21
244.763314
0
LINE
8
annotation
62
1
39
211
10
152.039986
20
244.763314
11
152.212994
21
244.810930
0
LINE
8
annotation
62
1
39
211
10
152.212994
20
244.810930
11
152.372396
21
244.886746
0
LINE
8
annotation
62
1
39
211
10
152.372396
20
244.886746
11
152.515277
21
244.987862
0
LINE
8
annotation
62
1
39
211
10
152.515277
20
244.987862
11
152.638720
21
245.111377
0
LINE
8
annotation
62
1
39
211
10
152.638720
20
245.111377
11
152.739808
21
245.254393
0
LINE
8
annotation
62
1
39
211
10
152.739808
20
245.254393
11
152.815624
21
245.414009
0
LINE
8
annotation
62
1
39
211
10
152.815624
20
245.414009
11
152.863253
21
245.587325
0
LINE
8
annotation
62
1
39
211
10
152.863253
20
245.587325
11
152.879778
21
245.771441
0
LINE
8
annotation
62
1
39
211
10
152.879778
20
245.771441
11
152.879778
21
246.281306
0
LINE
8
annotation
62
1
39
211
10
152.879778
20
246.281306
11
152.879778
21
246.281306
0
LINE
8
annotation
62
1
39
211
10
152.879778
20
246.281306
11
152.863263
21
246.465333
0
LINE
8
annotation
62
1
39
211
10
152.863263
20
246.465333
11
152.815658
21
246.638410
0
LINE
8
annotation
62
1
39
211
10
152.815658
20
246.638410
11
152.739872
21
246.797680
0
LINE
8
annotation
62
1
39
211
10
152.739872
20
246.797680
11
152.638815
21
246.940285
0
LINE
8
annotation
62
1
39
211
10
152.638815
20
246.940285
11
152.515396
21
247.063369
0
LINE
8
annotation
62
1
39
211
10
152.515396
20
247.063369
11
152.372525
21
247.164074
0
LINE
8
annotation
62
1
39
211
10
152.372525
20
247.164074
11
152.213110
21
247.239544
0
LINE
8
annotation
62
1
39
211
10
152.213110
20
247.239544
11
152.040062
21
247.286921
0
LINE
8
annotation
62
1
39
211
10
152.040062
20
247.286921
11
151.856290
21
247.303348
0
LINE
8
annotation
62
1
39
211
10
151.856290
20
247.303348
11
150.832803
21
247.303348
0
LINE
8
annotation
62
1
39
211
10
150.832803
20
247.303348
11
150.832803
21
249.355815
0
LINE
8
annotation
62
1
39
211
10
150.832803
20
249.355815
11
152.879778
21
249.355815
0
LINE
8
annotation
62
1
39
211
10
145.323397
20
263.668958
11
145.323397
21
268.277976
0
LINE
8
annotation
62
1
39
211
10
145.323397
20
268.277976
11
144.298754
21
267.253043
0
LINE
8
annotation
62
1
39
211
10
148.589033
20
268.277976
11
148.589033
21
268.277976
0
LINE
8
annotation
62
1
39
211
10
148.589033
20
268.277976
11
148.295830
21
268.168042
0
LINE
8
annotation
62
1
39
211
10
148.295830
20
268.168042
11
148.026777
21
268.019920
0
LINE
8
annotation
62
1
39
211
10
148.026777
20
268.019920
11
147.784637
21
267.837320
0
LINE
8
annotation
62
1
39
211
10
147.784637
20
267.837320
11
147.572172
21
267.623953
0
LINE
8
annotation
62
1
39
211
10
147.572172
20
267.623953
11
147.392144
21
267.383531
0
LINE
8
annotation
62
1
39
211
10
147.392144
20
267.383531
11
147.247314
21
267.119764
0
LINE
8
annotation
62
1
39
211
10
147.247314
20
267.119764
11
147.140444
21
266.836364
0
LINE
8
annotation
62
1
39
211
10
147.140444
20
266.836364
11
147.074297
21
266.537042
0
LINE
8
annotation
62
1
39
211
10
147.074297
20
266.537042
11
147.051634
21
266.225509
0
LINE
8
annotation
62
1
39
211
10
147.051634
20
266.225509
11
147.051634
21
264.693602
0
LINE
8
annotation
62
1
39
211
10
147.051634
20
264.693602
11
147.051634
21
264.693602
0
LINE
8
annotation
62
1
39
211
10
147.051634
20
264.693602
11
147.068159
21
264.509486
0
LINE
8
annotation
62
1
39
211
10
147.068159
20
264.509486
11
147.115787
21
264.336170
0
LINE
8
annotation
62
1
39
211
10
147.115787
20
264.336170
11
147.191604
21
264.176554
0
LINE
8
annotation
62
1
39
211
10
147.191604
20
264.176554
11
147.292692
21
264.033538
0
LINE
8
annotation
62
1
39
211
10
147.292692
20
264.033538
11
147.416135
21
263.910022
0
LINE
8
annotation
62
1
39
211
10
147.416135
20
263.910022
11
147.559016
21
263.808907
0
LINE
8
annotation
62
1
39
211
10
147.559016
20
263.808907
11
147.718418
21
263.733091
0
LINE
8
annotation
62
1
39
211
10
147.718418
20
263.733091
11
147.891426
21
263.685475
0
LINE
8
annotation
62
1
39
211
10
147.891426
20
263.685475
11
148.075122
21
263.668958
0
LINE
8
annotation
62
1
39
211
10
148.075122
20
263.668958
11
148.075122
21
263.668958
0
LINE
8
annotation
62
1
39
211
10
148.075122
20
263.668958
11
148.259198
21
263.685475
0
LINE
8
annotation
62
1
39
211
10
148.259198
20
263.685475
11
148.432408
21
263.733091
0
LINE
8
annotation
62
1
39
211
10
148.432408
20
263.733091
11
148.591870
21
263.808907
0
LINE
8
annotation
62
1
39
211
10
148.591870
20
263.808907
11
148.734703
21
263.910022
0
LINE
8
annotation
62
1
39
211
10
148.734703
20
263.910022
11
148.858027
21
264.033538
0
LINE
8
annotation
62
1
39
211
10
148.858027
20
264.033538
11
148.958960
21
264.176554
0
LINE
8
annotation
62
1
39
211
10
148.958960
20
264.176554
11
149.034622
21
264.336170
0
LINE
8
annotation
62
1
39
211
10
149.034622
20
264.336170
11
149.082132
21
264.509486
0
LINE
8
annotation
62
1
39
211
10
149.082132
20
264.509486
11
149.098609
21
264.693602
0
LINE
8
annotation
62
1
39
211
10
149.098609
20
264.693602
11
149.098609
21
265.203467
0
LINE
8
annotation
62
1
39
211
10
149.098609
20
265.203467
11
149.098609
21
265.203467
0
LINE
8
annotation
62
1
39
211
10
149.098609
20
265.203467
11
149.082132
21
265.387494
0
LINE
8
annotation
62
1
39
211
10
149.082132
20
265.387494
11
149.034622
21
265.560571
0
LINE
8
annotation
62
1
39
211
10
149.034622
20
265.560571
11
148.958960
21
265.719841
0
LINE
8
annotation
62
1
39
211
10
148.958960
20
265.719841
11
148.858027
21
265.862446
0
LINE
8
annotation
62
1
39
211
10
148.858027
20
265.862446
11
148.734703
21
265.985530
0
LINE
8
annotation
62
1
39
211
10
148.734703
20
265.985530
11
148.591870
21
266.086235
0
LINE
8
annotation
62
1
39
211
10
148.591870
20
266.086235
11
148.432408
21
266.161705
0
LINE
8
annotation
62
1
39
211
10
148.432408
20
266.161705
11
148.259198
21
266.209082
0
LINE
8
annotation
62
1
39
211
10
148.259198
20
266.209082
11
148.075122
21
266.225509
0
LINE
8
annotation
62
1
39
211
10
148.075122
20
266.225509
11
147.051634
21
266.225509
0
LINE
8
annotation
62
1
39
211
10
146.923445
20
263.092831
11
149.227954
21
263.092831
0
LINE
8
annotation
62
1
39
211
10
141.868495
20
282.592367
11
141.868495
21
287.198888
0
LINE
8
annotation
62
1
39
211
10
141.868495
20
287.198888
11
140.844407
21
286.174511
0
LINE
8
annotation
62
1
39
211
10
144.620029
20
282.592367
11
145.644118
21
287.198888
0
LINE
8
annotation
62
1
39
211
10
145.644118
20
287.198888
11
143.595652
21
287.198888
0
LINE
8
annotation
62
1
39
211
10
145.644118
20
285.147533
11
144.620029
21
285.147533
0
LINE
8
annotation
62
1
39
211
10
138.474103
20
301.513280
11
138.474103
21
306.122298
0
LINE
8
annotation
62
1
39
211
10
138.474103
20
306.122298
11
137.449459
21
305.097365
0
LINE
8
annotation
62
1
39
211
10
140.202340
20
302.535178
11
140.202340
21
302.535178
0
LINE
8
annotation
62
1
39
211
10
140.202340
20
302.535178
11
140.218864
21
302.351151
0
LINE
8
annotation
62
1
39
211
10
140.218864
20
302.351151
11
140.266493
21
302.178074
0
LINE
8
annotation
62
1
39
211
10
140.266493
20
302.178074
11
140.342309
21
302.018804
0
LINE
8
annotation
62
1
39
211
10
140.342309
20
302.018804
11
140.443397
21
301.876199
0
LINE
8
annotation
62
1
39
211
10
140.443397
20
301.876199
11
140.566840
21
301.753115
0
LINE
8
annotation
62
1
39
211
10
140.566840
20
301.753115
11
140.709721
21
301.652410
0
LINE
8
annotation
62
1
39
211
10
140.709721
20
301.652410
11
140.869123
21
301.576940
0
LINE
8
annotation
62
1
39
211
10
140.869123
20
301.576940
11
141.042131
21
301.529563
0
LINE
8
annotation
62
1
39
211
10
141.042131
20
301.529563
11
141.225827
21
301.513136
0
LINE
8
annotation
62
1
39
211
10
141.225827
20
301.513136
11
141.225827
21
301.513136
0
LINE
8
annotation
62
1
39
211
10
141.225827
20
301.513136
11
141.409523
21
301.529563
0
LINE
8
annotation
62
1
39
211
10
141.409523
20
301.529563
11
141.582531
21
301.576940
0
LINE
8
annotation
62
1
39
211
10
141.582531
20
301.576940
11
141.741933
21
301.652410
0
LINE
8
annotation
62
1
39
211
10
141.741933
20
301.652410
11
141.884814
21
301.753115
0
LINE
8
annotation
62
1
39
211
10
141.884814
20
301.753115
11
142.008257
21
301.876199
0
LINE
8
annotation
62
1
39
211
10
142.008257
20
301.876199
11
142.109345
21
302.018804
0
LINE
8
annotation
62
1
39
211
10
142.109345
20
302.018804
11
142.185161
21
302.178074
0
LINE
8
annotation
62
1
39
211
10
142.185161
20
302.178074
11
142.232790
21
302.351151
0
LINE
8
annotation
62
1
39
211
10
142.232790
20
302.351151
11
142.249314
21
302.535178
0
LINE
8
annotation
62
1
39
211
10
142.249314
20
302.535178
11
142.249314
21
303.045043
0
LINE
8
annotation
62
1
39
211
10
142.249314
20
303.045043
11
142.249314
21
303.045043
0
LINE
8
annotation
62
1
39
211
10
142.249314
20
303.045043
11
142.232800
21
303.229159
0
LINE
8
annotation
62
1
39
211
10
142.232800
20
303.229159
11
142.185195
21
303.402475
0
LINE
8
annotation
62
1
39
211
10
142.185195
20
303.402475
11
142.109409
21
303.562091
0
LINE
8
annotation
62
1
39
211
10
142.109409
20
303.562091
11
142.008352
21
303.705107
0
LINE
8
annotation
62
1
39
211
10
142.008352
20
303.705107
11
141.884933
21
303.828622
0
LINE
8
annotation
62
1
39
211
10
141.884933
20
303.828622
11
141.742062
21
303.929738
0
LINE
8
annotation
62
1
39
211
10
141.742062
20
303.929738
11
141.582647
21
304.005554
0
LINE
8
annotation
62
1
39
211
10
141.582647
20
304.005554
11
141.409599
21
304.053170
0
LINE
8
annotation
62
1
39
211
10
141.409599
20
304.053170
11
141.225827
21
304.069686
0
LINE
8
annotation
62
1
39
211
10
141.225827
20
304.069686
11
141.225827
21
304.069686
0
LINE
8
annotation
62
1
39
211
10
141.225827
20
304.069686
11
141.042055
21
304.053160
0
LINE
8
annotation
62
1
39
211
10
141.042055
20
304.053160
11
140.869007
21
304.005520
0
LINE
8
annotation
62
1
39
211
10
140.869007
20
304.005520
11
140.709593
21
303.929674
0
LINE
8
annotation
62
1
39
211
10
140.709593
20
303.929674
11
140.566721
21
303.828527
0
LINE
8
annotation
62
1
39
211
10
140.566721
20
303.828527
11
140.443302
21
303.704988
0
LINE
8
annotation
62
1
39
211
10
140.443302
20
303.704988
11
140.342245
21
303.561962
0
LINE
8
annotation
62
1
39
211
10
140.342245
20
303.561962
11
140.266459
21
303.402359
0
LINE
8
annotation
62
1
39
211
10
140.266459
20
303.402359
11
140.218854
21
303.229083
0
LINE
8
annotation
62
1
39
211
10
140.218854
20
303.229083
11
140.202340
21
303.045043
0
LINE
8
annotation
62
1
39
211
10
140.202340
20
303.045043
11
140.202340
21
302.535178
0
LINE
8
annotation
62
1
39
211
10
142.249314
20
305.094619
11
142.249314
21
305.094619
0
LINE
8
annotation
62
1
39
211
10
142.249314
20
305.094619
11
142.232800
21
305.277885
0
LINE
8
annotation
62
1
39
211
10
142.232800
20
305.277885
11
142.185195
21
305.450557
0
LINE
8
annotation
62
1
39
211
10
142.185195
20
305.450557
11
142.109409
21
305.609708
0
LINE
8
annotation
62
1
39
211
10
142.109409
20
305.609708
11
142.008352
21
305.752409
0
LINE
8
annotation
62
1
39
211
10
142.008352
20
305.752409
11
141.884933
21
305.875730
0
LINE
8
annotation
62
1
39
211
10
141.884933
20
305.875730
11
141.742062
21
305.976745
0
LINE
8
annotation
62
1
39
211
10
141.742062
20
305.976745
11
141.582647
21
306.052524
0
LINE
8
annotation
62
1
39
211
10
141.582647
20
306.052524
11
141.409599
21
306.100139
0
LINE
8
annotation
62
1
39
211
10
141.409599
20
306.100139
11
141.225827
21
306.116661
0
LINE
8
annotation
62
1
39
211
10
141.225827
20
306.116661
11
141.225827
21
306.116661
0
LINE
8
annotation
62
1
39
211
10
141.225827
20
306.116661
11
141.042055
21
306.100139
0
LINE
8
annotation
62
1
39
211
10
141.042055
20
306.100139
11
140.869007
21
306.052524
0
LINE
8
annotation
62
1
39
211
10
140.869007
20
306.052524
11
140.709593
21
305.976745
0
LINE
8
annotation
62
1
39
211
10
140.709593
20
305.976745
11
140.566721
21
305.875730
0
LINE
8
annotation
62
1
39
211
10
140.566721
20
305.875730
11
140.443302
21
305.752409
0
LINE
8
annotation
62
1
39
211
10
140.443302
20
305.752409
11
140.342245
21
305.609708
0
LINE
8
annotation
62
1
39
211
10
140.342245
20
305.609708
11
140.266459
21
305.450557
0
LINE
8
annotation
62
1
39
211
10
140.266459
20
305.450557
11
140.218854
21
305.277885
0
LINE
8
annotation
62
1
39
211
10
140.218854
20
305.277885
11
140.202340
21
305.094619
0
LINE
8
annotation
62
1
39
211
10
140.202340
20
305.094619
11
140.202340
21
305.094619
0
LINE
8
annotation
62
1
39
211
10
140.202340
20
305.094619
11
140.218864
21
304.910493
0
LINE
8
annotation
62
1
39
211
10
140.218864
20
304.910493
11
140.266493
21
304.737150
0
LINE
8
annotation
62
1
39
211
10
140.266493
20
304.737150
11
140.342309
21
304.577496
0
LINE
8
annotation
62
1
39
211
10
140.342309
20
304.577496
11
140.443397
21
304.434435
0
LINE
8
annotation
62
1
39
211
10
140.443397
20
304.434435
11
140.566840
21
304.310871
0
LINE
8
annotation
62
1
39
211
10
140.566840
20
304.310871
11
140.709721
21
304.209710
0
LINE
8
annotation
62
1
39
211
10
140.709721
20
304.209710
11
140.869123
21
304.133855
0
LINE
8
annotation
62
1
39
211
10
140.869123
20
304.133855
11
141.042131
21
304.086213
0
LINE
8
annotation
62
1
39
211
10
141.042131
20
304.086213
11
141.225827
21
304.069686
0
LINE
8
annotation
62
1
39
211
10
141.225827
20
304.069686
11
141.225827
21
304.069686
0
LINE
8
annotation
62
1
39
211
10
141.225827
20
304.069686
11
141.409523
21
304.086213
0
LINE
8
annotation
62
1
39
211
10
141.409523
20
304.086213
11
141.582531
21
304.133855
0
LINE
8
annotation
62
1
39
211
10
141.582531
20
304.133855
11
141.741933
21
304.209710
0
LINE
8
annotation
62
1
39
211
10
141.741933
20
304.209710
11
141.884814
21
304.310871
0
LINE
8
annotation
62
1
39
211
10
141.884814
20
304.310871
11
142.008257
21
304.434435
0
LINE
8
annotation
62
1
39
211
10
142.008257
20
304.434435
11
142.109345
21
304.577496
0
LINE
8
annotation
62
1
39
211
10
142.109345
20
304.577496
11
142.185161
21
304.737150
0
LINE
8
annotation
62
1
39
211
10
142.185161
20
304.737150
11
142.232790
21
304.910493
0
LINE
8
annotation
62
1
39
211
10
142.232790
20
304.910493
11
142.249314
21
305.094619
0
LINE
8
annotation
62
1
39
211
10
134.669259
20
320.435441
11
134.669259
21
325.044458
0
LINE
8
annotation
62
1
39
211
10
134.669259
20
325.044458
11
133.644615
21
324.019526
0
LINE
8
annotation
62
1
39
211
10
136.908517
20
320.435441
11
136.908517
21
320.435441
0
LINE
8
annotation
62
1
39
211
10
136.908517
20
320.435441
11
137.201204
21
320.544511
0
LINE
8
annotation
62
1
39
211
10
137.201204
20
320.544511
11
137.469855
21
320.691938
0
LINE
8
annotation
62
1
39
211
10
137.469855
20
320.691938
11
137.711692
21
320.873967
0
LINE
8
annotation
62
1
39
211
10
137.711692
20
320.873967
11
137.923941
21
321.086841
0
LINE
8
annotation
62
1
39
211
10
137.923941
20
321.086841
11
138.103825
21
321.326803
0
LINE
8
annotation
62
1
39
211
10
138.103825
20
321.326803
11
138.248566
21
321.590099
0
LINE
8
annotation
62
1
39
211
10
138.248566
20
321.590099
11
138.355391
21
321.872970
0
LINE
8
annotation
62
1
39
211
10
138.355391
20
321.872970
11
138.421521
21
322.171661
0
LINE
8
annotation
62
1
39
211
10
138.421521
20
322.171661
11
138.444182
21
322.482416
0
LINE
8
annotation
62
1
39
211
10
138.444182
20
322.482416
11
138.444182
21
324.019526
0
LINE
8
annotation
62
1
39
211
10
138.444182
20
324.019526
11
138.444182
21
324.019526
0
LINE
8
annotation
62
1
39
211
10
138.444182
20
324.019526
11
138.427705
21
324.203652
0
LINE
8
annotation
62
1
39
211
10
138.427705
20
324.203652
11
138.380195
21
324.376995
0
LINE
8
annotation
62
1
39
211
10
138.380195
20
324.376995
11
138.304533
21
324.536649
0
LINE
8
annotation
62
1
39
211
10
138.304533
20
324.536649
11
138.203600
21
324.679710
0
LINE
8
annotation
62
1
39
211
10
138.203600
20
324.679710
11
138.080276
21
324.803274
0
LINE
8
annotation
62
1
39
211
10
138.080276
20
324.803274
11
137.937443
21
324.904435
0
LINE
8
annotation
62
1
39
211
10
137.937443
20
324.904435
11
137.777981
21
324.980289
0
LINE
8
annotation
62
1
39
211
10
137.777981
20
324.980289
11
137.604771
21
325.027932
0
LINE
8
annotation
62
1
39
211
10
137.604771
20
325.027932
11
137.420694
21
325.044458
0
LINE
8
annotation
62
1
39
211
10
137.420694
20
325.044458
11
137.420694
21
325.044458
0
LINE
8
annotation
62
1
39
211
10
137.420694
20
325.044458
11
137.236998
21
325.027932
0
LINE
8
annotation
62
1
39
211
10
137.236998
20
325.027932
11
137.063991
21
324.980289
0
LINE
8
annotation
62
1
39
211
10
137.063991
20
324.980289
11
136.904588
21
324.904435
0
LINE
8
annotation
62
1
39
211
10
136.904588
20
324.904435
11
136.761707
21
324.803274
0
LINE
8
annotation
62
1
39
211
10
136.761707
20
324.803274
11
136.638265
21
324.679710
0
LINE
8
annotation
62
1
39
211
10
136.638265
20
324.679710
11
136.537177
21
324.536649
0
LINE
8
annotation
62
1
39
211
10
136.537177
20
324.536649
11
136.461360
21
324.376995
0
LINE
8
annotation
62
1
39
211
10
136.461360
20
324.376995
11
136.413731
21
324.203652
0
LINE
8
annotation
62
1
39
211
10
136.413731
20
324.203652
11
136.397207
21
324.019526
0
LINE
8
annotation
62
1
39
211
10
136.397207
20
324.019526
11
136.397207
21
323.507059
0
LINE
8
annotation
62
1
39
211
10
136.397207
20
323.507059
11
136.397207
21
323.507059
0
LINE
8
annotation
62
1
39
211
10
136.397207
20
323.507059
11
136.413731
21
323.322943
0
LINE
8
annotation
62
1
39
211
10
136.413731
20
323.322943
11
136.461360
21
323.149627
0
LINE
8
annotation
62
1
39
211
10
136.461360
20
323.149627
11
136.537177
21
322.990011
0
LINE
8
annotation
62
1
39
211
10
136.537177
20
322.990011
11
136.638265
21
322.846996
0
LINE
8
annotation
62
1
39
211
10
136.638265
20
322.846996
11
136.761707
21
322.723480
0
LINE
8
annotation
62
1
39
211
10
136.761707
20
322.723480
11
136.904588
21
322.622364
0
LINE
8
annotation
62
1
39
211
10
136.904588
20
322.622364
11
137.063991
21
322.546548
0
LINE
8
annotation
62
1
39
211
10
137.063991
20
322.546548
11
137.236998
21
322.498932
0
LINE
8
annotation
62
1
39
211
10
137.236998
20
322.498932
11
137.420694
21
322.482416
0
LINE
8
annotation
62
1
39
211
10
137.420694
20
322.482416
11
138.444182
21
322.482416
0
LINE
8
annotation
62
1
39
211
10
136.269307
20
319.859314
11
138.573816
21
319.859314
0
LINE
8
annotation
62
1
39
211
10
130.027259
20
339.759486
11
128.337284
21
339.759486
0
LINE
8
annotation
62
1
39
211
10
128.337284
20
339.759486
11
129.898876
21
342.273449
0
LINE
8
annotation
62
1
39
211
10
129.898876
20
342.273449
11
129.898876
21
342.273449
0
LINE
8
annotation
62
1
39
211
10
129.898876
20
342.273449
11
129.900743
21
342.275759
0
LINE
8
annotation
62
1
39
211
10
129.900743
20
342.275759
11
129.902533
21
342.278088
0
LINE
8
annotation
62
1
39
211
10
129.902533
20
342.278088
11
129.904259
21
342.280457
0
LINE
8
annotation
62
1
39
211
10
129.904259
20
342.280457
11
129.905931
21
342.282885
0
LINE
8
annotation
62
1
39
211
10
129.905931
20
342.282885
11
129.907562
21
342.285391
0
LINE
8
annotation
62
1
39
211
10
129.907562
20
342.285391
11
129.909164
21
342.287996
0
LINE
8
annotation
62
1
39
211
10
129.909164
20
342.287996
11
129.910748
21
342.290719
0
LINE
8
annotation
62
1
39
211
10
129.910748
20
342.290719
11
129.912326
21
342.293579
0
LINE
8
annotation
62
1
39
211
10
129.912326
20
342.293579
11
129.913910
21
342.296596
0
LINE
8
annotation
62
1
39
211
10
129.913910
20
342.296596
11
129.913910
21
342.296596
0
LINE
8
annotation
62
1
39
211
10
129.913910
20
342.296596
11
129.978388
21
342.435035
0
LINE
8
annotation
62
1
39
211
10
129.978388
20
342.435035
11
130.016054
21
342.578539
0
LINE
8
annotation
62
1
39
211
10
130.016054
20
342.578539
11
130.027833
21
342.723866
0
LINE
8
annotation
62
1
39
211
10
130.027833
20
342.723866
11
130.014647
21
342.867773
0
LINE
8
annotation
62
1
39
211
10
130.014647
20
342.867773
11
129.977420
21
343.007018
0
LINE
8
annotation
62
1
39
211
10
129.977420
20
343.007018
11
129.917074
21
343.138357
0
LINE
8
annotation
62
1
39
211
10
129.917074
20
343.138357
11
129.834532
21
343.258548
0
LINE
8
annotation
62
1
39
211
10
129.834532
20
343.258548
11
129.730718
21
343.364349
0
LINE
8
annotation
62
1
39
211
10
129.730718
20
343.364349
11
129.606555
21
343.452517
0
LINE
8
annotation
62
1
39
211
10
129.606555
20
343.452517
11
129.606555
21
343.452517
0
LINE
8
annotation
62
1
39
211
10
129.606555
20
343.452517
11
129.467731
21
343.516079
0
LINE
8
annotation
62
1
39
211
10
129.467731
20
343.516079
11
129.324006
21
343.553165
0
LINE
8
annotation
62
1
39
211
10
129.324006
20
343.553165
11
129.178595
21
343.564611
0
LINE
8
annotation
62
1
39
211
10
129.178595
20
343.564611
11
129.034710
21
343.551251
0
LINE
8
annotation
62
1
39
211
10
129.034710
20
343.551251
11
128.895563
21
343.513921
0
LINE
8
annotation
62
1
39
211
10
128.895563
20
343.513921
11
128.764369
21
343.453454
0
LINE
8
annotation
62
1
39
211
10
128.764369
20
343.453454
11
128.644341
21
343.370685
0
LINE
8
annotation
62
1
39
211
10
128.644341
20
343.370685
11
128.538691
21
343.266450
0
LINE
8
annotation
62
1
39
211
10
128.538691
20
343.266450
11
128.450633
21
343.141583
0
LINE
8
annotation
62
1
39
211
10
128.450633
20
343.141583
11
128.339671
21
342.928725
0
LINE
8
annotation
62
1
39
211
10
132.065705
20
339.809709
11
132.065705
21
339.809709
0
LINE
8
annotation
62
1
39
211
10
132.065705
20
339.809709
11
132.154143
21
339.776649
0
LINE
8
annotation
62
1
39
211
10
132.154143
20
339.776649
11
132.244842
21
339.760224
0
LINE
8
annotation
62
1
39
211
10
132.244842
20
339.760224
11
132.335754
21
339.759765
0
LINE
8
annotation
62
1
39
211
10
132.335754
20
339.759765
11
132.424828
21
339.774601
0
LINE
8
annotation
62
1
39
211
10
132.424828
20
339.774601
11
132.510013
21
339.804064
0
LINE
8
annotation
62
1
39
211
10
132.510013
20
339.804064
11
132.589258
21
339.847483
0
LINE
8
annotation
62
1
39
211
10
132.589258
20
339.847483
11
132.660514
21
339.904189
0
LINE
8
annotation
62
1
39
211
10
132.660514
20
339.904189
11
132.721730
21
339.973512
0
LINE
8
annotation
62
1
39
211
10
132.721730
20
339.973512
11
132.770855
21
340.054782
0
LINE
8
annotation
62
1
39
211
10
132.770855
20
340.054782
11
132.770855
21
340.054782
0
LINE
8
annotation
62
1
39
211
10
132.770855
20
340.054782
11
132.917427
21
340.397868
0
LINE
8
annotation
62
1
39
211
10
132.917427
20
340.397868
11
133.027356
21
340.750885
0
LINE
8
annotation
62
1
39
211
10
133.027356
20
340.750885
11
133.100642
21
341.111018
0
LINE
8
annotation
62
1
39
211
10
133.100642
20
341.111018
11
133.137284
21
341.475452
0
LINE
8
annotation
62
1
39
211
10
133.137284
20
341.475452
11
133.137284
21
341.841372
0
LINE
8
annotation
62
1
39
211
10
133.137284
20
341.841372
11
133.100642
21
342.205965
0
LINE
8
annotation
62
1
39
211
10
133.100642
20
342.205965
11
133.027356
21
342.566416
0
LINE
8
annotation
62
1
39
211
10
133.027356
20
342.566416
11
132.917427
21
342.919910
0
LINE
8
annotation
62
1
39
211
10
132.917427
20
342.919910
11
132.770855
21
343.263633
0
LINE
8
annotation
62
1
39
211
10
132.770855
20
343.263633
11
132.770855
21
343.263633
0
LINE
8
annotation
62
1
39
211
10
132.770855
20
343.263633
11
132.752216
21
343.298322
0
LINE
8
annotation
62
1
39
211
10
132.752216
20
343.298322
11
132.731084
21
343.331487
0
LINE
8
annotation
62
1
39
211
10
132.731084
20
343.331487
11
132.707619
21
343.362965
0
LINE
8
annotation
62
1
39
211
10
132.707619
20
343.362965
11
132.681979
21
343.392592
0
LINE
8
annotation
62
1
39
211
10
132.681979
20
343.392592
11
132.654325
21
343.420207
0
LINE
8
annotation
62
1
39
211
10
132.654325
20
343.420207
11
132.624814
21
343.445645
0
LINE
8
annotation
62
1
39
211
10
132.624814
20
343.445645
11
132.593607
21
343.468745
0
LINE
8
annotation
62
1
39
211
10
132.593607
20
343.468745
11
132.560862
21
343.489342
0
LINE
8
annotation
62
1
39
211
10
132.560862
20
343.489342
11
132.526737
21
343.507274
0
LINE
8
annotation
62
1
39
211
10
132.526737
20
343.507274
11
132.526737
21
343.507274
0
LINE
8
annotation
62
1
39
211
10
132.526737
20
343.507274
11
132.437598
21
343.541050
0
LINE
8
annotation
62
1
39
211
10
132.437598
20
343.541050
11
132.346367
21
343.558037
0
LINE
8
annotation
62
1
39
211
10
132.346367
20
343.558037
11
132.255071
21
343.558906
0
LINE
8
annotation
62
1
39
211
10
132.255071
20
343.558906
11
132.165737
21
343.544332
0
LINE
8
annotation
62
1
39
211
10
132.165737
20
343.544332
11
132.080392
21
343.514989
0
LINE
8
annotation
62
1
39
211
10
132.080392
20
343.514989
11
132.001063
21
343.471550
0
LINE
8
annotation
62
1
39
211
10
132.001063
20
343.471550
11
131.929777
21
343.414689
0
LINE
8
annotation
62
1
39
211
10
131.929777
20
343.414689
11
131.868560
21
343.345079
0
LINE
8
annotation
62
1
39
211
10
131.868560
20
343.345079
11
131.819440
21
343.263394
0
LINE
8
annotation
62
1
39
211
10
131.819440
20
343.263394
11
131.819440
21
343.263394
0
LINE
8
annotation
62
1
39
211
10
131.819440
20
343.263394
11
131.673575
21
342.920378
0
LINE
8
annotation
62
1
39
211
10
131.673575
20
342.920378
11
131.564177
21
342.567414
0
LINE
8
annotation
62
1
39
211
10
131.564177
20
342.567414
11
131.491244
21
342.207317
0
LINE
8
annotation
62
1
39
211
10
131.491244
20
342.207317
11
131.454778
21
341.842901
0
LINE
8
annotation
62
1
39
211
10
131.454778
20
341.842901
11
131.454778
21
341.476981
0
LINE
8
annotation
62
1
39
211
10
131.454778
20
341.476981
11
131.491244
21
341.112370
0
LINE
8
annotation
62
1
39
211
10
131.491244
20
341.112370
11
131.564177
21
340.751884
0
LINE
8
annotation
62
1
39
211
10
131.564177
20
340.751884
11
131.673575
21
340.398337
0
LINE
8
annotation
62
1
39
211
10
131.673575
20
340.398337
11
131.819440
21
340.054543
0
LINE
8
annotation
62
1
39
211
10
131.819440
20
340.054543
11
131.819440
21
340.054543
0
LINE
8
annotation
62
1
39
211
10
131.819440
20
340.054543
11
131.838011
21
340.019923
0
LINE
8
annotation
62
1
39
211
10
131.838011
20
340.019923
11
131.858987
21
339.986923
0
LINE
8
annotation
62
1
39
211
10
131.858987
20
339.986923
11
131.882279
21
339.955644
0
LINE
8
annotation
62
1
39
211
10
131.882279
20
339.955644
11
131.907797
21
339.926186
0
LINE
8
annotation
62
1
39
211
10
131.907797
20
339.926186
11
131.935455
21
339.898648
0
LINE
8
annotation
62
1
39
211
10
131.935455
20
339.898648
11
131.965163
21
339.873131
0
LINE
8
annotation
62
1
39
211
10
131.965163
20
339.873131
11
131.996833
21
339.849736
0
LINE
8
annotation
62
1
39
211
10
131.996833
20
339.849736
11
132.030376
21
339.828562
0
LINE
8
annotation
62
1
39
211
10
132.030376
20
339.828562
11
132.065705
21
339.809709
0
LINE
8
annotation
62
1
39
211
10
200.654413
20
65.885691
11
197.185920
21
65.885691
0
LINE
8
annotation
62
1
39
211
10
197.185920
20
65.885691
11
200.654413
21
72.132427
0
LINE
8
annotation
62
1
39
211
10
200.654413
20
72.132427
11
197.185920
21
72.132427
0
LINE
8
annotation
62
1
39
211
10
206.413135
20
69.009059
11
202.997527
21
69.009059
0
LINE
8
annotation
62
1
39
211
10
210.143999
20
65.885691
11
210.143999
21
72.132427
0
LINE
8
annotation
62
1
39
211
10
210.143999
20
72.132427
11
208.755269
21
70.743306
0
LINE
8
annotation
62
1
39
211
10
212.486329
20
65.885691
11
213.873491
21
65.885691
0
LINE
8
annotation
62
1
39
211
10
213.873491
20
65.885691
11
213.873491
21
65.885691
0
LINE
8
annotation
62
1
39
211
10
213.873491
20
65.885691
11
214.122460
21
65.908076
0
LINE
8
annotation
62
1
39
211
10
214.122460
20
65.908076
11
214.356942
21
65.972612
0
LINE
8
annotation
62
1
39
211
10
214.356942
20
65.972612
11
214.572985
21
66.075367
0
LINE
8
annotation
62
1
39
211
10
214.572985
20
66.075367
11
214.766636
21
66.212412
0
LINE
8
annotation
62
1
39
211
10
214.766636
20
66.212412
11
214.933941
21
66.379817
0
LINE
8
annotation
62
1
39
211
10
214.933941
20
66.379817
11
215.070949
21
66.573650
0
LINE
8
annotation
62
1
39
211
10
215.070949
20
66.573650
11
215.173705
21
66.789982
0
LINE
8
annotation
62
1
39
211
10
215.173705
20
66.789982
11
215.238258
21
67.024882
0
LINE
8
annotation
62
1
39
211
10
215.238258
20
67.024882
11
215.260654
21
67.274420
0
LINE
8
annotation
62
1
39
211
10
215.260654
20
67.274420
11
215.260654
21
67.965455
0
LINE
8
annotation
62
1
39
211
10
215.260654
20
67.965455
11
215.260654
21
67.965455
0
LINE
8
annotation
62
1
39
211
10
215.260654
20
67.965455
11
215.238271
21
68.214873
0
LINE
8
annotation
62
1
39
211
10
215.238271
20
68.214873
11
215.173750
21
68.449449
0
LINE
8
annotation
62
1
39
211
10
215.173750
20
68.449449
11
215.071036
21
68.665312
0
LINE
8
annotation
62
1
39
211
10
215.071036
20
68.665312
11
214.934070
21
68.858589
0
LINE
8
annotation
62
1
39
211
10
214.934070
20
68.858589
11
214.766797
21
69.025408
0
LINE
8
annotation
62
1
39
211
10
214.766797
20
69.025408
11
214.573159
21
69.161897
0
LINE
8
annotation
62
1
39
211
10
214.573159
20
69.161897
11
214.357100
21
69.264183
0
LINE
8
annotation
62
1
39
211
10
214.357100
20
69.264183
11
214.122563
21
69.328395
0
LINE
8
annotation
62
1
39
211
10
214.122563
20
69.328395
11
213.873491
21
69.350659
0
LINE
8
annotation
62
1
39
211
10
213.873491
20
69.350659
11
212.486329
21
69.350659
0
LINE
8
annotation
62
1
39
211
10
212.486329
20
69.350659
11
212.486329
21
72.132427
0
LINE
8
annotation
62
1
39
211
10
212.486329
20
72.132427
11
215.260654
21
72.132427
0
LINE
8
frame
62
5
39
2
10
0.000000
20
0.000000
11
300.000000
21
0.000000
0
LINE
8
frame
62
5
39
2
10
300.000000
20
0.000000
11
300.000000
21
600.000000
0
LINE
8
frame
62
5
39
2
10
300.000000
20
600.000000
11
0.000000
21
600.000000
0
LINE
8
frame
62
5
39
2
10
0.000000
20
600.000000
11
0.000000
21
0.000000
0
ENDSEC
0
EOF
