0
SECTION
2
HEADER
9
$ACADVER
1
AC1009
0
ENDSEC
0
SECTION
2
TABLES
0
TABLE
2
VPORT
70
1
0
VPORT
2
ACTIVE
70
0
10
0.0
20
0.0
11
0.0
21
0.0
12
0.0
22
0.0
13
0.0
23
0.0
14
0.0
24
0.0
15
0.0
25
0.0
16
0.0
26
0.0
36
0.0
17
0.0
27
0.0
37
0.0
40
0.0
41
0.0
42
0.0
43
0.0
44
0.0
50
0.0
51
0.0
71
0
72
1000
73
1
74
3
75
0
76
0
77
0
78
0
0
ENDTAB
0
ENDSEC
0
SECTION
2
ENTITIES
0
LINE
8
boundary
62
5
39
2
10
13.961982
20
6.734078
11
14.485930
21
6.676074
0
LINE
8
boundary
62
5
39
2
10
14.485930
20
6.676074
11
15.058678
21
6.680381
0
LINE
8
boundary
62
5
39
2
10
15.058678
20
6.680381
11
15.860646
21
6.774827
0
LINE
8
boundary
62
5
39
2
10
15.860646
20
6.774827
11
16.536246
21
6.958241
0
LINE
8
boundary
62
5
39
2
10
16.536246
20
6.958241
11
17.146621
21
7.192330
0
LINE
8
boundary
62
5
39
2
10
17.146621
20
7.192330
11
17.877315
21
7.569630
0
LINE
8
boundary
62
5
39
2
10
17.877315
20
7.569630
11
18.543250
21
8.002741
0
LINE
8
boundary
62
5
39
2
10
18.543250
20
8.002741
11
19.122142
21
8.449959
0
LINE
8
boundary
62
5
39
2
10
19.122142
20
8.449959
11
19.864929
21
9.126164
0
LINE
8
boundary
62
5
39
2
10
19.864929
20
9.126164
11
20.517186
21
9.825376
0
LINE
8
boundary
62
5
39
2
10
20.517186
20
9.825376
11
21.038845
21
10.455162
0
LINE
8
boundary
62
5
39
2
10
21.038845
20
10.455162
11
21.424644
21
10.954877
0
LINE
8
boundary
62
5
39
2
10
21.424644
20
10.954877
11
21.808004
21
11.487816
0
LINE
8
boundary
62
5
39
2
10
21.808004
20
11.487816
11
22.445552
21
12.461296
0
LINE
8
boundary
62
5
39
2
10
22.445552
20
12.461296
11
22.941229
21
13.286379
0
LINE
8
boundary
62
5
39
2
10
22.941229
20
13.286379
11
23.354955
21
14.013851
0
LINE
8
boundary
62
5
39
2
10
23.354955
20
14.013851
11
23.715511
21
14.681215
0
LINE
8
boundary
62
5
39
2
10
23.715511
20
14.681215
11
24.216427
21
15.702655
0
LINE
8
boundary
62
5
39
2
10
24.216427
20
15.702655
11
24.665345
21
16.604483
0
LINE
8
boundary
62
5
39
2
10
24.665345
20
16.604483
11
25.204818
21
17.809933
0
LINE
8
boundary
62
5
39
2
10
25.204818
20
17.809933
11
25.474925
21
18.426029
0
LINE
8
boundary
62
5
39
2
10
25.474925
20
18.426029
11
25.910501
21
19.457823
0
LINE
8
boundary
62
5
39
2
10
25.910501
20
19.457823
11
26.289864
21
20.394069
0
LINE
8
boundary
62
5
39
2
10
26.289864
20
20.394069
11
26.581209
21
21.118319
0
LINE
8
boundary
62
5
39
2
10
26.581209
20
21.118319
11
27.019436
21
22.260493
0
LINE
8
boundary
62
5
39
2
10
27.019436
20
22.260493
11
27.435587
21
23.399654
0
LINE
8
boundary
62
5
39
2
10
27.435587
20
23.399654
11
27.817742
21
24.469284
0
LINE
8
boundary
62
5
39
2
10
27.817742
20
24.469284
11
28.046390
21
25.100969
0
LINE
8
boundary
62
5
39
2
10
28.046390
20
25.100969
11
28.542324
21
26.538324
0
LINE
8
boundary
62
5
39
2
10
28.542324
20
26.538324
11
28.770743
21
27.222040
0
LINE
8
boundary
62
5
39
2
10
28.770743
20
27.222040
11
28.979551
21
27.852521
0
LINE
8
boundary
62
5
39
2
10
28.979551
20
27.852521
11
29.365805
21
29.046080
0
LINE
8
boundary
62
5
39
2
10
29.365805
20
29.046080
11
29.548574
21
29.595125
0
LINE
8
boundary
62
5
39
2
10
29.548574
20
29.595125
11
29.755577
21
30.264923
0
LINE
8
boundary
62
5
39
2
10
29.755577
20
30.264923
11
30.058802
21
31.206703
0
LINE
8
boundary
62
5
39
2
10
30.058802
20
31.206703
11
30.452517
21
32.482917
0
LINE
8
boundary
62
5
39
2
10
30.452517
20
32.482917
11
30.935103
21
34.088555
0
LINE
8
boundary
62
5
39
2
10
30.935103
20
34.088555
11
31.096844
21
34.609742
0
LINE
8
boundary
62
5
39
2
10
31.096844
20
34.609742
11
31.329530
21
35.417889
0
LINE
8
boundary
62
5
39
2
10
31.329530
20
35.417889
11
31.624197
21
36.398031
0
LINE
8
boundary
62
5
39
2
10
31.624197
20
36.398031
11
32.042647
21
37.860980
0
LINE
8
boundary
62
5
39
2
10
32.042647
20
37.860980
11
32.241237
21
38.554951
0
LINE
8
boundary
62
5
39
2
10
32.241237
20
38.554951
11
32.725774
21
40.290757
0
LINE
8
boundary
62
5
39
2
10
32.725774
20
40.290757
11
33.062926
21
41.462354
0
LINE
8
boundary
62
5
39
2
10
33.062926
20
41.462354
11
33.218164
21
42.052233
0
LINE
8
boundary
62
5
39
2
10
33.218164
20
42.052233
11
33.543971
21
43.232444
0
LINE
8
boundary
62
5
39
2
10
33.543971
20
43.232444
11
33.711176
21
43.844520
0
LINE
8
boundary
62
5
39
2
10
33.711176
20
43.844520
11
34.196604
21
45.667857
0
LINE
8
boundary
62
5
39
2
10
34.196604
20
45.667857
11
34.551197
21
46.958714
0
LINE
8
boundary
62
5
39
2
10
34.551197
20
46.958714
11
34.957294
21
48.514103
0
LINE
8
boundary
62
5
39
2
10
34.957294
20
48.514103
11
35.122380
21
49.132213
0
LINE
8
boundary
62
5
39
2
10
35.122380
20
49.132213
11
35.474022
21
50.507310
0
LINE
8
boundary
62
5
39
2
10
35.474022
20
50.507310
11
35.704181
21
51.370972
0
LINE
8
boundary
62
5
39
2
10
35.704181
20
51.370972
11
35.879532
21
52.078571
0
LINE
8
boundary
62
5
39
2
10
35.879532
20
52.078571
11
36.286151
21
53.653727
0
LINE
8
boundary
62
5
39
2
10
36.286151
20
53.653727
11
36.691393
21
55.270339
0
LINE
8
boundary
62
5
39
2
10
36.691393
20
55.270339
11
36.890883
21
56.035873
0
LINE
8
boundary
62
5
39
2
10
36.890883
20
56.035873
11
37.097578
21
56.887500
0
LINE
8
boundary
62
5
39
2
10
37.097578
20
56.887500
11
37.495227
21
58.463714
0
LINE
8
boundary
62
5
39
2
10
37.495227
20
58.463714
11
37.911371
21
60.163691
0
LINE
8
boundary
62
5
39
2
10
37.911371
20
60.163691
11
38.114677
21
60.962935
0
LINE
8
boundary
62
5
39
2
10
38.114677
20
60.962935
11
38.318145
21
61.820289
0
LINE
8
boundary
62
5
39
2
10
38.318145
20
61.820289
11
38.710285
21
63.413990
0
LINE
8
boundary
62
5
39
2
10
38.710285
20
63.413990
11
39.132285
21
65.171377
0
LINE
8
boundary
62
5
39
2
10
39.132285
20
65.171377
11
39.379794
21
66.170507
0
LINE
8
boundary
62
5
39
2
10
39.379794
20
66.170507
11
39.540172
21
66.863167
0
LINE
8
boundary
62
5
39
2
10
39.540172
20
66.863167
11
39.820361
21
68.033475
0
LINE
8
boundary
62
5
39
2
10
39.820361
20
68.033475
11
39.949092
21
68.567121
0
LINE
8
boundary
62
5
39
2
10
39.949092
20
68.567121
11
40.354745
21
70.284320
0
LINE
8
boundary
62
5
39
2
10
40.354745
20
70.284320
11
40.693073
21
71.689868
0
LINE
8
boundary
62
5
39
2
10
40.693073
20
71.689868
11
40.879004
21
72.499383
0
LINE
8
boundary
62
5
39
2
10
40.879004
20
72.499383
11
41.172828
21
73.750719
0
LINE
8
boundary
62
5
39
2
10
41.172828
20
73.750719
11
41.374558
21
74.585037
0
LINE
8
boundary
62
5
39
2
10
41.374558
20
74.585037
11
41.582802
21
75.501496
0
LINE
8
boundary
62
5
39
2
10
41.582802
20
75.501496
11
41.892246
21
76.824834
0
LINE
8
boundary
62
5
39
2
10
41.892246
20
76.824834
11
42.071836
21
77.575675
0
LINE
8
boundary
62
5
39
2
10
42.071836
20
77.575675
11
42.408585
21
79.042224
0
LINE
8
boundary
62
5
39
2
10
42.408585
20
79.042224
11
42.793002
21
80.672398
0
LINE
8
boundary
62
5
39
2
10
42.793002
20
80.672398
11
43.247439
21
82.634995
0
LINE
8
boundary
62
5
39
2
10
43.247439
20
82.634995
11
43.546502
21
83.889566
0
LINE
8
boundary
62
5
39
2
10
43.546502
20
83.889566
11
43.673959
21
84.450626
0
LINE
8
boundary
62
5
39
2
10
43.673959
20
84.450626
11
43.835938
21
85.146798
0
LINE
8
boundary
62
5
39
2
10
43.835938
20
85.146798
11
44.104558
21
86.284425
0
LINE
8
boundary
62
5
39
2
10
44.104558
20
86.284425
11
44.333307
21
87.231726
0
LINE
8
boundary
62
5
39
2
10
44.333307
20
87.231726
11
44.541478
21
88.131773
0
LINE
8
boundary
62
5
39
2
10
44.541478
20
88.131773
11
44.790791
21
89.186485
0
LINE
8
boundary
62
5
39
2
10
44.790791
20
89.186485
11
44.985287
21
89.996541
0
LINE
8
boundary
62
5
39
2
10
44.985287
20
89.996541
11
45.160965
21
90.713518
0
LINE
8
boundary
62
5
39
2
10
45.160965
20
90.713518
11
45.410099
21
91.767663
0
LINE
8
boundary
62
5
39
2
10
45.410099
20
91.767663
11
45.747483
21
93.169503
0
LINE
8
boundary
62
5
39
2
10
45.747483
20
93.169503
11
45.886164
21
93.731380
0
LINE
8
boundary
62
5
39
2
10
45.886164
20
93.731380
11
46.247346
21
95.225386
0
LINE
8
boundary
62
5
39
2
10
46.247346
20
95.225386
11
46.652283
21
96.873347
0
LINE
8
boundary
62
5
39
2
10
46.652283
20
96.873347
11
47.117069
21
98.758744
0
LINE
8
boundary
62
5
39
2
10
47.117069
20
98.758744
11
47.469451
21
100.163291
0
LINE
8
boundary
62
5
39
2
10
47.469451
20
100.163291
11
47.677486
21
101.007203
0
LINE
8
boundary
62
5
39
2
10
47.677486
20
101.007203
11
48.023739
21
102.376212
0
LINE
8
boundary
62
5
39
2
10
48.023739
20
102.376212
11
48.339655
21
103.609724
0
LINE
8
boundary
62
5
39
2
10
48.339655
20
103.609724
11
48.544389
21
104.432936
0
LINE
8
boundary
62
5
39
2
10
48.544389
20
104.432936
11
49.191917
21
106.961270
0
LINE
8
boundary
62
5
39
2
10
49.191917
20
106.961270
11
49.657554
21
108.746567
0
LINE
8
boundary
62
5
39
2
10
49.657554
20
108.746567
11
49.861507
21
109.517331
0
LINE
8
boundary
62
5
39
2
10
49.861507
20
109.517331
11
50.280267
21
111.078163
0
LINE
8
boundary
62
5
39
2
10
50.280267
20
111.078163
11
50.547949
21
112.105127
0
LINE
8
boundary
62
5
39
2
10
50.547949
20
112.105127
11
50.679863
21
112.604813
0
LINE
8
boundary
62
5
39
2
10
50.679863
20
112.604813
11
51.250672
21
114.732997
0
LINE
8
boundary
62
5
39
2
10
51.250672
20
114.732997
11
51.718746
21
116.459069
0
LINE
8
boundary
62
5
39
2
10
51.718746
20
116.459069
11
51.976730
21
117.395311
0
LINE
8
boundary
62
5
39
2
10
51.976730
20
117.395311
11
52.580552
21
119.566472
0
LINE
8
boundary
62
5
39
2
10
52.580552
20
119.566472
11
52.724233
21
120.094386
0
LINE
8
boundary
62
5
39
2
10
52.724233
20
120.094386
11
53.194105
21
121.789443
0
LINE
8
boundary
62
5
39
2
10
53.194105
20
121.789443
11
53.646334
21
123.401260
0
LINE
8
boundary
62
5
39
2
10
53.646334
20
123.401260
11
53.867742
21
124.184675
0
LINE
8
boundary
62
5
39
2
10
53.867742
20
124.184675
11
54.106192
21
125.022916
0
LINE
8
boundary
62
5
39
2
10
54.106192
20
125.022916
11
54.420361
21
126.122013
0
LINE
8
boundary
62
5
39
2
10
54.420361
20
126.122013
11
54.573604
21
126.654476
0
LINE
8
boundary
62
5
39
2
10
54.573604
20
126.654476
11
54.980583
21
128.062674
0
LINE
8
boundary
62
5
39
2
10
54.980583
20
128.062674
11
55.434065
21
129.615884
0
LINE
8
boundary
62
5
39
2
10
55.434065
20
129.615884
11
56.013978
21
131.611027
0
LINE
8
boundary
62
5
39
2
10
56.013978
20
131.611027
11
56.506166
21
133.285516
0
LINE
8
boundary
62
5
39
2
10
56.506166
20
133.285516
11
56.687812
21
133.901250
0
LINE
8
boundary
62
5
39
2
10
56.687812
20
133.901250
11
57.006204
21
134.971334
0
LINE
8
boundary
62
5
39
2
10
57.006204
20
134.971334
11
57.269382
21
135.854591
0
LINE
8
boundary
62
5
39
2
10
57.269382
20
135.854591
11
57.514078
21
136.668573
0
LINE
8
boundary
62
5
39
2
10
57.514078
20
136.668573
11
57.857981
21
137.811596
0
LINE
8
boundary
62
5
39
2
10
57.857981
20
137.811596
11
58.029757
21
138.377305
0
LINE
8
boundary
62
5
39
2
10
58.029757
20
138.377305
11
58.453391
21
139.772076
0
LINE
8
boundary
62
5
39
2
10
58.453391
20
139.772076
11
59.122739
21
141.954275
0
LINE
8
boundary
62
5
39
2
10
59.122739
20
141.954275
11
59.311659
21
142.563927
0
LINE
8
boundary
62
5
39
2
10
59.311659
20
142.563927
11
59.736569
21
143.946273
0
LINE
8
boundary
62
5
39
2
10
59.736569
20
143.946273
11
60.336230
21
145.878636
0
LINE
8
boundary
62
5
39
2
10
60.336230
20
145.878636
11
60.945794
21
147.825346
0
LINE
8
boundary
62
5
39
2
10
60.945794
20
147.825346
11
61.165569
21
148.526480
0
LINE
8
boundary
62
5
39
2
10
61.165569
20
148.526480
11
61.565169
21
149.785902
0
LINE
8
boundary
62
5
39
2
10
61.565169
20
149.785902
11
61.862494
21
150.724950
0
LINE
8
boundary
62
5
39
2
10
61.862494
20
150.724950
11
62.194270
21
151.759814
0
LINE
8
boundary
62
5
39
2
10
62.194270
20
151.759814
11
62.567490
21
152.926843
0
LINE
8
boundary
62
5
39
2
10
62.567490
20
152.926843
11
62.833031
21
153.746614
0
LINE
8
boundary
62
5
39
2
10
62.833031
20
153.746614
11
63.280470
21
155.131871
0
LINE
8
boundary
62
5
39
2
10
63.280470
20
155.131871
11
63.481373
21
155.745782
0
LINE
8
boundary
62
5
39
2
10
63.481373
20
155.745782
11
64.001365
21
157.339806
0
LINE
8
boundary
62
5
39
2
10
64.001365
20
157.339806
11
64.730126
21
159.550443
0
LINE
8
boundary
62
5
39
2
10
64.730126
20
159.550443
11
65.466720
21
161.763556
0
LINE
8
boundary
62
5
39
2
10
65.466720
20
161.763556
11
65.680931
21
162.400937
0
LINE
8
boundary
62
5
39
2
10
65.680931
20
162.400937
11
66.169024
21
163.858391
0
LINE
8
boundary
62
5
39
2
10
66.169024
20
163.858391
11
66.864215
21
165.915086
0
LINE
8
boundary
62
5
39
2
10
66.864215
20
165.915086
11
67.568953
21
167.981470
0
LINE
8
boundary
62
5
39
2
10
67.568953
20
167.981470
11
68.283158
21
170.057011
0
LINE
8
boundary
62
5
39
2
10
68.283158
20
170.057011
11
68.485939
21
170.646955
0
LINE
8
boundary
62
5
39
2
10
68.485939
20
170.646955
11
69.476545
21
173.474628
0
LINE
8
boundary
62
5
39
2
10
69.476545
20
173.474628
11
70.043676
21
175.100859
0
LINE
8
boundary
62
5
39
2
10
70.043676
20
175.100859
11
70.882087
21
177.447496
0
LINE
8
boundary
62
5
39
2
10
70.882087
20
177.447496
11
71.633640
21
179.561231
0
LINE
8
boundary
62
5
39
2
10
71.633640
20
179.561231
11
72.325925
21
181.461536
0
LINE
8
boundary
62
5
39
2
10
72.325925
20
181.461536
11
73.255955
21
184.027411
0
LINE
8
boundary
62
5
39
2
10
73.255955
20
184.027411
11
73.806977
21
185.511100
0
LINE
8
boundary
62
5
39
2
10
73.806977
20
185.511100
11
74.910810
21
188.498968
0
LINE
8
boundary
62
5
39
2
10
74.910810
20
188.498968
11
75.323829
21
189.590100
0
LINE
8
boundary
62
5
39
2
10
75.323829
20
189.590100
11
76.598475
21
192.975757
0
LINE
8
boundary
62
5
39
2
10
76.598475
20
192.975757
11
76.874717
21
193.691975
0
LINE
8
boundary
62
5
39
2
10
76.874717
20
193.691975
11
78.319264
21
197.457903
0
LINE
8
boundary
62
5
39
2
10
78.319264
20
197.457903
11
80.026193
21
201.824591
0
LINE
8
boundary
62
5
39
2
10
80.026193
20
201.824591
11
81.715642
21
206.074451
0
LINE
8
boundary
62
5
39
2
10
81.715642
20
206.074451
11
83.384978
21
210.205405
0
LINE
8
boundary
62
5
39
2
10
83.384978
20
210.205405
11
83.686205
21
210.952956
0
LINE
8
boundary
62
5
39
2
10
83.686205
20
210.952956
11
85.325645
21
214.924312
0
LINE
8
boundary
62
5
39
2
10
85.325645
20
214.924312
11
85.920966
21
216.373543
0
LINE
8
boundary
62
5
39
2
10
85.920966
20
216.373543
11
87.335446
21
219.730589
0
LINE
8
boundary
62
5
39
2
10
87.335446
20
219.730589
11
88.206793
21
221.808609
0
LINE
8
boundary
62
5
39
2
10
88.206793
20
221.808609
11
89.352948
21
224.475562
0
LINE
8
boundary
62
5
39
2
10
89.352948
20
224.475562
11
90.543944
21
227.259773
0
LINE
8
boundary
62
5
39
2
10
90.543944
20
227.259773
11
91.367934
21
229.144630
0
LINE
8
boundary
62
5
39
2
10
91.367934
20
229.144630
11
92.924457
21
232.720922
0
LINE
8
boundary
62
5
39
2
10
92.924457
20
232.720922
11
93.369128
21
233.726446
0
LINE
8
boundary
62
5
39
2
10
93.369128
20
233.726446
11
95.327935
21
238.174487
0
LINE
8
boundary
62
5
39
2
10
95.327935
20
238.174487
11
97.300045
21
242.624470
0
LINE
8
boundary
62
5
39
2
10
97.300045
20
242.624470
11
97.737661
21
243.615795
0
LINE
8
boundary
62
5
39
2
10
97.737661
20
243.615795
11
99.207526
21
246.929970
0
LINE
8
boundary
62
5
39
2
10
99.207526
20
246.929970
11
100.127592
21
249.012290
0
LINE
8
boundary
62
5
39
2
10
100.127592
20
249.012290
11
101.059256
21
251.122908
0
LINE
8
boundary
62
5
39
2
10
101.059256
20
251.122908
11
102.475627
21
254.343420
0
LINE
8
boundary
62
5
39
2
10
102.475627
20
254.343420
11
102.746248
21
254.961646
0
LINE
8
boundary
62
5
39
2
10
102.746248
20
254.961646
11
104.003643
21
257.843839
0
LINE
8
boundary
62
5
39
2
10
104.003643
20
257.843839
11
105.236835
21
260.697689
0
LINE
8
boundary
62
5
39
2
10
105.236835
20
260.697689
11
105.507876
21
261.327193
0
LINE
8
boundary
62
5
39
2
10
105.507876
20
261.327193
11
106.430037
21
263.488845
0
LINE
8
boundary
62
5
39
2
10
106.430037
20
263.488845
11
106.967296
21
264.752873
0
LINE
8
boundary
62
5
39
2
10
106.967296
20
264.752873
11
107.583903
21
266.221794
0
LINE
8
boundary
62
5
39
2
10
107.583903
20
266.221794
11
108.378695
21
268.122440
0
LINE
8
boundary
62
5
39
2
10
108.378695
20
268.122440
11
108.630562
21
268.732864
0
LINE
8
boundary
62
5
39
2
10
108.630562
20
268.732864
11
109.401889
21
270.609307
0
LINE
8
boundary
62
5
39
2
10
109.401889
20
270.609307
11
109.880961
21
271.794407
0
LINE
8
boundary
62
5
39
2
10
109.880961
20
271.794407
11
110.308175
21
272.851260
0
LINE
8
boundary
62
5
39
2
10
110.308175
20
272.851260
11
111.106047
21
274.861514
0
LINE
8
boundary
62
5
39
2
10
111.106047
20
274.861514
11
111.350806
21
275.482129
0
LINE
8
boundary
62
5
39
2
10
111.350806
20
275.482129
11
111.874479
21
276.834299
0
LINE
8
boundary
62
5
39
2
10
111.874479
20
276.834299
11
112.269040
21
277.858223
0
LINE
8
boundary
62
5
39
2
10
112.269040
20
277.858223
11
112.612680
21
278.769069
0
LINE
8
boundary
62
5
39
2
10
112.612680
20
278.769069
11
113.145718
21
280.189584
0
LINE
8
boundary
62
5
39
2
10
113.145718
20
280.189584
11
113.978278
21
282.473987
0
LINE
8
boundary
62
5
39
2
10
113.978278
20
282.473987
11
114.637392
21
284.346184
0
LINE
8
boundary
62
5
39
2
10
114.637392
20
284.346184
11
115.244917
21
286.129866
0
LINE
8
boundary
62
5
39
2
10
115.244917
20
286.129866
11
115.506102
21
286.908259
0
LINE
8
boundary
62
5
39
2
10
115.506102
20
286.908259
11
115.817833
21
287.873272
0
LINE
8
boundary
62
5
39
2
10
115.817833
20
287.873272
11
116.193363
21
289.046269
0
LINE
8
boundary
62
5
39
2
10
116.193363
20
289.046269
11
116.355678
21
289.576373
0
LINE
8
boundary
62
5
39
2
10
116.355678
20
289.576373
11
116.826277
21
291.128749
0
LINE
8
boundary
62
5
39
2
10
116.826277
20
291.128749
11
116.983255
21
291.679498
0
LINE
8
boundary
62
5
39
2
10
116.983255
20
291.679498
11
117.320958
21
292.863592
0
LINE
8
boundary
62
5
39
2
10
117.320958
20
292.863592
11
117.744987
21
294.447655
0
LINE
8
boundary
62
5
39
2
10
117.744987
20
294.447655
11
117.923414
21
295.132272
0
LINE
8
boundary
62
5
39
2
10
117.923414
20
295.132272
11
118.130874
21
295.990734
0
LINE
8
boundary
62
5
39
2
10
118.130874
20
295.990734
11
118.381194
21
297.044327
0
LINE
8
boundary
62
5
39
2
10
118.381194
20
297.044327
11
118.775561
21
298.894181
0
LINE
8
boundary
62
5
39
2
10
118.775561
20
298.894181
11
119.050114
21
300.376958
0
LINE
8
boundary
62
5
39
2
10
119.050114
20
300.376958
11
119.300594
21
301.957027
0
LINE
8
boundary
62
5
39
2
10
119.300594
20
301.957027
11
119.464757
21
303.245747
0
LINE
8
boundary
62
5
39
2
10
119.464757
20
303.245747
11
119.613494
21
304.617825
0
LINE
8
boundary
62
5
39
2
10
119.613494
20
304.617825
11
119.741460
21
306.703838
0
LINE
8
boundary
62
5
39
2
10
119.741460
20
306.703838
11
119.759997
21
308.311707
0
LINE
8
boundary
62
5
39
2
10
119.759997
20
308.311707
11
119.713453
21
309.831926
0
LINE
8
boundary
62
5
39
2
10
119.713453
20
309.831926
11
119.677447
21
310.550923
0
LINE
8
boundary
62
5
39
2
10
119.677447
20
310.550923
11
119.605510
21
311.284596
0
LINE
8
boundary
62
5
39
2
10
119.605510
20
311.284596
11
119.496894
21
312.303784
0
LINE
8
boundary
62
5
39
2
10
119.496894
20
312.303784
11
119.226066
21
313.944097
0
LINE
8
boundary
62
5
39
2
10
119.226066
20
313.944097
11
118.928563
21
315.240133
0
LINE
8
boundary
62
5
39
2
10
118.928563
20
315.240133
11
118.588716
21
316.421146
0
LINE
8
boundary
62
5
39
2
10
118.588716
20
316.421146
11
118.199623
21
317.536332
0
LINE
8
boundary
62
5
39
2
10
118.199623
20
317.536332
11
117.937748
21
318.211515
0
LINE
8
boundary
62
5
39
2
10
117.937748
20
318.211515
11
117.369553
21
319.411322
0
LINE
8
boundary
62
5
39
2
10
117.369553
20
319.411322
11
116.809175
21
320.383394
0
LINE
8
boundary
62
5
39
2
10
116.809175
20
320.383394
11
116.174732
21
321.316811
0
LINE
8
boundary
62
5
39
2
10
116.174732
20
321.316811
11
115.556642
21
322.080370
0
LINE
8
boundary
62
5
39
2
10
115.556642
20
322.080370
11
114.899621
21
322.770344
0
LINE
8
boundary
62
5
39
2
10
114.899621
20
322.770344
11
114.204903
21
323.384142
0
LINE
8
boundary
62
5
39
2
10
114.204903
20
323.384142
11
113.745538
21
323.745341
0
LINE
8
boundary
62
5
39
2
10
113.745538
20
323.745341
11
112.900711
21
324.276239
0
LINE
8
boundary
62
5
39
2
10
112.900711
20
324.276239
11
112.027165
21
324.694175
0
LINE
8
boundary
62
5
39
2
10
112.027165
20
324.694175
11
111.129515
21
324.998633
0
LINE
8
boundary
62
5
39
2
10
111.129515
20
324.998633
11
110.231990
21
325.185110
0
LINE
8
boundary
62
5
39
2
10
110.231990
20
325.185110
11
109.322468
21
325.261493
0
LINE
8
boundary
62
5
39
2
10
109.322468
20
325.261493
11
108.406947
21
325.228514
0
LINE
8
boundary
62
5
39
2
10
108.406947
20
325.228514
11
107.469686
21
325.083982
0
LINE
8
boundary
62
5
39
2
10
107.469686
20
325.083982
11
106.513937
21
324.821578
0
LINE
8
boundary
62
5
39
2
10
106.513937
20
324.821578
11
105.543564
21
324.434617
0
LINE
8
boundary
62
5
39
2
10
105.543564
20
324.434617
11
104.562139
21
323.916466
0
LINE
8
boundary
62
5
39
2
10
104.562139
20
323.916466
11
103.622620
21
323.296289
0
LINE
8
boundary
62
5
39
2
10
103.622620
20
323.296289
11
102.698849
21
322.569813
0
LINE
8
boundary
62
5
39
2
10
102.698849
20
322.569813
11
101.782060
21
321.735551
0
LINE
8
boundary
62
5
39
2
10
101.782060
20
321.735551
11
100.871918
21
320.796213
0
LINE
8
boundary
62
5
39
2
10
100.871918
20
320.796213
11
99.968160
21
319.754534
0
LINE
8
boundary
62
5
39
2
10
99.968160
20
319.754534
11
99.506588
21
319.169840
0
LINE
8
boundary
62
5
39
2
10
99.506588
20
319.169840
11
99.070478
21
318.612939
0
LINE
8
boundary
62
5
39
2
10
99.070478
20
318.612939
11
98.463923
21
317.771766
0
LINE
8
boundary
62
5
39
2
10
98.463923
20
317.771766
11
97.410358
21
316.217712
0
LINE
8
boundary
62
5
39
2
10
97.410358
20
316.217712
11
96.724958
21
315.119890
0
LINE
8
boundary
62
5
39
2
10
96.724958
20
315.119890
11
96.412156
21
314.608697
0
LINE
8
boundary
62
5
39
2
10
96.412156
20
314.608697
11
95.538593
21
313.079862
0
LINE
8
boundary
62
5
39
2
10
95.538593
20
313.079862
11
95.284069
21
312.604822
0
LINE
8
boundary
62
5
39
2
10
95.284069
20
312.604822
11
94.669381
21
311.459388
0
LINE
8
boundary
62
5
39
2
10
94.669381
20
311.459388
11
94.477408
21
310.909011
0
LINE
8
boundary
62
5
39
2
10
94.477408
20
310.909011
11
106.560102
21
310.909011
0
LINE
8
boundary
62
5
39
2
10
106.560102
20
310.909011
11
106.560102
21
308.163011
0
LINE
8
boundary
62
5
39
2
10
106.560102
20
308.163011
11
93.044850
21
308.163011
0
LINE
8
boundary
62
5
39
2
10
93.044850
20
308.163011
11
92.304724
21
306.549306
0
LINE
8
boundary
62
5
39
2
10
92.304724
20
306.549306
11
92.083116
21
306.056508
0
LINE
8
boundary
62
5
39
2
10
92.083116
20
306.056508
11
91.228569
21
304.065066
0
LINE
8
boundary
62
5
39
2
10
91.228569
20
304.065066
11
90.922269
21
303.316096
0
LINE
8
boundary
62
5
39
2
10
90.922269
20
303.316096
11
90.374748
21
301.984733
0
LINE
8
boundary
62
5
39
2
10
90.374748
20
301.984733
11
89.805803
21
300.536882
0
LINE
8
boundary
62
5
39
2
10
89.805803
20
300.536882
11
89.520738
21
299.815796
0
LINE
8
boundary
62
5
39
2
10
89.520738
20
299.815796
11
88.933303
21
298.271438
0
LINE
8
boundary
62
5
39
2
10
88.933303
20
298.271438
11
88.649207
21
297.509670
0
LINE
8
boundary
62
5
39
2
10
88.649207
20
297.509670
11
88.237747
21
296.386124
0
LINE
8
boundary
62
5
39
2
10
88.237747
20
296.386124
11
87.594508
21
294.584914
0
LINE
8
boundary
62
5
39
2
10
87.594508
20
294.584914
11
87.347766
21
293.874109
0
LINE
8
boundary
62
5
39
2
10
87.347766
20
293.874109
11
86.949048
21
292.733186
0
LINE
8
boundary
62
5
39
2
10
86.949048
20
292.733186
11
86.761813
21
292.182257
0
LINE
8
boundary
62
5
39
2
10
86.761813
20
292.182257
11
101.388457
21
292.032257
0
LINE
8
boundary
62
5
39
2
10
101.388457
20
292.032257
11
101.388457
21
289.286257
0
LINE
8
boundary
62
5
39
2
10
101.388457
20
289.286257
11
85.786189
21
289.286257
0
LINE
8
boundary
62
5
39
2
10
85.786189
20
289.286257
11
85.352422
21
287.969677
0
LINE
8
boundary
62
5
39
2
10
85.352422
20
287.969677
11
84.992967
21
286.861939
0
LINE
8
boundary
62
5
39
2
10
84.992967
20
286.861939
11
84.328767
21
284.773835
0
LINE
8
boundary
62
5
39
2
10
84.328767
20
284.773835
11
83.996548
21
283.722685
0
LINE
8
boundary
62
5
39
2
10
83.996548
20
283.722685
11
83.660137
21
282.641095
0
LINE
8
boundary
62
5
39
2
10
83.660137
20
282.641095
11
83.353986
21
281.655598
0
LINE
8
boundary
62
5
39
2
10
83.353986
20
281.655598
11
82.987722
21
280.461981
0
LINE
8
boundary
62
5
39
2
10
82.987722
20
280.461981
11
82.769841
21
279.751262
0
LINE
8
boundary
62
5
39
2
10
82.769841
20
279.751262
11
82.310946
21
278.235871
0
LINE
8
boundary
62
5
39
2
10
82.310946
20
278.235871
11
81.630070
21
275.964894
0
LINE
8
boundary
62
5
39
2
10
81.630070
20
275.964894
11
81.380040
21
275.120940
0
LINE
8
boundary
62
5
39
2
10
81.380040
20
275.120940
11
80.998533
21
273.833016
0
LINE
8
boundary
62
5
39
2
10
80.998533
20
273.833016
11
80.843697
21
273.305503
0
LINE
8
boundary
62
5
39
2
10
80.843697
20
273.305503
11
94.967637
21
273.155503
0
LINE
8
boundary
62
5
39
2
10
94.967637
20
273.155503
11
94.967637
21
270.409503
0
LINE
8
boundary
62
5
39
2
10
94.967637
20
270.409503
11
79.997611
21
270.409503
0
LINE
8
boundary
62
5
39
2
10
79.997611
20
270.409503
11
79.791080
21
269.699086
0
LINE
8
boundary
62
5
39
2
10
79.791080
20
269.699086
11
79.532692
21
268.803575
0
LINE
8
boundary
62
5
39
2
10
79.532692
20
268.803575
11
79.184729
21
267.596893
0
LINE
8
boundary
62
5
39
2
10
79.184729
20
267.596893
11
78.825078
21
266.340643
0
LINE
8
boundary
62
5
39
2
10
78.825078
20
266.340643
11
78.576726
21
265.473007
0
LINE
8
boundary
62
5
39
2
10
78.576726
20
265.473007
11
78.114371
21
263.846705
0
LINE
8
boundary
62
5
39
2
10
78.114371
20
263.846705
11
77.967080
21
263.328711
0
LINE
8
boundary
62
5
39
2
10
77.967080
20
263.328711
11
77.400798
21
261.324449
0
LINE
8
boundary
62
5
39
2
10
77.400798
20
261.324449
11
77.089174
21
260.216435
0
LINE
8
boundary
62
5
39
2
10
77.089174
20
260.216435
11
76.780470
21
259.127174
0
LINE
8
boundary
62
5
39
2
10
76.780470
20
259.127174
11
76.233012
21
257.188318
0
LINE
8
boundary
62
5
39
2
10
76.233012
20
257.188318
11
75.942700
21
256.158394
0
LINE
8
boundary
62
5
39
2
10
75.942700
20
256.158394
11
75.684387
21
255.239917
0
LINE
8
boundary
62
5
39
2
10
75.684387
20
255.239917
11
75.456463
21
254.428750
0
LINE
8
boundary
62
5
39
2
10
75.456463
20
254.428750
11
88.233344
21
254.278750
0
LINE
8
boundary
62
5
39
2
10
88.233344
20
254.278750
11
88.233344
21
251.532750
0
LINE
8
boundary
62
5
39
2
10
88.233344
20
251.532750
11
74.641634
21
251.532750
0
LINE
8
boundary
62
5
39
2
10
74.641634
20
251.532750
11
74.461175
21
250.894827
0
LINE
8
boundary
62
5
39
2
10
74.461175
20
250.894827
11
74.016540
21
249.320042
0
LINE
8
boundary
62
5
39
2
10
74.016540
20
249.320042
11
73.708667
21
248.230785
0
LINE
8
boundary
62
5
39
2
10
73.708667
20
248.230785
11
73.453758
21
247.327284
0
LINE
8
boundary
62
5
39
2
10
73.453758
20
247.327284
11
72.954458
21
245.560026
0
LINE
8
boundary
62
5
39
2
10
72.954458
20
245.560026
11
72.695678
21
244.644379
0
LINE
8
boundary
62
5
39
2
10
72.695678
20
244.644379
11
71.751373
21
241.340533
0
LINE
8
boundary
62
5
39
2
10
71.751373
20
241.340533
11
70.902583
21
238.384985
0
LINE
8
boundary
62
5
39
2
10
70.902583
20
238.384985
11
70.656396
21
237.528785
0
LINE
8
boundary
62
5
39
2
10
70.656396
20
237.528785
11
70.371009
21
236.542386
0
LINE
8
boundary
62
5
39
2
10
70.371009
20
236.542386
11
70.081433
21
235.551996
0
LINE
8
boundary
62
5
39
2
10
70.081433
20
235.551996
11
81.364423
21
235.401995
0
LINE
8
boundary
62
5
39
2
10
81.364423
20
235.401995
11
81.364423
21
232.655995
0
LINE
8
boundary
62
5
39
2
10
81.364423
20
232.655995
11
69.232301
21
232.655996
0
LINE
8
boundary
62
5
39
2
10
69.232301
20
232.655996
11
68.807163
21
231.213384
0
LINE
8
boundary
62
5
39
2
10
68.807163
20
231.213384
11
68.458810
21
230.034745
0
LINE
8
boundary
62
5
39
2
10
68.458810
20
230.034745
11
67.896908
21
228.148761
0
LINE
8
boundary
62
5
39
2
10
67.896908
20
228.148761
11
67.474794
21
226.748907
0
LINE
8
boundary
62
5
39
2
10
67.474794
20
226.748907
11
67.210943
21
225.882088
0
LINE
8
boundary
62
5
39
2
10
67.210943
20
225.882088
11
66.469602
21
223.454467
0
LINE
8
boundary
62
5
39
2
10
66.469602
20
223.454467
11
65.595893
21
220.622387
0
LINE
8
boundary
62
5
39
2
10
65.595893
20
220.622387
11
65.195694
21
219.340703
0
LINE
8
boundary
62
5
39
2
10
65.195694
20
219.340703
11
64.406086
21
216.852381
0
LINE
8
boundary
62
5
39
2
10
64.406086
20
216.852381
11
74.458658
21
216.525242
0
LINE
8
boundary
62
5
39
2
10
74.458658
20
216.525242
11
74.458658
21
213.779242
0
LINE
8
boundary
62
5
39
2
10
74.458658
20
213.779242
11
63.416034
21
213.779242
0
LINE
8
boundary
62
5
39
2
10
63.416034
20
213.779242
11
63.135529
21
212.916942
0
LINE
8
boundary
62
5
39
2
10
63.135529
20
212.916942
11
62.934504
21
212.298704
0
LINE
8
boundary
62
5
39
2
10
62.934504
20
212.298704
11
62.315069
21
210.413604
0
LINE
8
boundary
62
5
39
2
10
62.315069
20
210.413604
11
62.147659
21
209.908501
0
LINE
8
boundary
62
5
39
2
10
62.147659
20
209.908501
11
61.615740
21
208.329384
0
LINE
8
boundary
62
5
39
2
10
61.615740
20
208.329384
11
60.944104
21
206.357730
0
LINE
8
boundary
62
5
39
2
10
60.944104
20
206.357730
11
60.650100
21
205.504556
0
LINE
8
boundary
62
5
39
2
10
60.650100
20
205.504556
11
60.269116
21
204.399233
0
LINE
8
boundary
62
5
39
2
10
60.269116
20
204.399233
11
59.819363
21
203.109631
0
LINE
8
boundary
62
5
39
2
10
59.819363
20
203.109631
11
59.590662
21
202.454005
0
LINE
8
boundary
62
5
39
2
10
59.590662
20
202.454005
11
58.991031
21
200.755280
0
LINE
8
boundary
62
5
39
2
10
58.991031
20
200.755280
11
58.508920
21
199.402105
0
LINE
8
boundary
62
5
39
2
10
58.508920
20
199.402105
11
58.219041
21
198.600580
0
LINE
8
boundary
62
5
39
2
10
58.219041
20
198.600580
11
57.925856
21
197.798488
0
LINE
8
boundary
62
5
39
2
10
57.925856
20
197.798488
11
67.465299
21
197.648488
0
LINE
8
boundary
62
5
39
2
10
67.465299
20
197.648488
11
67.465299
21
194.902488
0
LINE
8
boundary
62
5
39
2
10
67.465299
20
194.902488
11
56.861015
21
194.902488
0
LINE
8
boundary
62
5
39
2
10
56.861015
20
194.902488
11
56.489361
21
193.905645
0
LINE
8
boundary
62
5
39
2
10
56.489361
20
193.905645
11
56.118015
21
192.907390
0
LINE
8
boundary
62
5
39
2
10
56.118015
20
192.907390
11
55.659950
21
191.690768
0
LINE
8
boundary
62
5
39
2
10
55.659950
20
191.690768
11
55.288556
21
190.701759
0
LINE
8
boundary
62
5
39
2
10
55.288556
20
190.701759
11
54.286611
21
188.068099
0
LINE
8
boundary
62
5
39
2
10
54.286611
20
188.068099
11
53.945792
21
187.178888
0
LINE
8
boundary
62
5
39
2
10
53.945792
20
187.178888
11
53.129026
21
185.075761
0
LINE
8
boundary
62
5
39
2
10
53.129026
20
185.075761
11
52.911064
21
184.521512
0
LINE
8
boundary
62
5
39
2
10
52.911064
20
184.521512
11
52.038136
21
182.290601
0
LINE
8
boundary
62
5
39
2
10
52.038136
20
182.290601
11
51.545448
21
181.046498
0
LINE
8
boundary
62
5
39
2
10
51.545448
20
181.046498
11
50.946907
21
179.524483
0
LINE
8
boundary
62
5
39
2
10
50.946907
20
179.524483
11
50.707140
21
178.921734
0
LINE
8
boundary
62
5
39
2
10
50.707140
20
178.921734
11
60.353853
21
178.771734
0
LINE
8
boundary
62
5
39
2
10
60.353853
20
178.771734
11
60.353853
21
176.025734
0
LINE
8
boundary
62
5
39
2
10
60.353853
20
176.025734
11
49.557632
21
176.025734
0
LINE
8
boundary
62
5
39
2
10
49.557632
20
176.025734
11
48.864197
21
174.285815
0
LINE
8
boundary
62
5
39
2
10
48.864197
20
174.285815
11
48.356364
21
173.008228
0
LINE
8
boundary
62
5
39
2
10
48.356364
20
173.008228
11
47.689074
21
171.350189
0
LINE
8
boundary
62
5
39
2
10
47.689074
20
171.350189
11
46.612817
21
168.672396
0
LINE
8
boundary
62
5
39
2
10
46.612817
20
168.672396
11
46.232465
21
167.733067
0
LINE
8
boundary
62
5
39
2
10
46.232465
20
167.733067
11
45.548542
21
166.018471
0
LINE
8
boundary
62
5
39
2
10
45.548542
20
166.018471
11
44.946414
21
164.521731
0
LINE
8
boundary
62
5
39
2
10
44.946414
20
164.521731
11
44.498476
21
163.389115
0
LINE
8
boundary
62
5
39
2
10
44.498476
20
163.389115
11
43.684537
21
161.346986
0
LINE
8
boundary
62
5
39
2
10
43.684537
20
161.346986
11
43.464837
21
160.785109
0
LINE
8
boundary
62
5
39
2
10
43.464837
20
160.785109
11
43.173408
21
160.044980
0
LINE
8
boundary
62
5
39
2
10
43.173408
20
160.044980
11
53.349492
21
159.894980
0
LINE
8
boundary
62
5
39
2
10
53.349492
20
159.894980
11
53.349492
21
157.148980
0
LINE
8
boundary
62
5
39
2
10
53.349492
20
157.148980
11
42.033070
21
157.148981
0
LINE
8
boundary
62
5
39
2
10
42.033070
20
157.148981
11
41.414258
21
155.577085
0
LINE
8
boundary
62
5
39
2
10
41.414258
20
155.577085
11
41.220136
21
155.087277
0
LINE
8
boundary
62
5
39
2
10
41.220136
20
155.087277
11
40.771938
21
153.934851
0
LINE
8
boundary
62
5
39
2
10
40.771938
20
153.934851
11
40.226424
21
152.524991
0
LINE
8
boundary
62
5
39
2
10
40.226424
20
152.524991
11
40.020696
21
151.993748
0
LINE
8
boundary
62
5
39
2
10
40.020696
20
151.993748
11
39.688047
21
151.121707
0
LINE
8
boundary
62
5
39
2
10
39.688047
20
151.121707
11
39.432327
21
150.454348
0
LINE
8
boundary
62
5
39
2
10
39.432327
20
150.454348
11
39.157067
21
149.724864
0
LINE
8
boundary
62
5
39
2
10
39.157067
20
149.724864
11
38.851839
21
148.919201
0
LINE
8
boundary
62
5
39
2
10
38.851839
20
148.919201
11
38.633712
21
148.334346
0
LINE
8
boundary
62
5
39
2
10
38.633712
20
148.334346
11
38.279482
21
147.387828
0
LINE
8
boundary
62
5
39
2
10
38.279482
20
147.387828
11
37.715504
21
145.859756
0
LINE
8
boundary
62
5
39
2
10
37.715504
20
145.859756
11
37.160188
21
144.334546
0
LINE
8
boundary
62
5
39
2
10
37.160188
20
144.334546
11
36.691088
21
143.027147
0
LINE
8
boundary
62
5
39
2
10
36.691088
20
143.027147
11
36.182271
21
141.617240
0
LINE
8
boundary
62
5
39
2
10
36.182271
20
141.617240
11
36.031527
21
141.018227
0
LINE
8
boundary
62
5
39
2
10
36.031527
20
141.018227
11
46.792596
21
141.018227
0
LINE
8
boundary
62
5
39
2
10
46.792596
20
141.018227
11
46.792596
21
138.272227
0
LINE
8
boundary
62
5
39
2
10
46.792596
20
138.272227
11
35.003552
21
138.272227
0
LINE
8
boundary
62
5
39
2
10
35.003552
20
138.272227
11
34.507372
21
136.824917
0
LINE
8
boundary
62
5
39
2
10
34.507372
20
136.824917
11
34.072361
21
135.556316
0
LINE
8
boundary
62
5
39
2
10
34.072361
20
135.556316
11
33.668418
21
134.363620
0
LINE
8
boundary
62
5
39
2
10
33.668418
20
134.363620
11
33.447299
21
133.707191
0
LINE
8
boundary
62
5
39
2
10
33.447299
20
133.707191
11
33.271306
21
133.177498
0
LINE
8
boundary
62
5
39
2
10
33.271306
20
133.177498
11
32.944548
21
132.192358
0
LINE
8
boundary
62
5
39
2
10
32.944548
20
132.192358
11
32.663311
21
131.331956
0
LINE
8
boundary
62
5
39
2
10
32.663311
20
131.331956
11
32.494032
21
130.823332
0
LINE
8
boundary
62
5
39
2
10
32.494032
20
130.823332
11
32.109221
21
129.652693
0
LINE
8
boundary
62
5
39
2
10
32.109221
20
129.652693
11
31.948943
21
129.163172
0
LINE
8
boundary
62
5
39
2
10
31.948943
20
129.163172
11
31.730302
21
128.488006
0
LINE
8
boundary
62
5
39
2
10
31.730302
20
128.488006
11
31.459198
21
127.648428
0
LINE
8
boundary
62
5
39
2
10
31.459198
20
127.648428
11
31.034171
21
126.315274
0
LINE
8
boundary
62
5
39
2
10
31.034171
20
126.315274
11
30.618739
21
125.024547
0
LINE
8
boundary
62
5
39
2
10
30.618739
20
125.024547
11
30.114172
21
123.432886
0
LINE
8
boundary
62
5
39
2
10
30.114172
20
123.432886
11
29.755514
21
122.291473
0
LINE
8
boundary
62
5
39
2
10
29.755514
20
122.291473
11
40.937542
21
122.141473
0
LINE
8
boundary
62
5
39
2
10
40.937542
20
122.141473
11
40.937542
21
119.395473
0
LINE
8
boundary
62
5
39
2
10
40.937542
20
119.395473
11
28.836645
21
119.395473
0
LINE
8
boundary
62
5
39
2
10
28.836645
20
119.395473
11
28.572929
21
118.558304
0
LINE
8
boundary
62
5
39
2
10
28.572929
20
118.558304
11
28.114044
21
117.087812
0
LINE
8
boundary
62
5
39
2
10
28.114044
20
117.087812
11
27.633676
21
115.529597
0
LINE
8
boundary
62
5
39
2
10
27.633676
20
115.529597
11
27.429996
21
114.865767
0
LINE
8
boundary
62
5
39
2
10
27.429996
20
114.865767
11
26.899556
21
113.111964
0
LINE
8
boundary
62
5
39
2
10
26.899556
20
113.111964
11
26.707827
21
112.503990
0
LINE
8
boundary
62
5
39
2
10
26.707827
20
112.503990
11
26.071344
21
110.462879
0
LINE
8
boundary
62
5
39
2
10
26.071344
20
110.462879
11
25.771632
21
109.485896
0
LINE
8
boundary
62
5
39
2
10
25.771632
20
109.485896
11
25.402933
21
108.287825
0
LINE
8
boundary
62
5
39
2
10
25.402933
20
108.287825
11
24.856378
21
106.478027
0
LINE
8
boundary
62
5
39
2
10
24.856378
20
106.478027
11
24.515161
21
105.339486
0
LINE
8
boundary
62
5
39
2
10
24.515161
20
105.339486
11
24.099613
21
104.006346
0
LINE
8
boundary
62
5
39
2
10
24.099613
20
104.006346
11
23.940568
21
103.484839
0
LINE
8
boundary
62
5
39
2
10
23.940568
20
103.484839
11
35.516665
21
103.264719
0
LINE
8
boundary
62
5
39
2
10
35.516665
20
103.264719
11
35.516665
21
100.518719
0
LINE
8
boundary
62
5
39
2
10
35.516665
20
100.518719
11
23.036034
21
100.518719
0
LINE
8
boundary
62
5
39
2
10
23.036034
20
100.518719
11
22.815550
21
99.797263
0
LINE
8
boundary
62
5
39
2
10
22.815550
20
99.797263
11
22.329746
21
98.163380
0
LINE
8
boundary
62
5
39
2
10
22.329746
20
98.163380
11
22.146302
21
97.567741
0
LINE
8
boundary
62
5
39
2
10
22.146302
20
97.567741
11
21.565415
21
95.680194
0
LINE
8
boundary
62
5
39
2
10
21.565415
20
95.680194
11
21.259971
21
94.655188
0
LINE
8
boundary
62
5
39
2
10
21.259971
20
94.655188
11
20.956545
21
93.661802
0
LINE
8
boundary
62
5
39
2
10
20.956545
20
93.661802
11
20.403938
21
91.787163
0
LINE
8
boundary
62
5
39
2
10
20.403938
20
91.787163
11
19.868446
21
90.020355
0
LINE
8
boundary
62
5
39
2
10
19.868446
20
90.020355
11
19.723080
21
89.524214
0
LINE
8
boundary
62
5
39
2
10
19.723080
20
89.524214
11
19.370682
21
88.360890
0
LINE
8
boundary
62
5
39
2
10
19.370682
20
88.360890
11
19.062368
21
87.299657
0
LINE
8
boundary
62
5
39
2
10
19.062368
20
87.299657
11
18.892651
21
86.736899
0
LINE
8
boundary
62
5
39
2
10
18.892651
20
86.736899
11
18.459900
21
85.236573
0
LINE
8
boundary
62
5
39
2
10
18.459900
20
85.236573
11
18.251468
21
84.537965
0
LINE
8
boundary
62
5
39
2
10
18.251468
20
84.537965
11
30.402466
21
84.387966
0
LINE
8
boundary
62
5
39
2
10
30.402466
20
84.387966
11
30.402466
21
81.641965
0
LINE
8
boundary
62
5
39
2
10
30.402466
20
81.641965
11
17.399208
21
81.641965
0
LINE
8
boundary
62
5
39
2
10
17.399208
20
81.641965
11
17.188047
21
80.880395
0
LINE
8
boundary
62
5
39
2
10
17.188047
20
80.880395
11
16.964905
21
80.126423
0
LINE
8
boundary
62
5
39
2
10
16.964905
20
80.126423
11
16.613509
21
78.848361
0
LINE
8
boundary
62
5
39
2
10
16.613509
20
78.848361
11
16.238687
21
77.497300
0
LINE
8
boundary
62
5
39
2
10
16.238687
20
77.497300
11
16.065357
21
76.873398
0
LINE
8
boundary
62
5
39
2
10
16.065357
20
76.873398
11
15.766809
21
75.808366
0
LINE
8
boundary
62
5
39
2
10
15.766809
20
75.808366
11
15.539317
21
74.951150
0
LINE
8
boundary
62
5
39
2
10
15.539317
20
74.951150
11
15.259770
21
73.908288
0
LINE
8
boundary
62
5
39
2
10
15.259770
20
73.908288
11
15.112777
21
73.365023
0
LINE
8
boundary
62
5
39
2
10
15.112777
20
73.365023
11
14.795286
21
72.165904
0
LINE
8
boundary
62
5
39
2
10
14.795286
20
72.165904
11
14.573851
21
71.284595
0
LINE
8
boundary
62
5
39
2
10
14.573851
20
71.284595
11
14.378630
21
70.522376
0
LINE
8
boundary
62
5
39
2
10
14.378630
20
70.522376
11
14.082346
21
69.373151
0
LINE
8
boundary
62
5
39
2
10
14.082346
20
69.373151
11
13.788944
21
68.133861
0
LINE
8
boundary
62
5
39
2
10
13.788944
20
68.133861
11
13.421108
21
66.628525
0
LINE
8
boundary
62
5
39
2
10
13.421108
20
66.628525
11
13.246733
21
65.850241
0
LINE
8
boundary
62
5
39
2
10
13.246733
20
65.850241
11
25.755623
21
65.511212
0
LINE
8
boundary
62
5
39
2
10
25.755623
20
65.511212
11
25.755623
21
62.765212
0
LINE
8
boundary
62
5
39
2
10
25.755623
20
62.765212
11
12.548776
21
62.765212
0
LINE
8
boundary
62
5
39
2
10
12.548776
20
62.765212
11
12.320819
21
61.655606
0
LINE
8
boundary
62
5
39
2
10
12.320819
20
61.655606
11
12.142944
21
60.823223
0
LINE
8
boundary
62
5
39
2
10
12.142944
20
60.823223
11
11.996019
21
60.113616
0
LINE
8
boundary
62
5
39
2
10
11.996019
20
60.113616
11
11.851234
21
59.409058
0
LINE
8
boundary
62
5
39
2
10
11.851234
20
59.409058
11
11.705895
21
58.703620
0
LINE
8
boundary
62
5
39
2
10
11.705895
20
58.703620
11
11.590428
21
58.119423
0
LINE
8
boundary
62
5
39
2
10
11.590428
20
58.119423
11
11.428825
21
57.325496
0
LINE
8
boundary
62
5
39
2
10
11.428825
20
57.325496
11
11.292950
21
56.643778
0
LINE
8
boundary
62
5
39
2
10
11.292950
20
56.643778
11
11.186825
21
56.098691
0
LINE
8
boundary
62
5
39
2
10
11.186825
20
56.098691
11
11.026889
21
55.296311
0
LINE
8
boundary
62
5
39
2
10
11.026889
20
55.296311
11
10.930273
21
54.791176
0
LINE
8
boundary
62
5
39
2
10
10.930273
20
54.791176
11
10.769888
21
53.976453
0
LINE
8
boundary
62
5
39
2
10
10.769888
20
53.976453
11
10.643281
21
53.323727
0
LINE
8
boundary
62
5
39
2
10
10.643281
20
53.323727
11
10.521447
21
52.686436
0
LINE
8
boundary
62
5
39
2
10
10.521447
20
52.686436
11
10.396332
21
52.041246
0
LINE
8
boundary
62
5
39
2
10
10.396332
20
52.041246
11
10.293729
21
51.497734
0
LINE
8
boundary
62
5
39
2
10
10.293729
20
51.497734
11
10.158511
21
50.800019
0
LINE
8
boundary
62
5
39
2
10
10.158511
20
50.800019
11
10.043752
21
50.201643
0
LINE
8
boundary
62
5
39
2
10
10.043752
20
50.201643
11
9.929622
21
49.611491
0
LINE
8
boundary
62
5
39
2
10
9.929622
20
49.611491
11
9.817625
21
49.035906
0
LINE
8
boundary
62
5
39
2
10
9.817625
20
49.035906
11
9.709947
21
48.483029
0
LINE
8
boundary
62
5
39
2
10
9.709947
20
48.483029
11
9.601686
21
47.932888
0
LINE
8
boundary
62
5
39
2
10
9.601686
20
47.932888
11
9.500603
21
47.416935
0
LINE
8
boundary
62
5
39
2
10
9.500603
20
47.416935
11
9.397423
21
46.893181
0
LINE
8
boundary
62
5
39
2
10
9.397423
20
46.893181
11
21.513890
21
46.634458
0
LINE
8
boundary
62
5
39
2
10
21.513890
20
46.634458
11
21.513890
21
43.888458
0
LINE
8
boundary
62
5
39
2
10
21.513890
20
43.888458
11
8.819655
21
43.888458
0
LINE
8
boundary
62
5
39
2
10
8.819655
20
43.888458
11
8.660350
21
43.048863
0
LINE
8
boundary
62
5
39
2
10
8.660350
20
43.048863
11
8.379721
21
41.529343
0
LINE
8
boundary
62
5
39
2
10
8.379721
20
41.529343
11
8.114766
21
40.005541
0
LINE
8
boundary
62
5
39
2
10
8.114766
20
40.005541
11
7.866351
21
38.440071
0
LINE
8
boundary
62
5
39
2
10
7.866351
20
38.440071
11
7.716604
21
37.384277
0
LINE
8
boundary
62
5
39
2
10
7.716604
20
37.384277
11
7.609564
21
36.608235
0
LINE
8
boundary
62
5
39
2
10
7.609564
20
36.608235
11
7.485842
21
35.614616
0
LINE
8
boundary
62
5
39
2
10
7.485842
20
35.614616
11
7.375275
21
34.650885
0
LINE
8
boundary
62
5
39
2
10
7.375275
20
34.650885
11
7.314469
21
34.110973
0
LINE
8
boundary
62
5
39
2
10
7.314469
20
34.110973
11
7.166949
21
32.654660
0
LINE
8
boundary
62
5
39
2
10
7.166949
20
32.654660
11
7.088967
21
31.779215
0
LINE
8
boundary
62
5
39
2
10
7.088967
20
31.779215
11
7.030030
21
31.132976
0
LINE
8
boundary
62
5
39
2
10
7.030030
20
31.132976
11
6.929689
21
29.864759
0
LINE
8
boundary
62
5
39
2
10
6.929689
20
29.864759
11
6.799187
21
27.936380
0
LINE
8
boundary
62
5
39
2
10
6.799187
20
27.936380
11
17.689225
21
27.757704
0
LINE
8
boundary
62
5
39
2
10
17.689225
20
27.757704
11
17.689225
21
25.011704
0
LINE
8
boundary
62
5
39
2
10
17.689225
20
25.011704
11
6.691251
21
25.011704
0
LINE
8
boundary
62
5
39
2
10
6.691251
20
25.011704
11
6.674442
21
24.491950
0
LINE
8
boundary
62
5
39
2
10
6.674442
20
24.491950
11
6.667939
21
23.837343
0
LINE
8
boundary
62
5
39
2
10
6.667939
20
23.837343
11
6.669420
21
23.094008
0
LINE
8
boundary
62
5
39
2
10
6.669420
20
23.094008
11
6.676513
21
22.504392
0
LINE
8
boundary
62
5
39
2
10
6.676513
20
22.504392
11
6.692093
21
21.807371
0
LINE
8
boundary
62
5
39
2
10
6.692093
20
21.807371
11
6.721216
21
21.009374
0
LINE
8
boundary
62
5
39
2
10
6.721216
20
21.009374
11
6.748182
21
20.479310
0
LINE
8
boundary
62
5
39
2
10
6.748182
20
20.479310
11
6.787658
21
19.828249
0
LINE
8
boundary
62
5
39
2
10
6.787658
20
19.828249
11
6.834249
21
19.222286
0
LINE
8
boundary
62
5
39
2
10
6.834249
20
19.222286
11
6.882689
21
18.670712
0
LINE
8
boundary
62
5
39
2
10
6.882689
20
18.670712
11
6.995136
21
17.650801
0
LINE
8
boundary
62
5
39
2
10
6.995136
20
17.650801
11
7.095174
21
16.900343
0
LINE
8
boundary
62
5
39
2
10
7.095174
20
16.900343
11
7.221746
21
16.100406
0
LINE
8
boundary
62
5
39
2
10
7.221746
20
16.100406
11
7.350037
21
15.410470
0
LINE
8
boundary
62
5
39
2
10
7.350037
20
15.410470
11
7.479134
21
14.804548
0
LINE
8
boundary
62
5
39
2
10
7.479134
20
14.804548
11
7.649889
21
14.096975
0
LINE
8
boundary
62
5
39
2
10
7.649889
20
14.096975
11
7.821612
21
13.478014
0
LINE
8
boundary
62
5
39
2
10
7.821612
20
13.478014
11
8.008186
21
12.882991
0
LINE
8
boundary
62
5
39
2
10
8.008186
20
12.882991
11
8.424788
21
11.782002
0
LINE
8
boundary
62
5
39
2
10
8.424788
20
11.782002
11
8.715775
21
11.156817
0
LINE
8
boundary
62
5
39
2
10
8.715775
20
11.156817
11
9.153735
21
10.348885
0
LINE
8
boundary
62
5
39
2
10
9.153735
20
10.348885
11
9.557613
21
9.728104
0
LINE
8
boundary
62
5
39
2
10
9.557613
20
9.728104
11
9.982672
21
9.170826
0
LINE
8
boundary
62
5
39
2
10
9.982672
20
9.170826
11
13.961982
21
8.880950
0
LINE
8
boundary
62
5
39
2
10
13.961982
20
8.880950
11
13.961982
21
6.734078
0
LINE
8
annotation
62
1
39
211
10
15.642482
20
6.937256
11
15.642482
21
8.078644
0
LINE
8
annotation
62
1
39
211
10
15.642482
20
8.078644
11
15.388737
21
7.824827
0
LINE
8
annotation
62
1
39
211
10
24.881520
20
23.984665
11
22.749725
21
23.984665
0
LINE
8
annotation
62
1
39
211
10
22.749725
20
23.984665
11
24.719574
21
27.155868
0
LINE
8
annotation
62
1
39
211
10
24.719574
20
27.155868
11
24.719574
21
27.155868
0
LINE
8
annotation
62
1
39
211
10
24.719574
20
27.155868
11
24.721928
21
27.158782
0
LINE
8
annotation
62
1
39
211
10
24.721928
20
27.158782
11
24.724187
21
27.161720
0
LINE
8
annotation
62
1
39
211
10
24.724187
20
27.161720
11
24.726363
21
27.164709
0
LINE
8
annotation
62
1
39
211
10
24.726363
20
27.164709
11
24.728473
21
27.167771
0
LINE
8
annotation
62
1
39
211
10
24.728473
20
27.167771
11
24.730530
21
27.170933
0
LINE
8
annotation
62
1
39
211
10
24.730530
20
27.170933
11
24.732551
21
27.174219
0
LINE
8
annotation
62
1
39
211
10
24.732551
20
27.174219
11
24.734549
21
27.177653
0
LINE
8
annotation
62
1
39
211
10
24.734549
20
27.177653
11
24.736539
21
27.181260
0
LINE
8
annotation
62
1
39
211
10
24.736539
20
27.181260
11
24.738538
21
27.185066
0
LINE
8
annotation
62
1
39
211
10
24.738538
20
27.185066
11
24.738538
21
27.185066
0
LINE
8
annotation
62
1
39
211
10
24.738538
20
27.185066
11
24.819872
21
27.359699
0
LINE
8
annotation
62
1
39
211
10
24.819872
20
27.359699
11
24.867386
21
27.540720
0
LINE
8
annotation
62
1
39
211
10
24.867386
20
27.540720
11
24.882245
21
27.724041
0
LINE
8
annotation
62
1
39
211
10
24.882245
20
27.724041
11
24.865612
21
27.905570
0
LINE
8
annotation
62
1
39
211
10
24.865612
20
27.905570
11
24.818652
21
28.081218
0
LINE
8
annotation
62
1
39
211
10
24.818652
20
28.081218
11
24.742529
21
28.246894
0
LINE
8
annotation
62
1
39
211
10
24.742529
20
28.246894
11
24.638408
21
28.398508
0
LINE
8
annotation
62
1
39
211
10
24.638408
20
28.398508
11
24.507453
21
28.531969
0
LINE
8
annotation
62
1
39
211
10
24.507453
20
28.531969
11
24.350829
21
28.643187
0
LINE
8
annotation
62
1
39
211
10
24.350829
20
28.643187
11
24.350829
21
28.643187
0
LINE
8
annotation
62
1
39
211
10
24.350829
20
28.643187
11
24.175711
21
28.723366
0
LINE
8
annotation
62
1
39
211
10
24.175711
20
28.723366
11
23.994412
21
28.770148
0
LINE
8
annotation
62
1
39
211
10
23.994412
20
28.770148
11
23.810985
21
28.784587
0
LINE
8
annotation
62
1
39
211
10
23.810985
20
28.784587
11
23.629483
21
28.767735
0
LINE
8
annotation
62
1
39
211
10
23.629483
20
28.767735
11
23.453959
21
28.720644
0
LINE
8
annotation
62
1
39
211
10
23.453959
20
28.720644
11
23.288466
21
28.644369
0
LINE
8
annotation
62
1
39
211
10
23.288466
20
28.644369
11
23.137058
21
28.539962
0
LINE
8
annotation
62
1
39
211
10
23.137058
20
28.539962
11
23.003787
21
28.408476
0
LINE
8
annotation
62
1
39
211
10
23.003787
20
28.408476
11
22.892708
21
28.250964
0
LINE
8
annotation
62
1
39
211
10
22.892708
20
28.250964
11
22.752735
21
27.982458
0
LINE
8
annotation
62
1
39
211
10
26.574390
20
42.861608
11
27.640288
21
42.861608
0
LINE
8
annotation
62
1
39
211
10
27.640288
20
42.861608
11
27.640288
21
42.861608
0
LINE
8
annotation
62
1
39
211
10
27.640288
20
42.861608
11
27.831992
21
42.878805
0
LINE
8
annotation
62
1
39
211
10
27.831992
20
42.878805
11
28.012379
21
42.928369
0
LINE
8
annotation
62
1
39
211
10
28.012379
20
42.928369
11
28.178448
21
43.007255
0
LINE
8
annotation
62
1
39
211
10
28.178448
20
43.007255
11
28.327200
21
43.112424
0
LINE
8
annotation
62
1
39
211
10
28.327200
20
43.112424
11
28.455634
21
43.240831
0
LINE
8
annotation
62
1
39
211
10
28.455634
20
43.240831
11
28.560750
21
43.389434
0
LINE
8
annotation
62
1
39
211
10
28.560750
20
43.389434
11
28.639547
21
43.555192
0
LINE
8
annotation
62
1
39
211
10
28.639547
20
43.555192
11
28.689026
21
43.735062
0
LINE
8
annotation
62
1
39
211
10
28.689026
20
43.735062
11
28.706185
21
43.926001
0
LINE
8
annotation
62
1
39
211
10
28.706185
20
43.926001
11
28.706185
21
44.459702
0
LINE
8
annotation
62
1
39
211
10
28.706185
20
44.459702
11
28.706185
21
44.459702
0
LINE
8
annotation
62
1
39
211
10
28.706185
20
44.459702
11
28.689026
21
44.650562
0
LINE
8
annotation
62
1
39
211
10
28.689026
20
44.650562
11
28.639547
21
44.830389
0
LINE
8
annotation
62
1
39
211
10
28.639547
20
44.830389
11
28.560750
21
44.996135
0
LINE
8
annotation
62
1
39
211
10
28.560750
20
44.996135
11
28.455634
21
45.144748
0
LINE
8
annotation
62
1
39
211
10
28.455634
20
45.144748
11
28.327200
21
45.273180
0
LINE
8
annotation
62
1
39
211
10
28.327200
20
45.273180
11
28.178448
21
45.378380
0
LINE
8
annotation
62
1
39
211
10
28.178448
20
45.378380
11
28.012379
21
45.457299
0
LINE
8
annotation
62
1
39
211
10
28.012379
20
45.457299
11
27.831992
21
45.506887
0
LINE
8
annotation
62
1
39
211
10
27.831992
20
45.506887
11
27.640288
21
45.524094
0
LINE
8
annotation
62
1
39
211
10
27.640288
20
45.524094
11
27.106587
21
45.524094
0
LINE
8
annotation
62
1
39
211
10
27.106587
20
45.524094
11
27.640288
21
45.524094
0
LINE
8
annotation
62
1
39
211
10
27.640288
20
45.524094
11
27.640288
21
45.524094
0
LINE
8
annotation
62
1
39
211
10
27.640288
20
45.524094
11
27.831992
21
45.541305
0
LINE
8
annotation
62
1
39
211
10
27.831992
20
45.541305
11
28.012379
21
45.590922
0
LINE
8
annotation
62
1
39
211
10
28.012379
20
45.590922
11
28.178448
21
45.669920
0
LINE
8
annotation
62
1
39
211
10
28.178448
20
45.669920
11
28.327200
21
45.775273
0
LINE
8
annotation
62
1
39
211
10
28.327200
20
45.775273
11
28.455634
21
45.903956
0
LINE
8
annotation
62
1
39
211
10
28.455634
20
45.903956
11
28.560750
21
46.052946
0
LINE
8
annotation
62
1
39
211
10
28.560750
20
46.052946
11
28.639547
21
46.219216
0
LINE
8
annotation
62
1
39
211
10
28.639547
20
46.219216
11
28.689026
21
46.399741
0
LINE
8
annotation
62
1
39
211
10
28.689026
20
46.399741
11
28.706185
21
46.591497
0
LINE
8
annotation
62
1
39
211
10
28.706185
20
46.591497
11
28.706185
21
46.591497
0
LINE
8
annotation
62
1
39
211
10
28.706185
20
46.591497
11
28.689026
21
46.782356
0
LINE
8
annotation
62
1
39
211
10
28.689026
20
46.782356
11
28.639547
21
46.962184
0
LINE
8
annotation
62
1
39
211
10
28.639547
20
46.962184
11
28.560750
21
47.127929
0
LINE
8
annotation
62
1
39
211
10
28.560750
20
47.127929
11
28.455634
21
47.276543
0
LINE
8
annotation
62
1
39
211
10
28.455634
20
47.276543
11
28.327200
21
47.404975
0
LINE
8
annotation
62
1
39
211
10
28.327200
20
47.404975
11
28.178448
21
47.510175
0
LINE
8
annotation
62
1
39
211
10
28.178448
20
47.510175
11
28.012379
21
47.589094
0
LINE
8
annotation
62
1
39
211
10
28.012379
20
47.589094
11
27.831992
21
47.638682
0
LINE
8
annotation
62
1
39
211
10
27.831992
20
47.638682
11
27.640288
21
47.655889
0
LINE
8
annotation
62
1
39
211
10
27.640288
20
47.655889
11
26.574390
21
47.655889
0
LINE
8
annotation
62
1
39
211
10
33.214618
20
62.805313
11
30.549423
21
62.805313
0
LINE
8
annotation
62
1
39
211
10
30.549423
20
62.805313
11
31.613816
21
66.538212
0
LINE
8
annotation
62
1
39
211
10
32.415722
20
61.738212
11
32.415722
21
63.870006
0
LINE
8
annotation
62
1
39
211
10
35.462967
20
80.614965
11
36.528864
21
80.614965
0
LINE
8
annotation
62
1
39
211
10
36.528864
20
80.614965
11
36.528864
21
80.614965
0
LINE
8
annotation
62
1
39
211
10
36.528864
20
80.614965
11
36.720172
21
80.632166
0
LINE
8
annotation
62
1
39
211
10
36.720172
20
80.632166
11
36.900348
21
80.681755
0
LINE
8
annotation
62
1
39
211
10
36.900348
20
80.681755
11
37.066356
21
80.760713
0
LINE
8
annotation
62
1
39
211
10
37.066356
20
80.760713
11
37.215157
21
80.866018
0
LINE
8
annotation
62
1
39
211
10
37.215157
20
80.866018
11
37.343715
21
80.994652
0
LINE
8
annotation
62
1
39
211
10
37.343715
20
80.994652
11
37.448992
21
81.143594
0
LINE
8
annotation
62
1
39
211
10
37.448992
20
81.143594
11
37.527950
21
81.309824
0
LINE
8
annotation
62
1
39
211
10
37.527950
20
81.309824
11
37.577553
21
81.490321
0
LINE
8
annotation
62
1
39
211
10
37.577553
20
81.490321
11
37.594762
21
81.682067
0
LINE
8
annotation
62
1
39
211
10
37.594762
20
81.682067
11
37.594762
21
82.213059
0
LINE
8
annotation
62
1
39
211
10
37.594762
20
82.213059
11
37.594762
21
82.213059
0
LINE
8
annotation
62
1
39
211
10
37.594762
20
82.213059
11
37.577562
21
82.404712
0
LINE
8
annotation
62
1
39
211
10
37.577562
20
82.404712
11
37.527985
21
82.584960
0
LINE
8
annotation
62
1
39
211
10
37.527985
20
82.584960
11
37.449059
21
82.750829
0
LINE
8
annotation
62
1
39
211
10
37.449059
20
82.750829
11
37.343814
21
82.899344
0
LINE
8
annotation
62
1
39
211
10
37.343814
20
82.899344
11
37.215281
21
83.027528
0
LINE
8
annotation
62
1
39
211
10
37.215281
20
83.027528
11
37.066490
21
83.132406
0
LINE
8
annotation
62
1
39
211
10
37.066490
20
83.132406
11
36.900470
21
83.211003
0
LINE
8
annotation
62
1
39
211
10
36.900470
20
83.211003
11
36.720251
21
83.260343
0
LINE
8
annotation
62
1
39
211
10
36.720251
20
83.260343
11
36.528864
21
83.277451
0
LINE
8
annotation
62
1
39
211
10
36.528864
20
83.277451
11
35.462967
21
83.277451
0
LINE
8
annotation
62
1
39
211
10
35.462967
20
83.277451
11
35.462967
21
85.414965
0
LINE
8
annotation
62
1
39
211
10
35.462967
20
85.414965
11
37.594762
21
85.414965
0
LINE
8
annotation
62
1
39
211
10
42.178269
20
104.291719
11
42.178269
21
104.291719
0
LINE
8
annotation
62
1
39
211
10
42.178269
20
104.291719
11
41.872916
21
104.177230
0
LINE
8
annotation
62
1
39
211
10
41.872916
20
104.177230
11
41.592715
21
104.022970
0
LINE
8
annotation
62
1
39
211
10
41.592715
20
104.022970
11
41.340542
21
103.832804
0
LINE
8
annotation
62
1
39
211
10
41.340542
20
103.832804
11
41.119273
21
103.610596
0
LINE
8
annotation
62
1
39
211
10
41.119273
20
103.610596
11
40.931785
21
103.360211
0
LINE
8
annotation
62
1
39
211
10
40.931785
20
103.360211
11
40.780953
21
103.085515
0
LINE
8
annotation
62
1
39
211
10
40.780953
20
103.085515
11
40.669655
21
102.790372
0
LINE
8
annotation
62
1
39
211
10
40.669655
20
102.790372
11
40.600767
21
102.478647
0
LINE
8
annotation
62
1
39
211
10
40.600767
20
102.478647
11
40.577166
21
102.154205
0
LINE
8
annotation
62
1
39
211
10
40.577166
20
102.154205
11
40.577166
21
100.558821
0
LINE
8
annotation
62
1
39
211
10
40.577166
20
100.558821
11
40.577166
21
100.558821
0
LINE
8
annotation
62
1
39
211
10
40.577166
20
100.558821
11
40.594375
21
100.367075
0
LINE
8
annotation
62
1
39
211
10
40.594375
20
100.367075
11
40.643977
21
100.186577
0
LINE
8
annotation
62
1
39
211
10
40.643977
20
100.186577
11
40.722935
21
100.020348
0
LINE
8
annotation
62
1
39
211
10
40.722935
20
100.020348
11
40.828212
21
99.871406
0
LINE
8
annotation
62
1
39
211
10
40.828212
20
99.871406
11
40.956770
21
99.742772
0
LINE
8
annotation
62
1
39
211
10
40.956770
20
99.742772
11
41.105571
21
99.637467
0
LINE
8
annotation
62
1
39
211
10
41.105571
20
99.637467
11
41.271579
21
99.558509
0
LINE
8
annotation
62
1
39
211
10
41.271579
20
99.558509
11
41.451755
21
99.508920
0
LINE
8
annotation
62
1
39
211
10
41.451755
20
99.508920
11
41.643063
21
99.491719
0
LINE
8
annotation
62
1
39
211
10
41.643063
20
99.491719
11
41.643063
21
99.491719
0
LINE
8
annotation
62
1
39
211
10
41.643063
20
99.491719
11
41.834767
21
99.508920
0
LINE
8
annotation
62
1
39
211
10
41.834767
20
99.508920
11
42.015154
21
99.558509
0
LINE
8
annotation
62
1
39
211
10
42.015154
20
99.558509
11
42.181224
21
99.637467
0
LINE
8
annotation
62
1
39
211
10
42.181224
20
99.637467
11
42.329976
21
99.742772
0
LINE
8
annotation
62
1
39
211
10
42.329976
20
99.742772
11
42.458409
21
99.871406
0
LINE
8
annotation
62
1
39
211
10
42.458409
20
99.871406
11
42.563525
21
100.020348
0
LINE
8
annotation
62
1
39
211
10
42.563525
20
100.020348
11
42.642322
21
100.186577
0
LINE
8
annotation
62
1
39
211
10
42.642322
20
100.186577
11
42.691801
21
100.367075
0
LINE
8
annotation
62
1
39
211
10
42.691801
20
100.367075
11
42.708960
21
100.558821
0
LINE
8
annotation
62
1
39
211
10
42.708960
20
100.558821
11
42.708960
21
101.089813
0
LINE
8
annotation
62
1
39
211
10
42.708960
20
101.089813
11
42.708960
21
101.089813
0
LINE
8
annotation
62
1
39
211
10
42.708960
20
101.089813
11
42.691801
21
101.281465
0
LINE
8
annotation
62
1
39
211
10
42.691801
20
101.281465
11
42.642322
21
101.461714
0
LINE
8
annotation
62
1
39
211
10
42.642322
20
101.461714
11
42.563525
21
101.627583
0
LINE
8
annotation
62
1
39
211
10
42.563525
20
101.627583
11
42.458409
21
101.776098
0
LINE
8
annotation
62
1
39
211
10
42.458409
20
101.776098
11
42.329976
21
101.904282
0
LINE
8
annotation
62
1
39
211
10
42.329976
20
101.904282
11
42.181224
21
102.009160
0
LINE
8
annotation
62
1
39
211
10
42.181224
20
102.009160
11
42.015154
21
102.087757
0
LINE
8
annotation
62
1
39
211
10
42.015154
20
102.087757
11
41.834767
21
102.137097
0
LINE
8
annotation
62
1
39
211
10
41.834767
20
102.137097
11
41.643063
21
102.154205
0
LINE
8
annotation
62
1
39
211
10
41.643063
20
102.154205
11
40.577166
21
102.154205
0
LINE
8
annotation
62
1
39
211
10
40.443665
20
98.891719
11
42.843665
21
98.891719
0
LINE
8
annotation
62
1
39
211
10
47.063940
20
118.368473
11
48.131041
21
123.168473
0
LINE
8
annotation
62
1
39
211
10
48.131041
20
123.168473
11
45.996537
21
123.168473
0
LINE
8
annotation
62
1
39
211
10
48.131041
20
121.030959
11
47.063940
21
121.030959
0
LINE
8
annotation
62
1
39
211
10
51.853096
20
138.309469
11
51.853096
21
138.309469
0
LINE
8
annotation
62
1
39
211
10
51.853096
20
138.309469
11
51.870305
21
138.117816
0
LINE
8
annotation
62
1
39
211
10
51.870305
20
138.117816
11
51.919908
21
137.937567
0
LINE
8
annotation
62
1
39
211
10
51.919908
20
137.937567
11
51.998866
21
137.771698
0
LINE
8
annotation
62
1
39
211
10
51.998866
20
137.771698
11
52.104143
21
137.623184
0
LINE
8
annotation
62
1
39
211
10
52.104143
20
137.623184
11
52.232701
21
137.495000
0
LINE
8
annotation
62
1
39
211
10
52.232701
20
137.495000
11
52.381502
21
137.390121
0
LINE
8
annotation
62
1
39
211
10
52.381502
20
137.390121
11
52.547510
21
137.311524
0
LINE
8
annotation
62
1
39
211
10
52.547510
20
137.311524
11
52.727686
21
137.262184
0
LINE
8
annotation
62
1
39
211
10
52.727686
20
137.262184
11
52.918994
21
137.245076
0
LINE
8
annotation
62
1
39
211
10
52.918994
20
137.245076
11
52.918994
21
137.245076
0
LINE
8
annotation
62
1
39
211
10
52.918994
20
137.245076
11
53.110302
21
137.262184
0
LINE
8
annotation
62
1
39
211
10
53.110302
20
137.262184
11
53.290478
21
137.311524
0
LINE
8
annotation
62
1
39
211
10
53.290478
20
137.311524
11
53.456486
21
137.390121
0
LINE
8
annotation
62
1
39
211
10
53.456486
20
137.390121
11
53.605287
21
137.495000
0
LINE
8
annotation
62
1
39
211
10
53.605287
20
137.495000
11
53.733845
21
137.623184
0
LINE
8
annotation
62
1
39
211
10
53.733845
20
137.623184
11
53.839121
21
137.771698
0
LINE
8
annotation
62
1
39
211
10
53.839121
20
137.771698
11
53.918080
21
137.937567
0
LINE
8
annotation
62
1
39
211
10
53.918080
20
137.937567
11
53.967682
21
138.117816
0
LINE
8
annotation
62
1
39
211
10
53.967682
20
138.117816
11
53.984891
21
138.309469
0
LINE
8
annotation
62
1
39
211
10
53.984891
20
138.309469
11
53.984891
21
138.840461
0
LINE
8
annotation
62
1
39
211
10
53.984891
20
138.840461
11
53.984891
21
138.840461
0
LINE
8
annotation
62
1
39
211
10
53.984891
20
138.840461
11
53.967692
21
139.032206
0
LINE
8
annotation
62
1
39
211
10
53.967692
20
139.032206
11
53.918114
21
139.212704
0
LINE
8
annotation
62
1
39
211
10
53.918114
20
139.212704
11
53.839188
21
139.378934
0
LINE
8
annotation
62
1
39
211
10
53.839188
20
139.378934
11
53.733944
21
139.527875
0
LINE
8
annotation
62
1
39
211
10
53.733944
20
139.527875
11
53.605411
21
139.656509
0
LINE
8
annotation
62
1
39
211
10
53.605411
20
139.656509
11
53.456619
21
139.761815
0
LINE
8
annotation
62
1
39
211
10
53.456619
20
139.761815
11
53.290599
21
139.840772
0
LINE
8
annotation
62
1
39
211
10
53.290599
20
139.840772
11
53.110381
21
139.890361
0
LINE
8
annotation
62
1
39
211
10
53.110381
20
139.890361
11
52.918994
21
139.907562
0
LINE
8
annotation
62
1
39
211
10
52.918994
20
139.907562
11
52.918994
21
139.907562
0
LINE
8
annotation
62
1
39
211
10
52.918994
20
139.907562
11
52.727607
21
139.890351
0
LINE
8
annotation
62
1
39
211
10
52.727607
20
139.890351
11
52.547388
21
139.840737
0
LINE
8
annotation
62
1
39
211
10
52.547388
20
139.840737
11
52.381368
21
139.761748
0
LINE
8
annotation
62
1
39
211
10
52.381368
20
139.761748
11
52.232577
21
139.656410
0
LINE
8
annotation
62
1
39
211
10
52.232577
20
139.656410
11
52.104044
21
139.527751
0
LINE
8
annotation
62
1
39
211
10
52.104044
20
139.527751
11
51.998799
21
139.378800
0
LINE
8
annotation
62
1
39
211
10
51.998799
20
139.378800
11
51.919873
21
139.212582
0
LINE
8
annotation
62
1
39
211
10
51.919873
20
139.212582
11
51.870296
21
139.032127
0
LINE
8
annotation
62
1
39
211
10
51.870296
20
139.032127
11
51.853096
21
138.840461
0
LINE
8
annotation
62
1
39
211
10
51.853096
20
138.840461
11
51.853096
21
138.309469
0
LINE
8
annotation
62
1
39
211
10
53.984891
20
140.974965
11
53.984891
21
140.974965
0
LINE
8
annotation
62
1
39
211
10
53.984891
20
140.974965
11
53.967692
21
141.165824
0
LINE
8
annotation
62
1
39
211
10
53.967692
20
141.165824
11
53.918114
21
141.345652
0
LINE
8
annotation
62
1
39
211
10
53.918114
20
141.345652
11
53.839188
21
141.511397
0
LINE
8
annotation
62
1
39
211
10
53.839188
20
141.511397
11
53.733944
21
141.660011
0
LINE
8
annotation
62
1
39
211
10
53.733944
20
141.660011
11
53.605411
21
141.788443
0
LINE
8
annotation
62
1
39
211
10
53.605411
20
141.788443
11
53.456619
21
141.893643
0
LINE
8
annotation
62
1
39
211
10
53.456619
20
141.893643
11
53.290599
21
141.972562
0
LINE
8
annotation
62
1
39
211
10
53.290599
20
141.972562
11
53.110381
21
142.022150
0
LINE
8
annotation
62
1
39
211
10
53.110381
20
142.022150
11
52.918994
21
142.039357
0
LINE
8
annotation
62
1
39
211
10
52.918994
20
142.039357
11
52.918994
21
142.039357
0
LINE
8
annotation
62
1
39
211
10
52.918994
20
142.039357
11
52.727607
21
142.022150
0
LINE
8
annotation
62
1
39
211
10
52.727607
20
142.022150
11
52.547388
21
141.972562
0
LINE
8
annotation
62
1
39
211
10
52.547388
20
141.972562
11
52.381368
21
141.893643
0
LINE
8
annotation
62
1
39
211
10
52.381368
20
141.893643
11
52.232577
21
141.788443
0
LINE
8
annotation
62
1
39
211
10
52.232577
20
141.788443
11
52.104044
21
141.660011
0
LINE
8
annotation
62
1
39
211
10
52.104044
20
141.660011
11
51.998799
21
141.511397
0
LINE
8
annotation
62
1
39
211
10
51.998799
20
141.511397
11
51.919873
21
141.345652
0
LINE
8
annotation
62
1
39
211
10
51.919873
20
141.345652
11
51.870296
21
141.165824
0
LINE
8
annotation
62
1
39
211
10
51.870296
20
141.165824
11
51.853096
21
140.974965
0
LINE
8
annotation
62
1
39
211
10
51.853096
20
140.974965
11
51.853096
21
140.974965
0
LINE
8
annotation
62
1
39
211
10
51.853096
20
140.974965
11
51.870305
21
140.783209
0
LINE
8
annotation
62
1
39
211
10
51.870305
20
140.783209
11
51.919908
21
140.602683
0
LINE
8
annotation
62
1
39
211
10
51.919908
20
140.602683
11
51.998866
21
140.436414
0
LINE
8
annotation
62
1
39
211
10
51.998866
20
140.436414
11
52.104143
21
140.287424
0
LINE
8
annotation
62
1
39
211
10
52.104143
20
140.287424
11
52.232701
21
140.158741
0
LINE
8
annotation
62
1
39
211
10
52.232701
20
140.158741
11
52.381502
21
140.053388
0
LINE
8
annotation
62
1
39
211
10
52.381502
20
140.053388
11
52.547510
21
139.974390
0
LINE
8
annotation
62
1
39
211
10
52.547510
20
139.974390
11
52.727686
21
139.924773
0
LINE
8
annotation
62
1
39
211
10
52.727686
20
139.924773
11
52.918994
21
139.907562
0
LINE
8
annotation
62
1
39
211
10
52.918994
20
139.907562
11
52.918994
21
139.907562
0
LINE
8
annotation
62
1
39
211
10
52.918994
20
139.907562
11
53.110302
21
139.924773
0
LINE
8
annotation
62
1
39
211
10
53.110302
20
139.924773
11
53.290478
21
139.974390
0
LINE
8
annotation
62
1
39
211
10
53.290478
20
139.974390
11
53.456486
21
140.053388
0
LINE
8
annotation
62
1
39
211
10
53.456486
20
140.053388
11
53.605287
21
140.158741
0
LINE
8
annotation
62
1
39
211
10
53.605287
20
140.158741
11
53.733845
21
140.287424
0
LINE
8
annotation
62
1
39
211
10
53.733845
20
140.287424
11
53.839121
21
140.436414
0
LINE
8
annotation
62
1
39
211
10
53.839121
20
140.436414
11
53.918080
21
140.602683
0
LINE
8
annotation
62
1
39
211
10
53.918080
20
140.602683
11
53.967682
21
140.783209
0
LINE
8
annotation
62
1
39
211
10
53.967682
20
140.783209
11
53.984891
21
140.974965
0
LINE
8
annotation
62
1
39
211
10
58.942189
20
156.121981
11
58.942189
21
156.121981
0
LINE
8
annotation
62
1
39
211
10
58.942189
20
156.121981
11
59.247004
21
156.235570
0
LINE
8
annotation
62
1
39
211
10
59.247004
20
156.235570
11
59.526787
21
156.389106
0
LINE
8
annotation
62
1
39
211
10
59.526787
20
156.389106
11
59.778645
21
156.578677
0
LINE
8
annotation
62
1
39
211
10
59.778645
20
156.578677
11
59.999689
21
156.800372
0
LINE
8
annotation
62
1
39
211
10
59.999689
20
156.800372
11
60.187026
21
157.050278
0
LINE
8
annotation
62
1
39
211
10
60.187026
20
157.050278
11
60.337766
21
157.324483
0
LINE
8
annotation
62
1
39
211
10
60.337766
20
157.324483
11
60.449016
21
157.619076
0
LINE
8
annotation
62
1
39
211
10
60.449016
20
157.619076
11
60.517887
21
157.930144
0
LINE
8
annotation
62
1
39
211
10
60.517887
20
157.930144
11
60.541487
21
158.253775
0
LINE
8
annotation
62
1
39
211
10
60.541487
20
158.253775
11
60.541487
21
159.854578
0
LINE
8
annotation
62
1
39
211
10
60.541487
20
159.854578
11
60.541487
21
159.854578
0
LINE
8
annotation
62
1
39
211
10
60.541487
20
159.854578
11
60.524327
21
160.046334
0
LINE
8
annotation
62
1
39
211
10
60.524327
20
160.046334
11
60.474848
21
160.226859
0
LINE
8
annotation
62
1
39
211
10
60.474848
20
160.226859
11
60.396051
21
160.393129
0
LINE
8
annotation
62
1
39
211
10
60.396051
20
160.393129
11
60.290936
21
160.542118
0
LINE
8
annotation
62
1
39
211
10
60.290936
20
160.542118
11
60.162502
21
160.670802
0
LINE
8
annotation
62
1
39
211
10
60.162502
20
160.670802
11
60.013750
21
160.776155
0
LINE
8
annotation
62
1
39
211
10
60.013750
20
160.776155
11
59.847680
21
160.855153
0
LINE
8
annotation
62
1
39
211
10
59.847680
20
160.855153
11
59.667293
21
160.904769
0
LINE
8
annotation
62
1
39
211
10
59.667293
20
160.904769
11
59.475589
21
160.921981
0
LINE
8
annotation
62
1
39
211
10
59.475589
20
160.921981
11
59.475589
21
160.921981
0
LINE
8
annotation
62
1
39
211
10
59.475589
20
160.921981
11
59.284281
21
160.904769
0
LINE
8
annotation
62
1
39
211
10
59.284281
20
160.904769
11
59.104105
21
160.855153
0
LINE
8
annotation
62
1
39
211
10
59.104105
20
160.855153
11
58.938097
21
160.776155
0
LINE
8
annotation
62
1
39
211
10
58.938097
20
160.776155
11
58.789296
21
160.670802
0
LINE
8
annotation
62
1
39
211
10
58.789296
20
160.670802
11
58.660738
21
160.542118
0
LINE
8
annotation
62
1
39
211
10
58.660738
20
160.542118
11
58.555461
21
160.393129
0
LINE
8
annotation
62
1
39
211
10
58.555461
20
160.393129
11
58.476503
21
160.226859
0
LINE
8
annotation
62
1
39
211
10
58.476503
20
160.226859
11
58.426901
21
160.046334
0
LINE
8
annotation
62
1
39
211
10
58.426901
20
160.046334
11
58.409692
21
159.854578
0
LINE
8
annotation
62
1
39
211
10
58.409692
20
159.854578
11
58.409692
21
159.320877
0
LINE
8
annotation
62
1
39
211
10
58.409692
20
159.320877
11
58.409692
21
159.320877
0
LINE
8
annotation
62
1
39
211
10
58.409692
20
159.320877
11
58.426901
21
159.129131
0
LINE
8
annotation
62
1
39
211
10
58.426901
20
159.129131
11
58.476503
21
158.948634
0
LINE
8
annotation
62
1
39
211
10
58.476503
20
158.948634
11
58.555461
21
158.782404
0
LINE
8
annotation
62
1
39
211
10
58.555461
20
158.782404
11
58.660738
21
158.633462
0
LINE
8
annotation
62
1
39
211
10
58.660738
20
158.633462
11
58.789296
21
158.504828
0
LINE
8
annotation
62
1
39
211
10
58.789296
20
158.504828
11
58.938097
21
158.399523
0
LINE
8
annotation
62
1
39
211
10
58.938097
20
158.399523
11
59.104105
21
158.320565
0
LINE
8
annotation
62
1
39
211
10
59.104105
20
158.320565
11
59.284281
21
158.270976
0
LINE
8
annotation
62
1
39
211
10
59.284281
20
158.270976
11
59.475589
21
158.253775
0
LINE
8
annotation
62
1
39
211
10
59.475589
20
158.253775
11
60.541487
21
158.253775
0
LINE
8
annotation
62
1
39
211
10
58.276492
20
155.521981
11
60.676492
21
155.521981
0
LINE
8
annotation
62
1
39
211
10
65.044197
20
175.121217
11
65.044197
21
179.676251
0
LINE
8
annotation
62
1
39
211
10
65.044197
20
179.676251
11
64.031555
21
178.663323
0
LINE
8
annotation
62
1
39
211
10
67.483852
20
175.181300
11
67.483852
21
175.181300
0
LINE
8
annotation
62
1
39
211
10
67.483852
20
175.181300
11
67.589717
21
175.141725
0
LINE
8
annotation
62
1
39
211
10
67.589717
20
175.141725
11
67.698290
21
175.122063
0
LINE
8
annotation
62
1
39
211
10
67.698290
20
175.122063
11
67.807117
21
175.121514
0
LINE
8
annotation
62
1
39
211
10
67.807117
20
175.121514
11
67.913743
21
175.139274
0
LINE
8
annotation
62
1
39
211
10
67.913743
20
175.139274
11
68.015714
21
175.174542
0
LINE
8
annotation
62
1
39
211
10
68.015714
20
175.174542
11
68.110576
21
175.226518
0
LINE
8
annotation
62
1
39
211
10
68.110576
20
175.226518
11
68.195874
21
175.294398
0
LINE
8
annotation
62
1
39
211
10
68.195874
20
175.294398
11
68.269153
21
175.377381
0
LINE
8
annotation
62
1
39
211
10
68.269153
20
175.377381
11
68.327959
21
175.474666
0
LINE
8
annotation
62
1
39
211
10
68.327959
20
175.474666
11
68.327959
21
175.474666
0
LINE
8
annotation
62
1
39
211
10
68.327959
20
175.474666
11
68.503414
21
175.885361
0
LINE
8
annotation
62
1
39
211
10
68.503414
20
175.885361
11
68.635005
21
176.307944
0
LINE
8
annotation
62
1
39
211
10
68.635005
20
176.307944
11
68.722732
21
176.739044
0
LINE
8
annotation
62
1
39
211
10
68.722732
20
176.739044
11
68.766596
21
177.175292
0
LINE
8
annotation
62
1
39
211
10
68.766596
20
177.175292
11
68.766596
21
177.613321
0
LINE
8
annotation
62
1
39
211
10
68.766596
20
177.613321
11
68.722732
21
178.049760
0
LINE
8
annotation
62
1
39
211
10
68.722732
20
178.049760
11
68.635005
21
178.481241
0
LINE
8
annotation
62
1
39
211
10
68.635005
20
178.481241
11
68.503414
21
178.904395
0
LINE
8
annotation
62
1
39
211
10
68.503414
20
178.904395
11
68.327959
21
179.315852
0
LINE
8
annotation
62
1
39
211
10
68.327959
20
179.315852
11
68.327959
21
179.315852
0
LINE
8
annotation
62
1
39
211
10
68.327959
20
179.315852
11
68.305646
21
179.357376
0
LINE
8
annotation
62
1
39
211
10
68.305646
20
179.357376
11
68.280350
21
179.397077
0
LINE
8
annotation
62
1
39
211
10
68.280350
20
179.397077
11
68.252260
21
179.434758
0
LINE
8
annotation
62
1
39
211
10
68.252260
20
179.434758
11
68.221569
21
179.470224
0
LINE
8
annotation
62
1
39
211
10
68.221569
20
179.470224
11
68.188464
21
179.503280
0
LINE
8
annotation
62
1
39
211
10
68.188464
20
179.503280
11
68.153139
21
179.533731
0
LINE
8
annotation
62
1
39
211
10
68.153139
20
179.533731
11
68.115781
21
179.561382
0
LINE
8
annotation
62
1
39
211
10
68.115781
20
179.561382
11
68.076583
21
179.586038
0
LINE
8
annotation
62
1
39
211
10
68.076583
20
179.586038
11
68.035735
21
179.607504
0
LINE
8
annotation
62
1
39
211
10
68.035735
20
179.607504
11
68.035735
21
179.607504
0
LINE
8
annotation
62
1
39
211
10
68.035735
20
179.607504
11
67.929030
21
179.647937
0
LINE
8
annotation
62
1
39
211
10
67.929030
20
179.647937
11
67.819821
21
179.668270
0
LINE
8
annotation
62
1
39
211
10
67.819821
20
179.668270
11
67.710534
21
179.669311
0
LINE
8
annotation
62
1
39
211
10
67.710534
20
179.669311
11
67.603596
21
179.651865
0
LINE
8
annotation
62
1
39
211
10
67.603596
20
179.651865
11
67.501433
21
179.616740
0
LINE
8
annotation
62
1
39
211
10
67.501433
20
179.616740
11
67.406472
21
179.564741
0
LINE
8
annotation
62
1
39
211
10
67.406472
20
179.564741
11
67.321138
21
179.496674
0
LINE
8
annotation
62
1
39
211
10
67.321138
20
179.496674
11
67.247857
21
179.413347
0
LINE
8
annotation
62
1
39
211
10
67.247857
20
179.413347
11
67.189057
21
179.315566
0
LINE
8
annotation
62
1
39
211
10
67.189057
20
179.315566
11
67.189057
21
179.315566
0
LINE
8
annotation
62
1
39
211
10
67.189057
20
179.315566
11
67.014449
21
178.904955
0
LINE
8
annotation
62
1
39
211
10
67.014449
20
178.904955
11
66.883493
21
178.482437
0
LINE
8
annotation
62
1
39
211
10
66.883493
20
178.482437
11
66.796188
21
178.051379
0
LINE
8
annotation
62
1
39
211
10
66.796188
20
178.051379
11
66.752536
21
177.615151
0
LINE
8
annotation
62
1
39
211
10
66.752536
20
177.615151
11
66.752536
21
177.177123
0
LINE
8
annotation
62
1
39
211
10
66.752536
20
177.177123
11
66.796188
21
176.740662
0
LINE
8
annotation
62
1
39
211
10
66.796188
20
176.740662
11
66.883493
21
176.309139
0
LINE
8
annotation
62
1
39
211
10
66.883493
20
176.309139
11
67.014449
21
175.885922
0
LINE
8
annotation
62
1
39
211
10
67.014449
20
175.885922
11
67.189057
21
175.474381
0
LINE
8
annotation
62
1
39
211
10
67.189057
20
175.474381
11
67.189057
21
175.474381
0
LINE
8
annotation
62
1
39
211
10
67.189057
20
175.474381
11
67.211289
21
175.432938
0
LINE
8
annotation
62
1
39
211
10
67.211289
20
175.432938
11
67.236398
21
175.393436
0
LINE
8
annotation
62
1
39
211
10
67.236398
20
175.393436
11
67.264279
21
175.355993
0
LINE
8
annotation
62
1
39
211
10
67.264279
20
175.355993
11
67.294827
21
175.320729
0
LINE
8
annotation
62
1
39
211
10
67.294827
20
175.320729
11
67.327934
21
175.287765
0
LINE
8
annotation
62
1
39
211
10
67.327934
20
175.287765
11
67.363497
21
175.257220
0
LINE
8
annotation
62
1
39
211
10
67.363497
20
175.257220
11
67.401407
21
175.229214
0
LINE
8
annotation
62
1
39
211
10
67.401407
20
175.229214
11
67.441561
21
175.203868
0
LINE
8
annotation
62
1
39
211
10
67.441561
20
175.203868
11
67.483852
21
175.181300
0
LINE
8
annotation
62
1
39
211
10
72.691848
20
193.875488
11
72.691848
21
198.675488
0
LINE
8
annotation
62
1
39
211
10
72.691848
20
198.675488
11
71.624746
21
197.608086
0
LINE
8
annotation
62
1
39
211
10
75.558949
20
193.875488
11
75.558949
21
198.675488
0
LINE
8
annotation
62
1
39
211
10
75.558949
20
198.675488
11
74.491848
21
197.608086
0
LINE
8
annotation
62
1
39
211
10
79.209719
20
212.848067
11
79.209719
21
217.456417
0
LINE
8
annotation
62
1
39
211
10
79.209719
20
217.456417
11
78.185224
21
216.431633
0
LINE
8
annotation
62
1
39
211
10
82.984732
20
212.848030
11
80.938053
21
212.848030
0
LINE
8
annotation
62
1
39
211
10
80.938053
20
212.848030
11
82.829251
21
215.892615
0
LINE
8
annotation
62
1
39
211
10
82.829251
20
215.892615
11
82.829251
21
215.892615
0
LINE
8
annotation
62
1
39
211
10
82.829251
20
215.892615
11
82.831512
21
215.895413
0
LINE
8
annotation
62
1
39
211
10
82.831512
20
215.895413
11
82.833680
21
215.898234
0
LINE
8
annotation
62
1
39
211
10
82.833680
20
215.898234
11
82.835770
21
215.901103
0
LINE
8
annotation
62
1
39
211
10
82.835770
20
215.901103
11
82.837795
21
215.904044
0
LINE
8
annotation
62
1
39
211
10
82.837795
20
215.904044
11
82.839770
21
215.907079
0
LINE
8
annotation
62
1
39
211
10
82.839770
20
215.907079
11
82.841710
21
215.910233
0
LINE
8
annotation
62
1
39
211
10
82.841710
20
215.910233
11
82.843628
21
215.913531
0
LINE
8
annotation
62
1
39
211
10
82.843628
20
215.913531
11
82.845540
21
215.916994
0
LINE
8
annotation
62
1
39
211
10
82.845540
20
215.916994
11
82.847458
21
215.920648
0
LINE
8
annotation
62
1
39
211
10
82.847458
20
215.920648
11
82.847458
21
215.920648
0
LINE
8
annotation
62
1
39
211
10
82.847458
20
215.920648
11
82.925545
21
216.088308
0
LINE
8
annotation
62
1
39
211
10
82.925545
20
216.088308
11
82.971162
21
216.262102
0
LINE
8
annotation
62
1
39
211
10
82.971162
20
216.262102
11
82.985427
21
216.438103
0
LINE
8
annotation
62
1
39
211
10
82.985427
20
216.438103
11
82.969458
21
216.612384
0
LINE
8
annotation
62
1
39
211
10
82.969458
20
216.612384
11
82.924373
21
216.781019
0
LINE
8
annotation
62
1
39
211
10
82.924373
20
216.781019
11
82.851290
21
216.940080
0
LINE
8
annotation
62
1
39
211
10
82.851290
20
216.940080
11
82.751326
21
217.085641
0
LINE
8
annotation
62
1
39
211
10
82.751326
20
217.085641
11
82.625600
21
217.213773
0
LINE
8
annotation
62
1
39
211
10
82.625600
20
217.213773
11
82.475230
21
217.320550
0
LINE
8
annotation
62
1
39
211
10
82.475230
20
217.320550
11
82.475230
21
217.320550
0
LINE
8
annotation
62
1
39
211
10
82.475230
20
217.320550
11
82.307104
21
217.397528
0
LINE
8
annotation
62
1
39
211
10
82.307104
20
217.397528
11
82.133043
21
217.442442
0
LINE
8
annotation
62
1
39
211
10
82.133043
20
217.442442
11
81.956940
21
217.456304
0
LINE
8
annotation
62
1
39
211
10
81.956940
20
217.456304
11
81.782684
21
217.440125
0
LINE
8
annotation
62
1
39
211
10
81.782684
20
217.440125
11
81.614169
21
217.394915
0
LINE
8
annotation
62
1
39
211
10
81.614169
20
217.394915
11
81.455284
21
217.321685
0
LINE
8
annotation
62
1
39
211
10
81.455284
20
217.321685
11
81.309921
21
217.221447
0
LINE
8
annotation
62
1
39
211
10
81.309921
20
217.221447
11
81.181971
21
217.095210
0
LINE
8
annotation
62
1
39
211
10
81.181971
20
217.095210
11
81.075327
21
216.943987
0
LINE
8
annotation
62
1
39
211
10
81.075327
20
216.943987
11
80.940943
21
216.686202
0
LINE
8
annotation
62
1
39
211
10
86.115633
20
231.724487
11
86.115633
21
236.333504
0
LINE
8
annotation
62
1
39
211
10
86.115633
20
236.333504
11
85.090989
21
235.308572
0
LINE
8
annotation
62
1
39
211
10
87.843870
20
231.724632
11
88.867357
21
231.724632
0
LINE
8
annotation
62
1
39
211
10
88.867357
20
231.724632
11
88.867357
21
231.724632
0
LINE
8
annotation
62
1
39
211
10
88.867357
20
231.724632
11
89.051434
21
231.741144
0
LINE
8
annotation
62
1
39
211
10
89.051434
20
231.741144
11
89.224644
21
231.788736
0
LINE
8
annotation
62
1
39
211
10
89.224644
20
231.788736
11
89.384106
21
231.864484
0
LINE
8
annotation
62
1
39
211
10
89.384106
20
231.864484
11
89.526939
21
231.965467
0
LINE
8
annotation
62
1
39
211
10
89.526939
20
231.965467
11
89.650263
21
232.088765
0
LINE
8
annotation
62
1
39
211
10
89.650263
20
232.088765
11
89.751196
21
232.231456
0
LINE
8
annotation
62
1
39
211
10
89.751196
20
232.231456
11
89.826858
21
232.390619
0
LINE
8
annotation
62
1
39
211
10
89.826858
20
232.390619
11
89.874368
21
232.563332
0
LINE
8
annotation
62
1
39
211
10
89.874368
20
232.563332
11
89.890845
21
232.746674
0
LINE
8
annotation
62
1
39
211
10
89.890845
20
232.746674
11
89.890845
21
233.259140
0
LINE
8
annotation
62
1
39
211
10
89.890845
20
233.259140
11
89.890845
21
233.259140
0
LINE
8
annotation
62
1
39
211
10
89.890845
20
233.259140
11
89.874368
21
233.442406
0
LINE
8
annotation
62
1
39
211
10
89.874368
20
233.442406
11
89.826858
21
233.615078
0
LINE
8
annotation
62
1
39
211
10
89.826858
20
233.615078
11
89.751196
21
233.774229
0
LINE
8
annotation
62
1
39
211
10
89.751196
20
233.774229
11
89.650263
21
233.916930
0
LINE
8
annotation
62
1
39
211
10
89.650263
20
233.916930
11
89.526939
21
234.040251
0
LINE
8
annotation
62
1
39
211
10
89.526939
20
234.040251
11
89.384106
21
234.141266
0
LINE
8
annotation
62
1
39
211
10
89.384106
20
234.141266
11
89.224644
21
234.217045
0
LINE
8
annotation
62
1
39
211
10
89.224644
20
234.217045
11
89.051434
21
234.264660
0
LINE
8
annotation
62
1
39
211
10
89.051434
20
234.264660
11
88.867357
21
234.281182
0
LINE
8
annotation
62
1
39
211
10
88.867357
20
234.281182
11
88.354891
21
234.281182
0
LINE
8
annotation
62
1
39
211
10
88.354891
20
234.281182
11
88.867357
21
234.281182
0
LINE
8
annotation
62
1
39
211
10
88.867357
20
234.281182
11
88.867357
21
234.281182
0
LINE
8
annotation
62
1
39
211
10
88.867357
20
234.281182
11
89.051434
21
234.297709
0
LINE
8
annotation
62
1
39
211
10
89.051434
20
234.297709
11
89.224644
21
234.345351
0
LINE
8
annotation
62
1
39
211
10
89.224644
20
234.345351
11
89.384106
21
234.421206
0
LINE
8
annotation
62
1
39
211
10
89.384106
20
234.421206
11
89.526939
21
234.522367
0
LINE
8
annotation
62
1
39
211
10
89.526939
20
234.522367
11
89.650263
21
234.645931
0
LINE
8
annotation
62
1
39
211
10
89.650263
20
234.645931
11
89.751196
21
234.788992
0
LINE
8
annotation
62
1
39
211
10
89.751196
20
234.788992
11
89.826858
21
234.948646
0
LINE
8
annotation
62
1
39
211
10
89.826858
20
234.948646
11
89.874368
21
235.121989
0
LINE
8
annotation
62
1
39
211
10
89.874368
20
235.121989
11
89.890845
21
235.306115
0
LINE
8
annotation
62
1
39
211
10
89.890845
20
235.306115
11
89.890845
21
235.306115
0
LINE
8
annotation
62
1
39
211
10
89.890845
20
235.306115
11
89.874368
21
235.489381
0
LINE
8
annotation
62
1
39
211
10
89.874368
20
235.489381
11
89.826858
21
235.662053
0
LINE
8
annotation
62
1
39
211
10
89.826858
20
235.662053
11
89.751196
21
235.821204
0
LINE
8
annotation
62
1
39
211
10
89.751196
20
235.821204
11
89.650263
21
235.963904
0
LINE
8
annotation
62
1
39
211
10
89.650263
20
235.963904
11
89.526939
21
236.087226
0
LINE
8
annotation
62
1
39
211
10
89.526939
20
236.087226
11
89.384106
21
236.188241
0
LINE
8
annotation
62
1
39
211
10
89.384106
20
236.188241
11
89.224644
21
236.264020
0
LINE
8
annotation
62
1
39
211
10
89.224644
20
236.264020
11
89.051434
21
236.311635
0
LINE
8
annotation
62
1
39
211
10
89.051434
20
236.311635
11
88.867357
21
236.328157
0
LINE
8
annotation
62
1
39
211
10
88.867357
20
236.328157
11
87.843870
21
236.328157
0
LINE
8
annotation
62
1
39
211
10
92.885804
20
250.823432
11
92.885804
21
254.988067
0
LINE
8
annotation
62
1
39
211
10
92.885804
20
254.988067
11
91.959952
21
254.061954
0
LINE
8
annotation
62
1
39
211
10
96.759822
20
251.749283
11
94.447412
21
251.749283
0
LINE
8
annotation
62
1
39
211
10
94.447412
20
251.749283
11
95.370913
21
254.988067
0
LINE
8
annotation
62
1
39
211
10
96.066673
20
250.823432
11
96.066673
21
252.673046
0
LINE
8
annotation
62
1
39
211
10
99.718847
20
269.477995
11
99.718847
21
274.087012
0
LINE
8
annotation
62
1
39
211
10
99.718847
20
274.087012
11
98.694204
21
273.062079
0
LINE
8
annotation
62
1
39
211
10
101.447084
20
269.477995
11
102.470572
21
269.477995
0
LINE
8
annotation
62
1
39
211
10
102.470572
20
269.477995
11
102.470572
21
269.477995
0
LINE
8
annotation
62
1
39
211
10
102.470572
20
269.477995
11
102.654268
21
269.494511
0
LINE
8
annotation
62
1
39
211
10
102.654268
20
269.494511
11
102.827275
21
269.542127
0
LINE
8
annotation
62
1
39
211
10
102.827275
20
269.542127
11
102.986678
21
269.617943
0
LINE
8
annotation
62
1
39
211
10
102.986678
20
269.617943
11
103.129559
21
269.719059
0
LINE
8
annotation
62
1
39
211
10
103.129559
20
269.719059
11
103.253001
21
269.842574
0
LINE
8
annotation
62
1
39
211
10
103.253001
20
269.842574
11
103.354089
21
269.985590
0
LINE
8
annotation
62
1
39
211
10
103.354089
20
269.985590
11
103.429906
21
270.145206
0
LINE
8
annotation
62
1
39
211
10
103.429906
20
270.145206
11
103.477535
21
270.318522
0
LINE
8
annotation
62
1
39
211
10
103.477535
20
270.318522
11
103.494059
21
270.502638
0
LINE
8
annotation
62
1
39
211
10
103.494059
20
270.502638
11
103.494059
21
271.012503
0
LINE
8
annotation
62
1
39
211
10
103.494059
20
271.012503
11
103.494059
21
271.012503
0
LINE
8
annotation
62
1
39
211
10
103.494059
20
271.012503
11
103.477544
21
271.196530
0
LINE
8
annotation
62
1
39
211
10
103.477544
20
271.196530
11
103.429939
21
271.369607
0
LINE
8
annotation
62
1
39
211
10
103.429939
20
271.369607
11
103.354153
21
271.528877
0
LINE
8
annotation
62
1
39
211
10
103.354153
20
271.528877
11
103.253096
21
271.671482
0
LINE
8
annotation
62
1
39
211
10
103.253096
20
271.671482
11
103.129678
21
271.794566
0
LINE
8
annotation
62
1
39
211
10
103.129678
20
271.794566
11
102.986806
21
271.895271
0
LINE
8
annotation
62
1
39
211
10
102.986806
20
271.895271
11
102.827392
21
271.970741
0
LINE
8
annotation
62
1
39
211
10
102.827392
20
271.970741
11
102.654344
21
272.018118
0
LINE
8
annotation
62
1
39
211
10
102.654344
20
272.018118
11
102.470572
21
272.034545
0
LINE
8
annotation
62
1
39
211
10
102.470572
20
272.034545
11
101.447084
21
272.034545
0
LINE
8
annotation
62
1
39
211
10
101.447084
20
272.034545
11
101.447084
21
274.087012
0
LINE
8
annotation
62
1
39
211
10
101.447084
20
274.087012
11
103.494059
21
274.087012
0
LINE
8
annotation
62
1
39
211
10
106.139667
20
288.354748
11
106.139667
21
292.963766
0
LINE
8
annotation
62
1
39
211
10
106.139667
20
292.963766
11
105.115023
21
291.938833
0
LINE
8
annotation
62
1
39
211
10
109.405303
20
292.963766
11
109.405303
21
292.963766
0
LINE
8
annotation
62
1
39
211
10
109.405303
20
292.963766
11
109.112100
21
292.853832
0
LINE
8
annotation
62
1
39
211
10
109.112100
20
292.853832
11
108.843047
21
292.705710
0
LINE
8
annotation
62
1
39
211
10
108.843047
20
292.705710
11
108.600907
21
292.523110
0
LINE
8
annotation
62
1
39
211
10
108.600907
20
292.523110
11
108.388442
21
292.309743
0
LINE
8
annotation
62
1
39
211
10
108.388442
20
292.309743
11
108.208413
21
292.069321
0
LINE
8
annotation
62
1
39
211
10
108.208413
20
292.069321
11
108.063583
21
291.805554
0
LINE
8
annotation
62
1
39
211
10
108.063583
20
291.805554
11
107.956714
21
291.522154
0
LINE
8
annotation
62
1
39
211
10
107.956714
20
291.522154
11
107.890567
21
291.222832
0
LINE
8
annotation
62
1
39
211
10
107.890567
20
291.222832
11
107.867904
21
290.911299
0
LINE
8
annotation
62
1
39
211
10
107.867904
20
290.911299
11
107.867904
21
289.379392
0
LINE
8
annotation
62
1
39
211
10
107.867904
20
289.379392
11
107.867904
21
289.379392
0
LINE
8
annotation
62
1
39
211
10
107.867904
20
289.379392
11
107.884428
21
289.195276
0
LINE
8
annotation
62
1
39
211
10
107.884428
20
289.195276
11
107.932057
21
289.021960
0
LINE
8
annotation
62
1
39
211
10
107.932057
20
289.021960
11
108.007874
21
288.862344
0
LINE
8
annotation
62
1
39
211
10
108.007874
20
288.862344
11
108.108962
21
288.719328
0
LINE
8
annotation
62
1
39
211
10
108.108962
20
288.719328
11
108.232405
21
288.595813
0
LINE
8
annotation
62
1
39
211
10
108.232405
20
288.595813
11
108.375285
21
288.494697
0
LINE
8
annotation
62
1
39
211
10
108.375285
20
288.494697
11
108.534688
21
288.418881
0
LINE
8
annotation
62
1
39
211
10
108.534688
20
288.418881
11
108.707695
21
288.371265
0
LINE
8
annotation
62
1
39
211
10
108.707695
20
288.371265
11
108.891391
21
288.354748
0
LINE
8
annotation
62
1
39
211
10
108.891391
20
288.354748
11
108.891391
21
288.354748
0
LINE
8
annotation
62
1
39
211
10
108.891391
20
288.354748
11
109.075468
21
288.371265
0
LINE
8
annotation
62
1
39
211
10
109.075468
20
288.371265
11
109.248678
21
288.418881
0
LINE
8
annotation
62
1
39
211
10
109.248678
20
288.418881
11
109.408140
21
288.494697
0
LINE
8
annotation
62
1
39
211
10
109.408140
20
288.494697
11
109.550973
21
288.595813
0
LINE
8
annotation
62
1
39
211
10
109.550973
20
288.595813
11
109.674297
21
288.719328
0
LINE
8
annotation
62
1
39
211
10
109.674297
20
288.719328
11
109.775230
21
288.862344
0
LINE
8
annotation
62
1
39
211
10
109.775230
20
288.862344
11
109.850892
21
289.021960
0
LINE
8
annotation
62
1
39
211
10
109.850892
20
289.021960
11
109.898402
21
289.195276
0
LINE
8
annotation
62
1
39
211
10
109.898402
20
289.195276
11
109.914879
21
289.379392
0
LINE
8
annotation
62
1
39
211
10
109.914879
20
289.379392
11
109.914879
21
289.889257
0
LINE
8
annotation
62
1
39
211
10
109.914879
20
289.889257
11
109.914879
21
289.889257
0
LINE
8
annotation
62
1
39
211
10
109.914879
20
289.889257
11
109.898402
21
290.073284
0
LINE
8
annotation
62
1
39
211
10
109.898402
20
290.073284
11
109.850892
21
290.246361
0
LINE
8
annotation
62
1
39
211
10
109.850892
20
290.246361
11
109.775230
21
290.405631
0
LINE
8
annotation
62
1
39
211
10
109.775230
20
290.405631
11
109.674297
21
290.548236
0
LINE
8
annotation
62
1
39
211
10
109.674297
20
290.548236
11
109.550973
21
290.671320
0
LINE
8
annotation
62
1
39
211
10
109.550973
20
290.671320
11
109.408140
21
290.772025
0
LINE
8
annotation
62
1
39
211
10
109.408140
20
290.772025
11
109.248678
21
290.847495
0
LINE
8
annotation
62
1
39
211
10
109.248678
20
290.847495
11
109.075468
21
290.894872
0
LINE
8
annotation
62
1
39
211
10
109.075468
20
290.894872
11
108.891391
21
290.911299
0
LINE
8
annotation
62
1
39
211
10
108.891391
20
290.911299
11
107.867904
21
290.911299
0
LINE
8
annotation
62
1
39
211
10
107.739715
20
287.778621
11
110.044224
21
287.778621
0
LINE
8
annotation
62
1
39
211
10
111.310757
20
307.232750
11
111.310757
21
311.839271
0
LINE
8
annotation
62
1
39
211
10
111.310757
20
311.839271
11
110.286668
21
310.814894
0
LINE
8
annotation
62
1
39
211
10
114.062291
20
307.232750
11
115.086380
21
311.839271
0
LINE
8
annotation
62
1
39
211
10
115.086380
20
311.839271
11
113.037913
21
311.839271
0
LINE
8
annotation
62
1
39
211
10
115.086380
20
309.787916
11
114.062291
21
309.787916
0
LINE
8
annotation
62
1
39
211
10
93.271135
20
285.830100
11
91.358405
21
283.063511
0
LINE
8
annotation
62
1
39
211
10
91.358405
20
283.063511
11
89.445315
21
285.830100
0
LINE
8
annotation
62
1
39
211
10
91.358405
20
283.286147
11
91.358405
21
280.094427
0
LINE
8
annotation
62
1
39
211
10
98.558569
20
282.962264
11
95.422597
21
282.962264
0
LINE
8
annotation
62
1
39
211
10
101.983986
20
280.094607
11
101.983986
21
285.829921
0
LINE
8
annotation
62
1
39
211
10
101.983986
20
285.829921
11
100.708952
21
284.554527
0
LINE
8
annotation
62
1
39
211
10
104.134549
20
281.366224
11
104.134549
21
281.366224
0
LINE
8
annotation
62
1
39
211
10
104.134549
20
281.366224
11
104.155111
21
281.137226
0
LINE
8
annotation
62
1
39
211
10
104.155111
20
281.137226
11
104.214379
21
280.921855
0
LINE
8
annotation
62
1
39
211
10
104.214379
20
280.921855
11
104.308723
21
280.723665
0
LINE
8
annotation
62
1
39
211
10
104.308723
20
280.723665
11
104.434513
21
280.546211
0
LINE
8
annotation
62
1
39
211
10
104.434513
20
280.546211
11
104.588121
21
280.393050
0
LINE
8
annotation
62
1
39
211
10
104.588121
20
280.393050
11
104.765918
21
280.267735
0
LINE
8
annotation
62
1
39
211
10
104.765918
20
280.267735
11
104.964273
21
280.173823
0
LINE
8
annotation
62
1
39
211
10
104.964273
20
280.173823
11
105.179558
21
280.114868
0
LINE
8
annotation
62
1
39
211
10
105.179558
20
280.114868
11
105.408144
21
280.094427
0
LINE
8
annotation
62
1
39
211
10
105.408144
20
280.094427
11
105.408144
21
280.094427
0
LINE
8
annotation
62
1
39
211
10
105.408144
20
280.094427
11
105.636729
21
280.114868
0
LINE
8
annotation
62
1
39
211
10
105.636729
20
280.114868
11
105.852014
21
280.173823
0
LINE
8
annotation
62
1
39
211
10
105.852014
20
280.173823
11
106.050369
21
280.267735
0
LINE
8
annotation
62
1
39
211
10
106.050369
20
280.267735
11
106.228166
21
280.393050
0
LINE
8
annotation
62
1
39
211
10
106.228166
20
280.393050
11
106.381774
21
280.546211
0
LINE
8
annotation
62
1
39
211
10
106.381774
20
280.546211
11
106.507565
21
280.723665
0
LINE
8
annotation
62
1
39
211
10
106.507565
20
280.723665
11
106.601908
21
280.921855
0
LINE
8
annotation
62
1
39
211
10
106.601908
20
280.921855
11
106.661176
21
281.137226
0
LINE
8
annotation
62
1
39
211
10
106.661176
20
281.137226
11
106.681739
21
281.366224
0
LINE
8
annotation
62
1
39
211
10
106.681739
20
281.366224
11
106.681739
21
282.000683
0
LINE
8
annotation
62
1
39
211
10
106.681739
20
282.000683
11
106.681739
21
282.000683
0
LINE
8
annotation
62
1
39
211
10
106.681739
20
282.000683
11
106.661188
21
282.229792
0
LINE
8
annotation
62
1
39
211
10
106.661188
20
282.229792
11
106.601950
21
282.445461
0
LINE
8
annotation
62
1
39
211
10
106.601950
20
282.445461
11
106.507644
21
282.644081
0
LINE
8
annotation
62
1
39
211
10
106.507644
20
282.644081
11
106.381892
21
282.822046
0
LINE
8
annotation
62
1
39
211
10
106.381892
20
282.822046
11
106.228314
21
282.975744
0
LINE
8
annotation
62
1
39
211
10
106.228314
20
282.975744
11
106.050529
21
283.101570
0
LINE
8
annotation
62
1
39
211
10
106.050529
20
283.101570
11
105.852159
21
283.195912
0
LINE
8
annotation
62
1
39
211
10
105.852159
20
283.195912
11
105.636824
21
283.255164
0
LINE
8
annotation
62
1
39
211
10
105.636824
20
283.255164
11
105.408144
21
283.275717
0
LINE
8
annotation
62
1
39
211
10
105.408144
20
283.275717
11
105.408144
21
283.275717
0
LINE
8
annotation
62
1
39
211
10
105.408144
20
283.275717
11
105.179463
21
283.255153
0
LINE
8
annotation
62
1
39
211
10
105.179463
20
283.255153
11
104.964128
21
283.195871
0
LINE
8
annotation
62
1
39
211
10
104.964128
20
283.195871
11
104.765758
21
283.101490
0
LINE
8
annotation
62
1
39
211
10
104.765758
20
283.101490
11
104.587973
21
282.975626
0
LINE
8
annotation
62
1
39
211
10
104.587973
20
282.975626
11
104.434395
21
282.821898
0
LINE
8
annotation
62
1
39
211
10
104.434395
20
282.821898
11
104.308643
21
282.643922
0
LINE
8
annotation
62
1
39
211
10
104.308643
20
282.643922
11
104.214337
21
282.445316
0
LINE
8
annotation
62
1
39
211
10
104.214337
20
282.445316
11
104.155099
21
282.229697
0
LINE
8
annotation
62
1
39
211
10
104.155099
20
282.229697
11
104.134549
21
282.000683
0
LINE
8
annotation
62
1
39
211
10
104.134549
20
282.000683
11
104.134549
21
281.366224
0
LINE
8
annotation
62
1
39
211
10
106.681739
20
284.551110
11
106.681739
21
284.551110
0
LINE
8
annotation
62
1
39
211
10
106.681739
20
284.551110
11
106.661188
21
284.779161
0
LINE
8
annotation
62
1
39
211
10
106.661188
20
284.779161
11
106.601950
21
284.994029
0
LINE
8
annotation
62
1
39
211
10
106.601950
20
284.994029
11
106.507644
21
285.192071
0
LINE
8
annotation
62
1
39
211
10
106.507644
20
285.192071
11
106.381892
21
285.369643
0
LINE
8
annotation
62
1
39
211
10
106.381892
20
285.369643
11
106.228314
21
285.523100
0
LINE
8
annotation
62
1
39
211
10
106.228314
20
285.523100
11
106.050529
21
285.648800
0
LINE
8
annotation
62
1
39
211
10
106.050529
20
285.648800
11
105.852159
21
285.743097
0
LINE
8
annotation
62
1
39
211
10
105.852159
20
285.743097
11
105.636824
21
285.802347
0
LINE
8
annotation
62
1
39
211
10
105.636824
20
285.802347
11
105.408144
21
285.822907
0
LINE
8
annotation
62
1
39
211
10
105.408144
20
285.822907
11
105.408144
21
285.822907
0
LINE
8
annotation
62
1
39
211
10
105.408144
20
285.822907
11
105.179463
21
285.802347
0
LINE
8
annotation
62
1
39
211
10
105.179463
20
285.802347
11
104.964128
21
285.743097
0
LINE
8
annotation
62
1
39
211
10
104.964128
20
285.743097
11
104.765758
21
285.648800
0
LINE
8
annotation
62
1
39
211
10
104.765758
20
285.648800
11
104.587973
21
285.523100
0
LINE
8
annotation
62
1
39
211
10
104.587973
20
285.523100
11
104.434395
21
285.369643
0
LINE
8
annotation
62
1
39
211
10
104.434395
20
285.369643
11
104.308643
21
285.192071
0
LINE
8
annotation
62
1
39
211
10
104.308643
20
285.192071
11
104.214337
21
284.994029
0
LINE
8
annotation
62
1
39
211
10
104.214337
20
284.994029
11
104.155099
21
284.779161
0
LINE
8
annotation
62
1
39
211
10
104.155099
20
284.779161
11
104.134549
21
284.551110
0
LINE
8
annotation
62
1
39
211
10
104.134549
20
284.551110
11
104.134549
21
284.551110
0
LINE
8
annotation
62
1
39
211
10
104.134549
20
284.551110
11
104.155111
21
284.321990
0
LINE
8
annotation
62
1
39
211
10
104.155111
20
284.321990
11
104.214379
21
284.106288
0
LINE
8
annotation
62
1
39
211
10
104.214379
20
284.106288
11
104.308723
21
283.907619
0
LINE
8
annotation
62
1
39
211
10
104.308723
20
283.907619
11
104.434513
21
283.729598
0
LINE
8
annotation
62
1
39
211
10
104.434513
20
283.729598
11
104.588121
21
283.575839
0
LINE
8
annotation
62
1
39
211
10
104.588121
20
283.575839
11
104.765918
21
283.449958
0
LINE
8
annotation
62
1
39
211
10
104.765918
20
283.449958
11
104.964273
21
283.355567
0
LINE
8
annotation
62
1
39
211
10
104.964273
20
283.355567
11
105.179558
21
283.296282
0
LINE
8
annotation
62
1
39
211
10
105.179558
20
283.296282
11
105.408144
21
283.275717
0
LINE
8
annotation
62
1
39
211
10
105.408144
20
283.275717
11
105.408144
21
283.275717
0
LINE
8
annotation
62
1
39
211
10
105.408144
20
283.275717
11
105.636729
21
283.296282
0
LINE
8
annotation
62
1
39
211
10
105.636729
20
283.296282
11
105.852014
21
283.355567
0
LINE
8
annotation
62
1
39
211
10
105.852014
20
283.355567
11
106.050369
21
283.449958
0
LINE
8
annotation
62
1
39
211
10
106.050369
20
283.449958
11
106.228166
21
283.575839
0
LINE
8
annotation
62
1
39
211
10
106.228166
20
283.575839
11
106.381774
21
283.729598
0
LINE
8
annotation
62
1
39
211
10
106.381774
20
283.729598
11
106.507565
21
283.907619
0
LINE
8
annotation
62
1
39
211
10
106.507565
20
283.907619
11
106.601908
21
284.106288
0
LINE
8
annotation
62
1
39
211
10
106.601908
20
284.106288
11
106.661176
21
284.321990
0
LINE
8
annotation
62
1
39
211
10
106.661176
20
284.321990
11
106.681739
21
284.551110
0
LINE
8
boundary
62
5
39
2
10
139.045535
20
10.481366
11
140.120323
21
11.337229
0
LINE
8
boundary
62
5
39
2
10
140.120323
20
11.337229
11
141.038380
21
12.135891
0
LINE
8
boundary
62
5
39
2
10
141.038380
20
12.135891
11
141.469297
21
12.518314
0
LINE
8
boundary
62
5
39
2
10
141.469297
20
12.518314
11
142.679790
21
13.702357
0
LINE
8
boundary
62
5
39
2
10
142.679790
20
13.702357
11
143.882163
21
14.993140
0
LINE
8
boundary
62
5
39
2
10
143.882163
20
14.993140
11
144.468283
21
15.680796
0
LINE
8
boundary
62
5
39
2
10
144.468283
20
15.680796
11
145.070845
21
16.389912
0
LINE
8
boundary
62
5
39
2
10
145.070845
20
16.389912
11
145.937924
21
17.502458
0
LINE
8
boundary
62
5
39
2
10
145.937924
20
17.502458
11
147.335896
21
19.429144
0
LINE
8
boundary
62
5
39
2
10
147.335896
20
19.429144
11
148.496147
21
21.205195
0
LINE
8
boundary
62
5
39
2
10
148.496147
20
21.205195
11
148.822500
21
21.751525
0
LINE
8
boundary
62
5
39
2
10
148.822500
20
21.751525
11
149.571050
21
23.012324
0
LINE
8
boundary
62
5
39
2
10
149.571050
20
23.012324
11
150.204263
21
24.177523
0
LINE
8
boundary
62
5
39
2
10
150.204263
20
24.177523
11
150.603730
21
24.917331
0
LINE
8
boundary
62
5
39
2
10
150.603730
20
24.917331
11
151.528250
21
26.795147
0
LINE
8
boundary
62
5
39
2
10
151.528250
20
26.795147
11
152.390005
21
28.720015
0
LINE
8
boundary
62
5
39
2
10
152.390005
20
28.720015
11
152.696198
21
29.452423
0
LINE
8
boundary
62
5
39
2
10
152.696198
20
29.452423
11
153.175970
21
30.635968
0
LINE
8
boundary
62
5
39
2
10
153.175970
20
30.635968
11
153.390029
21
31.212287
0
LINE
8
boundary
62
5
39
2
10
153.390029
20
31.212287
11
153.802556
21
32.311143
0
LINE
8
boundary
62
5
39
2
10
153.802556
20
32.311143
11
154.168234
21
33.367861
0
LINE
8
boundary
62
5
39
2
10
154.168234
20
33.367861
11
154.347815
21
33.886943
0
LINE
8
boundary
62
5
39
2
10
154.347815
20
33.886943
11
154.791301
21
35.258481
0
LINE
8
boundary
62
5
39
2
10
154.791301
20
35.258481
11
154.963500
21
35.789528
0
LINE
8
boundary
62
5
39
2
10
154.963500
20
35.789528
11
155.220309
21
36.654394
0
LINE
8
boundary
62
5
39
2
10
155.220309
20
36.654394
11
155.501669
21
37.589795
0
LINE
8
boundary
62
5
39
2
10
155.501669
20
37.589795
11
156.014080
21
39.429243
0
LINE
8
boundary
62
5
39
2
10
156.014080
20
39.429243
11
156.415947
21
40.977232
0
LINE
8
boundary
62
5
39
2
10
156.415947
20
40.977232
11
156.780918
21
42.455374
0
LINE
8
boundary
62
5
39
2
10
156.780918
20
42.455374
11
156.964952
21
43.203341
0
LINE
8
boundary
62
5
39
2
10
156.964952
20
43.203341
11
157.135183
21
43.954833
0
LINE
8
boundary
62
5
39
2
10
157.135183
20
43.954833
11
157.407986
21
45.140171
0
LINE
8
boundary
62
5
39
2
10
157.407986
20
45.140171
11
157.740642
21
46.687201
0
LINE
8
boundary
62
5
39
2
10
157.740642
20
46.687201
11
158.125873
21
48.560268
0
LINE
8
boundary
62
5
39
2
10
158.125873
20
48.560268
11
158.236324
21
49.095381
0
LINE
8
boundary
62
5
39
2
10
158.236324
20
49.095381
11
158.433105
21
50.125491
0
LINE
8
boundary
62
5
39
2
10
158.433105
20
50.125491
11
158.625275
21
51.112527
0
LINE
8
boundary
62
5
39
2
10
158.625275
20
51.112527
11
158.733203
21
51.709877
0
LINE
8
boundary
62
5
39
2
10
158.733203
20
51.709877
11
158.999780
21
53.157045
0
LINE
8
boundary
62
5
39
2
10
158.999780
20
53.157045
11
159.125455
21
53.878803
0
LINE
8
boundary
62
5
39
2
10
159.125455
20
53.878803
11
159.308188
21
54.922496
0
LINE
8
boundary
62
5
39
2
10
159.308188
20
54.922496
11
159.582060
21
56.541638
0
LINE
8
boundary
62
5
39
2
10
159.582060
20
56.541638
11
159.712219
21
57.304159
0
LINE
8
boundary
62
5
39
2
10
159.712219
20
57.304159
11
159.851912
21
58.178421
0
LINE
8
boundary
62
5
39
2
10
159.851912
20
58.178421
11
160.053530
21
59.412265
0
LINE
8
boundary
62
5
39
2
10
160.053530
20
59.412265
11
160.139827
21
59.979883
0
LINE
8
boundary
62
5
39
2
10
160.139827
20
59.979883
11
160.355113
21
61.361133
0
LINE
8
boundary
62
5
39
2
10
160.355113
20
61.361133
11
160.491661
21
62.235305
0
LINE
8
boundary
62
5
39
2
10
160.491661
20
62.235305
11
160.832542
21
64.494531
0
LINE
8
boundary
62
5
39
2
10
160.832542
20
64.494531
11
161.039592
21
65.847415
0
LINE
8
boundary
62
5
39
2
10
161.039592
20
65.847415
11
161.174910
21
66.789834
0
LINE
8
boundary
62
5
39
2
10
161.174910
20
66.789834
11
161.515125
21
69.098157
0
LINE
8
boundary
62
5
39
2
10
161.515125
20
69.098157
11
161.852306
21
71.436484
0
LINE
8
boundary
62
5
39
2
10
161.852306
20
71.436484
11
162.002087
21
72.448800
0
LINE
8
boundary
62
5
39
2
10
162.002087
20
72.448800
11
162.192204
21
73.786733
0
LINE
8
boundary
62
5
39
2
10
162.192204
20
73.786733
11
162.487077
21
75.812598
0
LINE
8
boundary
62
5
39
2
10
162.487077
20
75.812598
11
162.667037
21
77.064207
0
LINE
8
boundary
62
5
39
2
10
162.667037
20
77.064207
11
162.885320
21
78.567326
0
LINE
8
boundary
62
5
39
2
10
162.885320
20
78.567326
11
162.981457
21
79.215038
0
LINE
8
boundary
62
5
39
2
10
162.981457
20
79.215038
11
163.238397
21
80.974828
0
LINE
8
boundary
62
5
39
2
10
163.238397
20
80.974828
11
163.489166
21
82.661338
0
LINE
8
boundary
62
5
39
2
10
163.489166
20
82.661338
11
163.602055
21
83.423373
0
LINE
8
boundary
62
5
39
2
10
163.602055
20
83.423373
11
163.884523
21
85.303114
0
LINE
8
boundary
62
5
39
2
10
163.884523
20
85.303114
11
163.974535
21
85.900336
0
LINE
8
boundary
62
5
39
2
10
163.974535
20
85.900336
11
164.354291
21
88.371643
0
LINE
8
boundary
62
5
39
2
10
164.354291
20
88.371643
11
164.559792
21
89.695605
0
LINE
8
boundary
62
5
39
2
10
164.559792
20
89.695605
11
164.748053
21
90.887397
0
LINE
8
boundary
62
5
39
2
10
164.748053
20
90.887397
11
165.129677
21
93.292112
0
LINE
8
boundary
62
5
39
2
10
165.129677
20
93.292112
11
165.219582
21
93.842936
0
LINE
8
boundary
62
5
39
2
10
165.219582
20
93.842936
11
165.573946
21
96.007034
0
LINE
8
boundary
62
5
39
2
10
165.573946
20
96.007034
11
165.726816
21
96.941850
0
LINE
8
boundary
62
5
39
2
10
165.726816
20
96.941850
11
166.007537
21
98.602640
0
LINE
8
boundary
62
5
39
2
10
166.007537
20
98.602640
11
166.352381
21
100.655537
0
LINE
8
boundary
62
5
39
2
10
166.352381
20
100.655537
11
166.456366
21
101.252469
0
LINE
8
boundary
62
5
39
2
10
166.456366
20
101.252469
11
166.713351
21
102.742846
0
LINE
8
boundary
62
5
39
2
10
166.713351
20
102.742846
11
166.918342
21
103.929473
0
LINE
8
boundary
62
5
39
2
10
166.918342
20
103.929473
11
167.005030
21
104.437047
0
LINE
8
boundary
62
5
39
2
10
167.005030
20
104.437047
11
167.393289
21
106.627173
0
LINE
8
boundary
62
5
39
2
10
167.393289
20
106.627173
11
167.683736
21
108.289850
0
LINE
8
boundary
62
5
39
2
10
167.683736
20
108.289850
11
167.882938
21
109.385790
0
LINE
8
boundary
62
5
39
2
10
167.882938
20
109.385790
11
168.381391
21
112.175827
0
LINE
8
boundary
62
5
39
2
10
168.381391
20
112.175827
11
168.901827
21
115.025873
0
LINE
8
boundary
62
5
39
2
10
168.901827
20
115.025873
11
169.116999
21
116.227800
0
LINE
8
boundary
62
5
39
2
10
169.116999
20
116.227800
11
169.431259
21
117.909569
0
LINE
8
boundary
62
5
39
2
10
169.431259
20
117.909569
11
169.871489
21
120.316674
0
LINE
8
boundary
62
5
39
2
10
169.871489
20
120.316674
11
169.975067
21
120.858499
0
LINE
8
boundary
62
5
39
2
10
169.975067
20
120.858499
11
170.237640
21
122.262885
0
LINE
8
boundary
62
5
39
2
10
170.237640
20
122.262885
11
170.531484
21
123.839293
0
LINE
8
boundary
62
5
39
2
10
170.531484
20
123.839293
11
170.649694
21
124.488264
0
LINE
8
boundary
62
5
39
2
10
170.649694
20
124.488264
11
171.101006
21
126.855311
0
LINE
8
boundary
62
5
39
2
10
171.101006
20
126.855311
11
171.452518
21
128.742348
0
LINE
8
boundary
62
5
39
2
10
171.452518
20
128.742348
11
171.685432
21
129.935780
0
LINE
8
boundary
62
5
39
2
10
171.685432
20
129.935780
11
172.284595
21
133.077349
0
LINE
8
boundary
62
5
39
2
10
172.284595
20
133.077349
11
172.896456
21
136.226328
0
LINE
8
boundary
62
5
39
2
10
172.896456
20
136.226328
11
173.137673
21
137.496641
0
LINE
8
boundary
62
5
39
2
10
173.137673
20
137.496641
11
173.523782
21
139.433666
0
LINE
8
boundary
62
5
39
2
10
173.523782
20
139.433666
11
174.023030
21
141.993926
0
LINE
8
boundary
62
5
39
2
10
174.023030
20
141.993926
11
174.167500
21
142.699626
0
LINE
8
boundary
62
5
39
2
10
174.167500
20
142.699626
11
174.541771
21
144.565988
0
LINE
8
boundary
62
5
39
2
10
174.541771
20
144.565988
11
174.826351
21
145.997825
0
LINE
8
boundary
62
5
39
2
10
174.826351
20
145.997825
11
174.937700
21
146.569950
0
LINE
8
boundary
62
5
39
2
10
174.937700
20
146.569950
11
175.500174
21
149.319077
0
LINE
8
boundary
62
5
39
2
10
175.500174
20
149.319077
11
175.882157
21
151.222605
0
LINE
8
boundary
62
5
39
2
10
175.882157
20
151.222605
11
176.191983
21
152.691681
0
LINE
8
boundary
62
5
39
2
10
176.191983
20
152.691681
11
176.866385
21
155.946214
0
LINE
8
boundary
62
5
39
2
10
176.866385
20
155.946214
11
176.994701
21
156.542396
0
LINE
8
boundary
62
5
39
2
10
176.994701
20
156.542396
11
177.627998
21
159.533084
0
LINE
8
boundary
62
5
39
2
10
177.627998
20
159.533084
11
177.880197
21
160.742940
0
LINE
8
boundary
62
5
39
2
10
177.880197
20
160.742940
11
178.372673
21
162.989552
0
LINE
8
boundary
62
5
39
2
10
178.372673
20
162.989552
11
178.938229
21
165.604806
0
LINE
8
boundary
62
5
39
2
10
178.938229
20
165.604806
11
179.053827
21
166.118733
0
LINE
8
boundary
62
5
39
2
10
179.053827
20
166.118733
11
179.485856
21
168.059065
0
LINE
8
boundary
62
5
39
2
10
179.485856
20
168.059065
11
179.633044
21
168.706460
0
LINE
8
boundary
62
5
39
2
10
179.633044
20
168.706460
11
179.970529
21
170.217210
0
LINE
8
boundary
62
5
39
2
10
179.970529
20
170.217210
11
180.437072
21
172.273912
0
LINE
8
boundary
62
5
39
2
10
180.437072
20
172.273912
11
180.604782
21
173.016050
0
LINE
8
boundary
62
5
39
2
10
180.604782
20
173.016050
11
180.912343
21
174.339318
0
LINE
8
boundary
62
5
39
2
10
180.912343
20
174.339318
11
181.183874
21
175.515880
0
LINE
8
boundary
62
5
39
2
10
181.183874
20
175.515880
11
181.396633
21
176.412865
0
LINE
8
boundary
62
5
39
2
10
181.396633
20
176.412865
11
181.777732
21
178.029269
0
LINE
8
boundary
62
5
39
2
10
181.777732
20
178.029269
11
182.387039
21
180.555858
0
LINE
8
boundary
62
5
39
2
10
182.387039
20
180.555858
11
182.898357
21
182.666582
0
LINE
8
boundary
62
5
39
2
10
182.898357
20
182.666582
11
183.412536
21
184.756116
0
LINE
8
boundary
62
5
39
2
10
183.412536
20
184.756116
11
183.632781
21
185.648857
0
LINE
8
boundary
62
5
39
2
10
183.632781
20
185.648857
11
183.936840
21
186.850468
0
LINE
8
boundary
62
5
39
2
10
183.936840
20
186.850468
11
184.281003
21
188.212832
0
LINE
8
boundary
62
5
39
2
10
184.281003
20
188.212832
11
184.471597
21
188.948997
0
LINE
8
boundary
62
5
39
2
10
184.471597
20
188.948997
11
184.947458
21
190.787983
0
LINE
8
boundary
62
5
39
2
10
184.947458
20
190.787983
11
185.322205
21
192.200113
0
LINE
8
boundary
62
5
39
2
10
185.322205
20
192.200113
11
185.624016
21
193.359900
0
LINE
8
boundary
62
5
39
2
10
185.624016
20
193.359900
11
186.231255
21
195.641811
0
LINE
8
boundary
62
5
39
2
10
186.231255
20
195.641811
11
186.473429
21
196.547331
0
LINE
8
boundary
62
5
39
2
10
186.473429
20
196.547331
11
186.850318
21
197.925052
0
LINE
8
boundary
62
5
39
2
10
186.850318
20
197.925052
11
187.267058
21
199.444300
0
LINE
8
boundary
62
5
39
2
10
187.267058
20
199.444300
11
187.481120
21
200.208881
0
LINE
8
boundary
62
5
39
2
10
187.481120
20
200.208881
11
188.083380
21
202.352198
0
LINE
8
boundary
62
5
39
2
10
188.083380
20
202.352198
11
188.268532
21
202.996838
0
LINE
8
boundary
62
5
39
2
10
188.268532
20
202.996838
11
188.766552
21
204.766931
0
LINE
8
boundary
62
5
39
2
10
188.766552
20
204.766931
11
188.908080
21
205.267739
0
LINE
8
boundary
62
5
39
2
10
188.908080
20
205.267739
11
189.416893
21
207.037221
0
LINE
8
boundary
62
5
39
2
10
189.416893
20
207.037221
11
189.750378
21
208.191037
0
LINE
8
boundary
62
5
39
2
10
189.750378
20
208.191037
11
190.077475
21
209.305219
0
LINE
8
boundary
62
5
39
2
10
190.077475
20
209.305219
11
190.613990
21
211.122179
0
LINE
8
boundary
62
5
39
2
10
190.613990
20
211.122179
11
191.199258
21
213.067115
0
LINE
8
boundary
62
5
39
2
10
191.199258
20
213.067115
11
191.423332
21
213.828288
0
LINE
8
boundary
62
5
39
2
10
191.423332
20
213.828288
11
192.096817
21
216.075126
0
LINE
8
boundary
62
5
39
2
10
192.096817
20
216.075126
11
192.374854
21
216.995138
0
LINE
8
boundary
62
5
39
2
10
192.374854
20
216.995138
11
192.778999
21
218.316940
0
LINE
8
boundary
62
5
39
2
10
192.778999
20
218.316940
11
193.277692
21
219.936068
0
LINE
8
boundary
62
5
39
2
10
193.277692
20
219.936068
11
193.469739
21
220.553197
0
LINE
8
boundary
62
5
39
2
10
193.469739
20
220.553197
11
194.074031
21
222.480053
0
LINE
8
boundary
62
5
39
2
10
194.074031
20
222.480053
11
194.748582
21
224.643920
0
LINE
8
boundary
62
5
39
2
10
194.748582
20
224.643920
11
195.117130
21
225.816196
0
LINE
8
boundary
62
5
39
2
10
195.117130
20
225.816196
11
195.347296
21
226.540509
0
LINE
8
boundary
62
5
39
2
10
195.347296
20
226.540509
11
195.764026
21
227.844189
0
LINE
8
boundary
62
5
39
2
10
195.764026
20
227.844189
11
195.947407
21
228.427466
0
LINE
8
boundary
62
5
39
2
10
195.947407
20
228.427466
11
196.545174
21
230.302197
0
LINE
8
boundary
62
5
39
2
10
196.545174
20
230.302197
11
196.987029
21
231.677129
0
LINE
8
boundary
62
5
39
2
10
196.987029
20
231.677129
11
197.221546
21
232.396123
0
LINE
8
boundary
62
5
39
2
10
197.221546
20
232.396123
11
197.425579
21
233.016195
0
LINE
8
boundary
62
5
39
2
10
197.425579
20
233.016195
11
198.099391
21
235.104527
0
LINE
8
boundary
62
5
39
2
10
198.099391
20
235.104527
11
198.879774
21
237.501845
0
LINE
8
boundary
62
5
39
2
10
198.879774
20
237.501845
11
199.058459
21
238.038449
0
LINE
8
boundary
62
5
39
2
10
199.058459
20
238.038449
11
199.846862
21
240.442696
0
LINE
8
boundary
62
5
39
2
10
199.846862
20
240.442696
11
200.663613
21
242.910096
0
LINE
8
boundary
62
5
39
2
10
200.663613
20
242.910096
11
201.577811
21
245.668033
0
LINE
8
boundary
62
5
39
2
10
201.577811
20
245.668033
11
202.241718
21
247.646158
0
LINE
8
boundary
62
5
39
2
10
202.241718
20
247.646158
11
202.437613
21
248.242560
0
LINE
8
boundary
62
5
39
2
10
202.437613
20
248.242560
11
202.673204
21
248.952621
0
LINE
8
boundary
62
5
39
2
10
202.673204
20
248.952621
11
203.288396
21
250.784418
0
LINE
8
boundary
62
5
39
2
10
203.288396
20
250.784418
11
203.794886
21
252.277033
0
LINE
8
boundary
62
5
39
2
10
203.794886
20
252.277033
11
204.135538
21
253.302989
0
LINE
8
boundary
62
5
39
2
10
204.135538
20
253.302989
11
204.549450
21
254.536446
0
LINE
8
boundary
62
5
39
2
10
204.549450
20
254.536446
11
204.975285
21
255.794203
0
LINE
8
boundary
62
5
39
2
10
204.975285
20
255.794203
11
205.323933
21
256.812971
0
LINE
8
boundary
62
5
39
2
10
205.323933
20
256.812971
11
205.807463
21
258.256832
0
LINE
8
boundary
62
5
39
2
10
205.807463
20
258.256832
11
206.398487
21
260.002288
0
LINE
8
boundary
62
5
39
2
10
206.398487
20
260.002288
11
206.635104
21
260.697200
0
LINE
8
boundary
62
5
39
2
10
206.635104
20
260.697200
11
206.828610
21
261.259227
0
LINE
8
boundary
62
5
39
2
10
206.828610
20
261.259227
11
207.449936
21
263.103304
0
LINE
8
boundary
62
5
39
2
10
207.449936
20
263.103304
11
208.210735
21
265.335651
0
LINE
8
boundary
62
5
39
2
10
208.210735
20
265.335651
11
209.059455
21
267.841927
0
LINE
8
boundary
62
5
39
2
10
209.059455
20
267.841927
11
209.759857
21
269.889618
0
LINE
8
boundary
62
5
39
2
10
209.759857
20
269.889618
11
209.970243
21
270.518830
0
LINE
8
boundary
62
5
39
2
10
209.970243
20
270.518830
11
210.948367
21
273.434238
0
LINE
8
boundary
62
5
39
2
10
210.948367
20
273.434238
11
211.668199
21
275.541888
0
LINE
8
boundary
62
5
39
2
10
211.668199
20
275.541888
11
212.005932
21
276.542097
0
LINE
8
boundary
62
5
39
2
10
212.005932
20
276.542097
11
212.573964
21
278.195063
0
LINE
8
boundary
62
5
39
2
10
212.573964
20
278.195063
11
213.035974
21
279.590956
0
LINE
8
boundary
62
5
39
2
10
213.035974
20
279.590956
11
213.312845
21
280.411807
0
LINE
8
boundary
62
5
39
2
10
213.312845
20
280.411807
11
214.113124
21
282.827028
0
LINE
8
boundary
62
5
39
2
10
214.113124
20
282.827028
11
215.199239
21
286.040031
0
LINE
8
boundary
62
5
39
2
10
215.199239
20
286.040031
11
216.253734
21
289.299123
0
LINE
8
boundary
62
5
39
2
10
216.253734
20
289.299123
11
216.949114
21
291.406954
0
LINE
8
boundary
62
5
39
2
10
216.949114
20
291.406954
11
217.277104
21
292.436351
0
LINE
8
boundary
62
5
39
2
10
217.277104
20
292.436351
11
217.768072
21
293.945569
0
LINE
8
boundary
62
5
39
2
10
217.768072
20
293.945569
11
218.172963
21
295.237494
0
LINE
8
boundary
62
5
39
2
10
218.172963
20
295.237494
11
218.588055
21
296.538262
0
LINE
8
boundary
62
5
39
2
10
218.588055
20
296.538262
11
218.955959
21
297.738438
0
LINE
8
boundary
62
5
39
2
10
218.955959
20
297.738438
11
219.331966
21
298.943242
0
LINE
8
boundary
62
5
39
2
10
219.331966
20
298.943242
11
219.708316
21
300.190842
0
LINE
8
boundary
62
5
39
2
10
219.708316
20
300.190842
11
220.086886
21
301.421839
0
LINE
8
boundary
62
5
39
2
10
220.086886
20
301.421839
11
220.431603
21
302.596875
0
LINE
8
boundary
62
5
39
2
10
220.431603
20
302.596875
11
220.791867
21
303.801012
0
LINE
8
boundary
62
5
39
2
10
220.791867
20
303.801012
11
221.124331
21
304.954201
0
LINE
8
boundary
62
5
39
2
10
221.124331
20
304.954201
11
221.453790
21
306.073022
0
LINE
8
boundary
62
5
39
2
10
221.453790
20
306.073022
11
221.785115
21
307.262063
0
LINE
8
boundary
62
5
39
2
10
221.785115
20
307.262063
11
222.137748
21
308.499900
0
LINE
8
boundary
62
5
39
2
10
222.137748
20
308.499900
11
222.417019
21
309.521532
0
LINE
8
boundary
62
5
39
2
10
222.417019
20
309.521532
11
222.691074
21
310.500401
0
LINE
8
boundary
62
5
39
2
10
222.691074
20
310.500401
11
223.012632
21
311.726362
0
LINE
8
boundary
62
5
39
2
10
223.012632
20
311.726362
11
223.359392
21
313.015238
0
LINE
8
boundary
62
5
39
2
10
223.359392
20
313.015238
11
223.552154
21
313.762749
0
LINE
8
boundary
62
5
39
2
10
223.552154
20
313.762749
11
223.802191
21
314.709558
0
LINE
8
boundary
62
5
39
2
10
223.802191
20
314.709558
11
224.014589
21
315.575643
0
LINE
8
boundary
62
5
39
2
10
224.014589
20
315.575643
11
224.187513
21
316.262873
0
LINE
8
boundary
62
5
39
2
10
224.187513
20
316.262873
11
224.447480
21
317.342111
0
LINE
8
boundary
62
5
39
2
10
224.447480
20
317.342111
11
224.783535
21
318.699324
0
LINE
8
boundary
62
5
39
2
10
224.783535
20
318.699324
11
224.942517
21
319.382585
0
LINE
8
boundary
62
5
39
2
10
224.942517
20
319.382585
11
225.169086
21
320.389487
0
LINE
8
boundary
62
5
39
2
10
225.169086
20
320.389487
11
225.364451
21
321.235470
0
LINE
8
boundary
62
5
39
2
10
225.364451
20
321.235470
11
225.473386
21
321.743415
0
LINE
8
boundary
62
5
39
2
10
225.473386
20
321.743415
11
225.605776
21
322.343755
0
LINE
8
boundary
62
5
39
2
10
225.605776
20
322.343755
11
225.756266
21
323.062204
0
LINE
8
boundary
62
5
39
2
10
225.756266
20
323.062204
11
225.887576
21
323.670684
0
LINE
8
boundary
62
5
39
2
10
225.887576
20
323.670684
11
226.021676
21
324.348635
0
LINE
8
boundary
62
5
39
2
10
226.021676
20
324.348635
11
226.183257
21
325.139531
0
LINE
8
boundary
62
5
39
2
10
226.183257
20
325.139531
11
226.351658
21
326.001469
0
LINE
8
boundary
62
5
39
2
10
226.351658
20
326.001469
11
226.498086
21
326.818360
0
LINE
8
boundary
62
5
39
2
10
226.498086
20
326.818360
11
226.672301
21
327.754150
0
LINE
8
boundary
62
5
39
2
10
226.672301
20
327.754150
11
226.881175
21
329.008206
0
LINE
8
boundary
62
5
39
2
10
226.881175
20
329.008206
11
227.015986
21
329.815016
0
LINE
8
boundary
62
5
39
2
10
227.015986
20
329.815016
11
227.169992
21
330.874596
0
LINE
8
boundary
62
5
39
2
10
227.169992
20
330.874596
11
227.293773
21
331.766582
0
LINE
8
boundary
62
5
39
2
10
227.293773
20
331.766582
11
227.377706
21
332.387599
0
LINE
8
boundary
62
5
39
2
10
227.377706
20
332.387599
11
227.498465
21
333.465128
0
LINE
8
boundary
62
5
39
2
10
227.498465
20
333.465128
11
227.579842
21
334.188357
0
LINE
8
boundary
62
5
39
2
10
227.579842
20
334.188357
11
227.651960
21
335.051740
0
LINE
8
boundary
62
5
39
2
10
227.651960
20
335.051740
11
227.710831
21
335.803514
0
LINE
8
boundary
62
5
39
2
10
227.710831
20
335.803514
11
227.756266
21
336.525979
0
LINE
8
boundary
62
5
39
2
10
227.756266
20
336.525979
11
227.786183
21
337.218882
0
LINE
8
boundary
62
5
39
2
10
227.786183
20
337.218882
11
227.812312
21
337.824157
0
LINE
8
boundary
62
5
39
2
10
227.812312
20
337.824157
11
227.815314
21
338.518143
0
LINE
8
boundary
62
5
39
2
10
227.815314
20
338.518143
11
227.820167
21
339.026999
0
LINE
8
boundary
62
5
39
2
10
227.820167
20
339.026999
11
227.798406
21
339.691015
0
LINE
8
boundary
62
5
39
2
10
227.798406
20
339.691015
11
227.774490
21
340.226470
0
LINE
8
boundary
62
5
39
2
10
227.774490
20
340.226470
11
227.720725
21
340.921712
0
LINE
8
boundary
62
5
39
2
10
227.720725
20
340.921712
11
227.653511
21
341.491083
0
LINE
8
boundary
62
5
39
2
10
227.653511
20
341.491083
11
227.564769
21
342.009756
0
LINE
8
boundary
62
5
39
2
10
227.564769
20
342.009756
11
227.412025
21
342.711548
0
LINE
8
boundary
62
5
39
2
10
227.412025
20
342.711548
11
227.177142
21
343.536273
0
LINE
8
boundary
62
5
39
2
10
227.177142
20
343.536273
11
226.946600
21
344.182140
0
LINE
8
boundary
62
5
39
2
10
226.946600
20
344.182140
11
226.755383
21
344.655695
0
LINE
8
boundary
62
5
39
2
10
226.755383
20
344.655695
11
226.475429
21
345.251663
0
LINE
8
boundary
62
5
39
2
10
226.475429
20
345.251663
11
226.168681
21
345.788139
0
LINE
8
boundary
62
5
39
2
10
226.168681
20
345.788139
11
225.826763
21
346.264171
0
LINE
8
boundary
62
5
39
2
10
225.826763
20
346.264171
11
225.446408
21
346.670285
0
LINE
8
boundary
62
5
39
2
10
225.446408
20
346.670285
11
224.789187
21
347.153457
0
LINE
8
boundary
62
5
39
2
10
224.789187
20
347.153457
11
224.265000
21
347.403167
0
LINE
8
boundary
62
5
39
2
10
224.265000
20
347.403167
11
223.681364
21
347.583225
0
LINE
8
boundary
62
5
39
2
10
223.681364
20
347.583225
11
223.056007
21
347.686743
0
LINE
8
boundary
62
5
39
2
10
223.056007
20
347.686743
11
222.376615
21
347.722537
0
LINE
8
boundary
62
5
39
2
10
222.376615
20
347.722537
11
221.644251
21
347.690772
0
LINE
8
boundary
62
5
39
2
10
221.644251
20
347.690772
11
221.105428
21
347.619585
0
LINE
8
boundary
62
5
39
2
10
221.105428
20
347.619585
11
220.557810
21
347.511275
0
LINE
8
boundary
62
5
39
2
10
220.557810
20
347.511275
11
220.033928
21
347.371936
0
LINE
8
boundary
62
5
39
2
10
220.033928
20
347.371936
11
219.268905
21
347.110749
0
LINE
8
boundary
62
5
39
2
10
219.268905
20
347.110749
11
218.771672
21
346.911244
0
LINE
8
boundary
62
5
39
2
10
218.771672
20
346.911244
11
218.260112
21
346.682059
0
LINE
8
boundary
62
5
39
2
10
218.260112
20
346.682059
11
217.786681
21
346.444605
0
LINE
8
boundary
62
5
39
2
10
217.786681
20
346.444605
11
217.308315
21
346.185268
0
LINE
8
boundary
62
5
39
2
10
217.308315
20
346.185268
11
216.329285
21
345.597649
0
LINE
8
boundary
62
5
39
2
10
216.329285
20
345.597649
11
215.676533
21
345.156620
0
LINE
8
boundary
62
5
39
2
10
215.676533
20
345.156620
11
214.410234
21
344.233577
0
LINE
8
boundary
62
5
39
2
10
214.410234
20
344.233577
11
213.452924
21
343.447578
0
LINE
8
boundary
62
5
39
2
10
213.452924
20
343.447578
11
219.457086
21
343.297579
0
LINE
8
boundary
62
5
39
2
10
219.457086
20
343.297579
11
219.457086
21
340.551579
0
LINE
8
boundary
62
5
39
2
10
219.457086
20
340.551579
11
210.439909
21
340.551579
0
LINE
8
boundary
62
5
39
2
10
210.439909
20
340.551579
11
210.015882
21
340.100354
0
LINE
8
boundary
62
5
39
2
10
210.015882
20
340.100354
11
209.392044
21
339.384843
0
LINE
8
boundary
62
5
39
2
10
209.392044
20
339.384843
11
208.931016
21
338.857029
0
LINE
8
boundary
62
5
39
2
10
208.931016
20
338.857029
11
208.180827
21
337.937088
0
LINE
8
boundary
62
5
39
2
10
208.180827
20
337.937088
11
207.848729
21
337.528064
0
LINE
8
boundary
62
5
39
2
10
207.848729
20
337.528064
11
206.768398
21
336.114217
0
LINE
8
boundary
62
5
39
2
10
206.768398
20
336.114217
11
205.842042
21
334.829911
0
LINE
8
boundary
62
5
39
2
10
205.842042
20
334.829911
11
205.499013
21
334.340353
0
LINE
8
boundary
62
5
39
2
10
205.499013
20
334.340353
11
204.639170
21
333.080297
0
LINE
8
boundary
62
5
39
2
10
204.639170
20
333.080297
11
204.028525
21
332.137969
0
LINE
8
boundary
62
5
39
2
10
204.028525
20
332.137969
11
203.594211
21
331.470554
0
LINE
8
boundary
62
5
39
2
10
203.594211
20
331.470554
11
203.020415
21
330.544455
0
LINE
8
boundary
62
5
39
2
10
203.020415
20
330.544455
11
202.565570
21
329.806622
0
LINE
8
boundary
62
5
39
2
10
202.565570
20
329.806622
11
202.223331
21
329.224436
0
LINE
8
boundary
62
5
39
2
10
202.223331
20
329.224436
11
201.554565
21
328.092574
0
LINE
8
boundary
62
5
39
2
10
201.554565
20
328.092574
11
200.720965
21
326.615852
0
LINE
8
boundary
62
5
39
2
10
200.720965
20
326.615852
11
200.444458
21
326.113151
0
LINE
8
boundary
62
5
39
2
10
200.444458
20
326.113151
11
199.611917
21
324.570825
0
LINE
8
boundary
62
5
39
2
10
199.611917
20
324.570825
11
212.265608
21
324.420824
0
LINE
8
boundary
62
5
39
2
10
212.265608
20
324.420824
11
212.265608
21
321.674825
0
LINE
8
boundary
62
5
39
2
10
212.265608
20
321.674825
11
198.136279
21
321.674825
0
LINE
8
boundary
62
5
39
2
10
198.136279
20
321.674825
11
197.737430
21
320.869598
0
LINE
8
boundary
62
5
39
2
10
197.737430
20
320.869598
11
197.011862
21
319.343664
0
LINE
8
boundary
62
5
39
2
10
197.011862
20
319.343664
11
196.663074
21
318.599797
0
LINE
8
boundary
62
5
39
2
10
196.663074
20
318.599797
11
195.976056
21
317.096033
0
LINE
8
boundary
62
5
39
2
10
195.976056
20
317.096033
11
195.333720
21
315.637776
0
LINE
8
boundary
62
5
39
2
10
195.333720
20
315.637776
11
194.930286
21
314.712076
0
LINE
8
boundary
62
5
39
2
10
194.930286
20
314.712076
11
194.300388
21
313.228512
0
LINE
8
boundary
62
5
39
2
10
194.300388
20
313.228512
11
193.596295
21
311.516272
0
LINE
8
boundary
62
5
39
2
10
193.596295
20
311.516272
11
192.694887
21
309.259964
0
LINE
8
boundary
62
5
39
2
10
192.694887
20
309.259964
11
192.075745
21
307.651842
0
LINE
8
boundary
62
5
39
2
10
192.075745
20
307.651842
11
191.532639
21
306.216626
0
LINE
8
boundary
62
5
39
2
10
191.532639
20
306.216626
11
191.340857
21
305.694070
0
LINE
8
boundary
62
5
39
2
10
191.340857
20
305.694070
11
205.714873
21
305.544071
0
LINE
8
boundary
62
5
39
2
10
205.714873
20
305.544071
11
205.714873
21
302.798071
0
LINE
8
boundary
62
5
39
2
10
205.714873
20
302.798071
11
190.292674
21
302.798071
0
LINE
8
boundary
62
5
39
2
10
190.292674
20
302.798071
11
189.853449
21
301.549677
0
LINE
8
boundary
62
5
39
2
10
189.853449
20
301.549677
11
189.303898
21
299.955566
0
LINE
8
boundary
62
5
39
2
10
189.303898
20
299.955566
11
188.898769
21
298.765378
0
LINE
8
boundary
62
5
39
2
10
188.898769
20
298.765378
11
188.541203
21
297.706118
0
LINE
8
boundary
62
5
39
2
10
188.541203
20
297.706118
11
188.232607
21
296.747047
0
LINE
8
boundary
62
5
39
2
10
188.232607
20
296.747047
11
187.685884
21
295.052019
0
LINE
8
boundary
62
5
39
2
10
187.685884
20
295.052019
11
187.184573
21
293.521536
0
LINE
8
boundary
62
5
39
2
10
187.184573
20
293.521536
11
187.006842
21
292.981942
0
LINE
8
boundary
62
5
39
2
10
187.006842
20
292.981942
11
186.649840
21
291.850023
0
LINE
8
boundary
62
5
39
2
10
186.649840
20
291.850023
11
186.318173
21
290.785007
0
LINE
8
boundary
62
5
39
2
10
186.318173
20
290.785007
11
186.157747
21
290.246750
0
LINE
8
boundary
62
5
39
2
10
186.157747
20
290.246750
11
185.646302
21
288.591588
0
LINE
8
boundary
62
5
39
2
10
185.646302
20
288.591588
11
185.146460
21
286.911085
0
LINE
8
boundary
62
5
39
2
10
185.146460
20
286.911085
11
199.620554
21
286.667317
0
LINE
8
boundary
62
5
39
2
10
199.620554
20
286.667317
11
199.620554
21
283.921317
0
LINE
8
boundary
62
5
39
2
10
199.620554
20
283.921317
11
184.261733
21
283.921317
0
LINE
8
boundary
62
5
39
2
10
184.261733
20
283.921317
11
183.782423
21
282.270718
0
LINE
8
boundary
62
5
39
2
10
183.782423
20
282.270718
11
183.307491
21
280.609528
0
LINE
8
boundary
62
5
39
2
10
183.307491
20
280.609528
11
183.123970
21
279.952236
0
LINE
8
boundary
62
5
39
2
10
183.123970
20
279.952236
11
182.630504
21
278.205233
0
LINE
8
boundary
62
5
39
2
10
182.630504
20
278.205233
11
182.091507
21
276.262580
0
LINE
8
boundary
62
5
39
2
10
182.091507
20
276.262580
11
181.482906
21
274.049289
0
LINE
8
boundary
62
5
39
2
10
181.482906
20
274.049289
11
181.025866
21
272.358542
0
LINE
8
boundary
62
5
39
2
10
181.025866
20
272.358542
11
180.772567
21
271.434198
0
LINE
8
boundary
62
5
39
2
10
180.772567
20
271.434198
11
180.472561
21
270.317345
0
LINE
8
boundary
62
5
39
2
10
180.472561
20
270.317345
11
180.170563
21
269.184706
0
LINE
8
boundary
62
5
39
2
10
180.170563
20
269.184706
11
179.913217
21
268.206429
0
LINE
8
boundary
62
5
39
2
10
179.913217
20
268.206429
11
193.802329
21
267.790563
0
LINE
8
boundary
62
5
39
2
10
193.802329
20
267.790563
11
193.802329
21
265.044563
0
LINE
8
boundary
62
5
39
2
10
193.802329
20
265.044563
11
179.078490
21
265.044563
0
LINE
8
boundary
62
5
39
2
10
179.078490
20
265.044563
11
178.820637
21
264.051073
0
LINE
8
boundary
62
5
39
2
10
178.820637
20
264.051073
11
178.421603
21
262.500778
0
LINE
8
boundary
62
5
39
2
10
178.421603
20
262.500778
11
177.973262
21
260.756233
0
LINE
8
boundary
62
5
39
2
10
177.973262
20
260.756233
11
177.549473
21
259.094178
0
LINE
8
boundary
62
5
39
2
10
177.549473
20
259.094178
11
177.293529
21
258.085502
0
LINE
8
boundary
62
5
39
2
10
177.293529
20
258.085502
11
177.126687
21
257.419193
0
LINE
8
boundary
62
5
39
2
10
177.126687
20
257.419193
11
176.740861
21
255.877469
0
LINE
8
boundary
62
5
39
2
10
176.740861
20
255.877469
11
176.586032
21
255.250668
0
LINE
8
boundary
62
5
39
2
10
176.586032
20
255.250668
11
176.303701
21
254.122750
0
LINE
8
boundary
62
5
39
2
10
176.303701
20
254.122750
11
175.909683
21
252.535718
0
LINE
8
boundary
62
5
39
2
10
175.909683
20
252.535718
11
175.646010
21
251.471840
0
LINE
8
boundary
62
5
39
2
10
175.646010
20
251.471840
11
175.515460
21
250.937965
0
LINE
8
boundary
62
5
39
2
10
175.515460
20
250.937965
11
175.162607
21
249.498653
0
LINE
8
boundary
62
5
39
2
10
175.162607
20
249.498653
11
175.065887
21
248.913809
0
LINE
8
boundary
62
5
39
2
10
175.065887
20
248.913809
11
188.238257
21
248.913809
0
LINE
8
boundary
62
5
39
2
10
188.238257
20
248.913809
11
188.238257
21
246.167809
0
LINE
8
boundary
62
5
39
2
10
188.238257
20
246.167809
11
174.347197
21
246.167809
0
LINE
8
boundary
62
5
39
2
10
174.347197
20
246.167809
11
174.206480
21
245.594592
0
LINE
8
boundary
62
5
39
2
10
174.206480
20
245.594592
11
173.998001
21
244.728550
0
LINE
8
boundary
62
5
39
2
10
173.998001
20
244.728550
11
173.627559
21
243.198600
0
LINE
8
boundary
62
5
39
2
10
173.627559
20
243.198600
11
173.427453
21
242.378163
0
LINE
8
boundary
62
5
39
2
10
173.427453
20
242.378163
11
172.850857
21
239.995461
0
LINE
8
boundary
62
5
39
2
10
172.850857
20
239.995461
11
172.423423
21
238.236330
0
LINE
8
boundary
62
5
39
2
10
172.423423
20
238.236330
11
172.270653
21
237.596816
0
LINE
8
boundary
62
5
39
2
10
172.270653
20
237.596816
11
171.975979
21
236.373198
0
LINE
8
boundary
62
5
39
2
10
171.975979
20
236.373198
11
171.685095
21
235.172302
0
LINE
8
boundary
62
5
39
2
10
171.685095
20
235.172302
11
171.533455
21
234.552057
0
LINE
8
boundary
62
5
39
2
10
171.533455
20
234.552057
11
171.093040
21
232.721702
0
LINE
8
boundary
62
5
39
2
10
171.093040
20
232.721702
11
170.642372
21
230.866479
0
LINE
8
boundary
62
5
39
2
10
170.642372
20
230.866479
11
170.497187
21
230.260304
0
LINE
8
boundary
62
5
39
2
10
170.497187
20
230.260304
11
182.886399
21
230.037055
0
LINE
8
boundary
62
5
39
2
10
182.886399
20
230.037055
11
182.886399
21
227.291056
0
LINE
8
boundary
62
5
39
2
10
182.886399
20
227.291056
11
169.776043
21
227.291056
0
LINE
8
boundary
62
5
39
2
10
169.776043
20
227.291056
11
169.285477
21
225.267997
0
LINE
8
boundary
62
5
39
2
10
169.285477
20
225.267997
11
168.851555
21
223.495936
0
LINE
8
boundary
62
5
39
2
10
168.851555
20
223.495936
11
168.671799
21
222.753701
0
LINE
8
boundary
62
5
39
2
10
168.671799
20
222.753701
11
168.274972
21
221.131754
0
LINE
8
boundary
62
5
39
2
10
168.274972
20
221.131754
11
168.051938
21
220.223145
0
LINE
8
boundary
62
5
39
2
10
168.051938
20
220.223145
11
167.422956
21
217.667597
0
LINE
8
boundary
62
5
39
2
10
167.422956
20
217.667597
11
167.044091
21
216.141860
0
LINE
8
boundary
62
5
39
2
10
167.044091
20
216.141860
11
166.789533
21
215.108751
0
LINE
8
boundary
62
5
39
2
10
166.789533
20
215.108751
11
166.191492
21
212.705043
0
LINE
8
boundary
62
5
39
2
10
166.191492
20
212.705043
11
165.842293
21
211.310302
0
LINE
8
boundary
62
5
39
2
10
165.842293
20
211.310302
11
177.684966
21
211.160302
0
LINE
8
boundary
62
5
39
2
10
177.684966
20
211.160302
11
177.684967
21
208.414302
0
LINE
8
boundary
62
5
39
2
10
177.684967
20
208.414302
11
165.114067
21
208.414302
0
LINE
8
boundary
62
5
39
2
10
165.114067
20
208.414302
11
164.757582
21
207.003596
0
LINE
8
boundary
62
5
39
2
10
164.757582
20
207.003596
11
164.619027
21
206.454115
0
LINE
8
boundary
62
5
39
2
10
164.619027
20
206.454115
11
164.297220
21
205.186349
0
LINE
8
boundary
62
5
39
2
10
164.297220
20
205.186349
11
163.919026
21
203.698668
0
LINE
8
boundary
62
5
39
2
10
163.919026
20
203.698668
11
163.459497
21
201.904505
0
LINE
8
boundary
62
5
39
2
10
163.459497
20
201.904505
11
163.068700
21
200.384801
0
LINE
8
boundary
62
5
39
2
10
163.068700
20
200.384801
11
162.906256
21
199.755860
0
LINE
8
boundary
62
5
39
2
10
162.906256
20
199.755860
11
162.676879
21
198.866355
0
LINE
8
boundary
62
5
39
2
10
162.676879
20
198.866355
11
162.440622
21
197.953980
0
LINE
8
boundary
62
5
39
2
10
162.440622
20
197.953980
11
162.284092
21
197.349147
0
LINE
8
boundary
62
5
39
2
10
162.284092
20
197.349147
11
161.974373
21
196.156379
0
LINE
8
boundary
62
5
39
2
10
161.974373
20
196.156379
11
161.507515
21
194.362937
0
LINE
8
boundary
62
5
39
2
10
161.507515
20
194.362937
11
161.107448
21
192.835965
0
LINE
8
boundary
62
5
39
2
10
161.107448
20
192.835965
11
161.012019
21
192.283548
0
LINE
8
boundary
62
5
39
2
10
161.012019
20
192.283548
11
172.664273
21
192.283548
0
LINE
8
boundary
62
5
39
2
10
172.664273
20
192.283548
11
172.664273
21
189.537548
0
LINE
8
boundary
62
5
39
2
10
172.664273
20
189.537548
11
160.238628
21
189.537548
0
LINE
8
boundary
62
5
39
2
10
160.238628
20
189.537548
11
160.098533
21
189.006663
0
LINE
8
boundary
62
5
39
2
10
160.098533
20
189.006663
11
159.941185
21
188.412521
0
LINE
8
boundary
62
5
39
2
10
159.941185
20
188.412521
11
159.628221
21
187.229188
0
LINE
8
boundary
62
5
39
2
10
159.628221
20
187.229188
11
159.176318
21
185.524217
0
LINE
8
boundary
62
5
39
2
10
159.176318
20
185.524217
11
158.767550
21
183.988568
0
LINE
8
boundary
62
5
39
2
10
158.767550
20
183.988568
11
158.374094
21
182.510835
0
LINE
8
boundary
62
5
39
2
10
158.374094
20
182.510835
11
158.216976
21
181.918948
0
LINE
8
boundary
62
5
39
2
10
158.216976
20
181.918948
11
157.980880
21
181.033486
0
LINE
8
boundary
62
5
39
2
10
157.980880
20
181.033486
11
157.747858
21
180.155557
0
LINE
8
boundary
62
5
39
2
10
157.747858
20
180.155557
11
157.588062
21
179.556393
0
LINE
8
boundary
62
5
39
2
10
157.588062
20
179.556393
11
157.279936
21
178.394975
0
LINE
8
boundary
62
5
39
2
10
157.279936
20
178.394975
11
156.813411
21
176.636908
0
LINE
8
boundary
62
5
39
2
10
156.813411
20
176.636908
11
156.380977
21
175.010129
0
LINE
8
boundary
62
5
39
2
10
156.380977
20
175.010129
11
155.995429
21
173.556794
0
LINE
8
boundary
62
5
39
2
10
155.995429
20
173.556794
11
167.836167
21
173.406794
0
LINE
8
boundary
62
5
39
2
10
167.836167
20
173.406794
11
167.836167
21
170.660794
0
LINE
8
boundary
62
5
39
2
10
167.836167
20
170.660794
11
155.228865
21
170.660795
0
LINE
8
boundary
62
5
39
2
10
155.228865
20
170.660795
11
154.960069
21
169.629333
0
LINE
8
boundary
62
5
39
2
10
154.960069
20
169.629333
11
154.448291
21
167.688465
0
LINE
8
boundary
62
5
39
2
10
154.448291
20
167.688465
11
154.045594
21
166.133070
0
LINE
8
boundary
62
5
39
2
10
154.045594
20
166.133070
11
153.673175
21
164.712224
0
LINE
8
boundary
62
5
39
2
10
153.673175
20
164.712224
11
153.139971
21
162.637549
0
LINE
8
boundary
62
5
39
2
10
153.139971
20
162.637549
11
152.904165
21
161.731452
0
LINE
8
boundary
62
5
39
2
10
152.904165
20
161.731452
11
152.243382
21
159.139411
0
LINE
8
boundary
62
5
39
2
10
152.243382
20
159.139411
11
151.554507
21
156.421733
0
LINE
8
boundary
62
5
39
2
10
151.554507
20
156.421733
11
151.382931
21
155.746727
0
LINE
8
boundary
62
5
39
2
10
151.382931
20
155.746727
11
151.114784
21
154.680039
0
LINE
8
boundary
62
5
39
2
10
151.114784
20
154.680039
11
163.354545
21
154.530040
0
LINE
8
boundary
62
5
39
2
10
163.354545
20
154.530040
11
163.354545
21
151.784041
0
LINE
8
boundary
62
5
39
2
10
163.354545
20
151.784041
11
150.390163
21
151.784040
0
LINE
8
boundary
62
5
39
2
10
150.390163
20
151.784040
11
149.871102
21
149.700765
0
LINE
8
boundary
62
5
39
2
10
149.871102
20
149.700765
11
149.604067
21
148.603690
0
LINE
8
boundary
62
5
39
2
10
149.604067
20
148.603690
11
149.125670
21
146.662596
0
LINE
8
boundary
62
5
39
2
10
149.125670
20
146.662596
11
148.740377
21
145.063477
0
LINE
8
boundary
62
5
39
2
10
148.740377
20
145.063477
11
148.386728
21
143.612051
0
LINE
8
boundary
62
5
39
2
10
148.386728
20
143.612051
11
147.883361
21
141.501386
0
LINE
8
boundary
62
5
39
2
10
147.883361
20
141.501386
11
147.653657
21
140.547377
0
LINE
8
boundary
62
5
39
2
10
147.653657
20
140.547377
11
147.031698
21
137.912699
0
LINE
8
boundary
62
5
39
2
10
147.031698
20
137.912699
11
146.536887
21
135.803286
0
LINE
8
boundary
62
5
39
2
10
146.536887
20
135.803286
11
159.196554
21
135.653286
0
LINE
8
boundary
62
5
39
2
10
159.196554
20
135.653286
11
159.196554
21
132.907286
0
LINE
8
boundary
62
5
39
2
10
159.196554
20
132.907286
11
145.861994
21
132.907287
0
LINE
8
boundary
62
5
39
2
10
145.861994
20
132.907287
11
145.599893
21
131.778801
0
LINE
8
boundary
62
5
39
2
10
145.599893
20
131.778801
11
145.004062
21
129.189055
0
LINE
8
boundary
62
5
39
2
10
145.004062
20
129.189055
11
144.830869
21
128.426963
0
LINE
8
boundary
62
5
39
2
10
144.830869
20
128.426963
11
144.409528
21
126.583123
0
LINE
8
boundary
62
5
39
2
10
144.409528
20
126.583123
11
144.153602
21
125.451279
0
LINE
8
boundary
62
5
39
2
10
144.153602
20
125.451279
11
143.815386
21
123.959601
0
LINE
8
boundary
62
5
39
2
10
143.815386
20
123.959601
11
143.473916
21
122.442672
0
LINE
8
boundary
62
5
39
2
10
143.473916
20
122.442672
11
143.220675
21
121.317291
0
LINE
8
boundary
62
5
39
2
10
143.220675
20
121.317291
11
142.790408
21
119.398301
0
LINE
8
boundary
62
5
39
2
10
142.790408
20
119.398301
11
142.624550
21
118.655795
0
LINE
8
boundary
62
5
39
2
10
142.624550
20
118.655795
11
142.238320
21
116.926531
0
LINE
8
boundary
62
5
39
2
10
142.238320
20
116.926531
11
155.279626
21
116.776533
0
LINE
8
boundary
62
5
39
2
10
155.279626
20
116.776533
11
155.279627
21
114.030533
0
LINE
8
boundary
62
5
39
2
10
155.279627
20
114.030533
11
141.593717
21
114.030533
0
LINE
8
boundary
62
5
39
2
10
141.593717
20
114.030533
11
141.426665
21
113.279108
0
LINE
8
boundary
62
5
39
2
10
141.426665
20
113.279108
11
140.826540
21
110.566728
0
LINE
8
boundary
62
5
39
2
10
140.826540
20
110.566728
11
140.714166
21
110.061459
0
LINE
8
boundary
62
5
39
2
10
140.714166
20
110.061459
11
140.225464
21
107.842249
0
LINE
8
boundary
62
5
39
2
10
140.225464
20
107.842249
11
140.013426
21
106.887414
0
LINE
8
boundary
62
5
39
2
10
140.013426
20
106.887414
11
139.623149
21
105.106980
0
LINE
8
boundary
62
5
39
2
10
139.623149
20
105.106980
11
139.307866
21
103.684858
0
LINE
8
boundary
62
5
39
2
10
139.307866
20
103.684858
11
138.803199
21
101.363851
0
LINE
8
boundary
62
5
39
2
10
138.803199
20
101.363851
11
138.069732
21
98.049779
0
LINE
8
boundary
62
5
39
2
10
138.069732
20
98.049779
11
151.534333
21
97.899779
0
LINE
8
boundary
62
5
39
2
10
151.534333
20
97.899779
11
151.534334
21
95.153779
0
LINE
8
boundary
62
5
39
2
10
151.534334
20
95.153779
11
137.433934
21
95.153779
0
LINE
8
boundary
62
5
39
2
10
137.433934
20
95.153779
11
136.704605
21
91.813847
0
LINE
8
boundary
62
5
39
2
10
136.704605
20
91.813847
11
136.443237
21
90.641112
0
LINE
8
boundary
62
5
39
2
10
136.443237
20
90.641112
11
135.669086
21
87.065719
0
LINE
8
boundary
62
5
39
2
10
135.669086
20
87.065719
11
134.993718
21
84.027095
0
LINE
8
boundary
62
5
39
2
10
134.993718
20
84.027095
11
134.829415
21
83.265477
0
LINE
8
boundary
62
5
39
2
10
134.829415
20
83.265477
11
134.447723
21
81.538289
0
LINE
8
boundary
62
5
39
2
10
134.447723
20
81.538289
11
133.928567
21
79.173025
0
LINE
8
boundary
62
5
39
2
10
133.928567
20
79.173025
11
147.997649
21
79.023026
0
LINE
8
boundary
62
5
39
2
10
147.997649
20
79.023026
11
147.997649
21
76.277025
0
LINE
8
boundary
62
5
39
2
10
147.997649
20
76.277025
11
133.296341
21
76.277025
0
LINE
8
boundary
62
5
39
2
10
133.296341
20
76.277025
11
132.951639
21
74.685822
0
LINE
8
boundary
62
5
39
2
10
132.951639
20
74.685822
11
132.818987
21
74.088168
0
LINE
8
boundary
62
5
39
2
10
132.818987
20
74.088168
11
132.489796
21
72.562334
0
LINE
8
boundary
62
5
39
2
10
132.489796
20
72.562334
11
132.280833
21
71.618015
0
LINE
8
boundary
62
5
39
2
10
132.280833
20
71.618015
11
132.029470
21
70.447614
0
LINE
8
boundary
62
5
39
2
10
132.029470
20
70.447614
11
131.744774
21
69.156499
0
LINE
8
boundary
62
5
39
2
10
131.744774
20
69.156499
11
131.570939
21
68.342937
0
LINE
8
boundary
62
5
39
2
10
131.570939
20
68.342937
11
131.211504
21
66.706162
0
LINE
8
boundary
62
5
39
2
10
131.211504
20
66.706162
11
130.681773
21
64.269694
0
LINE
8
boundary
62
5
39
2
10
130.681773
20
64.269694
11
130.533153
21
63.583096
0
LINE
8
boundary
62
5
39
2
10
130.533153
20
63.583096
11
130.220007
21
62.115272
0
LINE
8
boundary
62
5
39
2
10
130.220007
20
62.115272
11
129.832999
21
60.296272
0
LINE
8
boundary
62
5
39
2
10
129.832999
20
60.296272
11
144.563951
21
60.146271
0
LINE
8
boundary
62
5
39
2
10
144.563951
20
60.146271
11
144.563952
21
57.400272
0
LINE
8
boundary
62
5
39
2
10
144.563952
20
57.400272
11
129.216142
21
57.400271
0
LINE
8
boundary
62
5
39
2
10
129.216142
20
57.400271
11
128.938372
21
56.075737
0
LINE
8
boundary
62
5
39
2
10
128.938372
20
56.075737
11
128.666802
21
54.806062
0
LINE
8
boundary
62
5
39
2
10
128.666802
20
54.806062
11
128.522163
21
54.104132
0
LINE
8
boundary
62
5
39
2
10
128.522163
20
54.104132
11
128.184813
21
52.511698
0
LINE
8
boundary
62
5
39
2
10
128.184813
20
52.511698
11
127.713431
21
50.252065
0
LINE
8
boundary
62
5
39
2
10
127.713431
20
50.252065
11
127.331651
21
48.359573
0
LINE
8
boundary
62
5
39
2
10
127.331651
20
48.359573
11
127.171206
21
47.574437
0
LINE
8
boundary
62
5
39
2
10
127.171206
20
47.574437
11
126.838498
21
45.904123
0
LINE
8
boundary
62
5
39
2
10
126.838498
20
45.904123
11
126.481359
21
44.113415
0
LINE
8
boundary
62
5
39
2
10
126.481359
20
44.113415
11
126.147996
21
42.380440
0
LINE
8
boundary
62
5
39
2
10
126.147996
20
42.380440
11
126.022617
21
41.736831
0
LINE
8
boundary
62
5
39
2
10
126.022617
20
41.736831
11
140.831200
21
41.269518
0
LINE
8
boundary
62
5
39
2
10
140.831200
20
41.269518
11
140.831200
21
38.523518
0
LINE
8
boundary
62
5
39
2
10
140.831200
20
38.523518
11
125.423407
21
38.523518
0
LINE
8
boundary
62
5
39
2
10
125.423407
20
38.523518
11
125.287274
21
37.787393
0
LINE
8
boundary
62
5
39
2
10
125.287274
20
37.787393
11
125.099510
21
36.734740
0
LINE
8
boundary
62
5
39
2
10
125.099510
20
36.734740
11
124.980619
21
36.056611
0
LINE
8
boundary
62
5
39
2
10
124.980619
20
36.056611
11
124.728466
21
34.569470
0
LINE
8
boundary
62
5
39
2
10
124.728466
20
34.569470
11
124.489088
21
33.114406
0
LINE
8
boundary
62
5
39
2
10
124.489088
20
33.114406
11
124.357365
21
32.311259
0
LINE
8
boundary
62
5
39
2
10
124.357365
20
32.311259
11
124.262930
21
31.691816
0
LINE
8
boundary
62
5
39
2
10
124.262930
20
31.691816
11
124.092550
21
30.596387
0
LINE
8
boundary
62
5
39
2
10
124.092550
20
30.596387
11
123.862104
21
28.993318
0
LINE
8
boundary
62
5
39
2
10
123.862104
20
28.993318
11
123.778758
21
28.403978
0
LINE
8
boundary
62
5
39
2
10
123.778758
20
28.403978
11
123.591164
21
26.913606
0
LINE
8
boundary
62
5
39
2
10
123.591164
20
26.913606
11
123.516415
21
26.333654
0
LINE
8
boundary
62
5
39
2
10
123.516415
20
26.333654
11
123.408780
21
25.343453
0
LINE
8
boundary
62
5
39
2
10
123.408780
20
25.343453
11
123.298893
21
24.360263
0
LINE
8
boundary
62
5
39
2
10
123.298893
20
24.360263
11
123.251354
21
23.825418
0
LINE
8
boundary
62
5
39
2
10
123.251354
20
23.825418
11
123.133385
21
22.542764
0
LINE
8
boundary
62
5
39
2
10
123.133385
20
22.542764
11
135.565159
21
22.392764
0
LINE
8
boundary
62
5
39
2
10
135.565159
20
22.392764
11
135.565159
21
19.646764
0
LINE
8
boundary
62
5
39
2
10
135.565159
20
19.646764
11
122.975306
21
19.646764
0
LINE
8
boundary
62
5
39
2
10
122.975306
20
19.646764
11
122.948115
21
19.083813
0
LINE
8
boundary
62
5
39
2
10
122.948115
20
19.083813
11
122.943949
21
18.359535
0
LINE
8
boundary
62
5
39
2
10
122.943949
20
18.359535
11
122.936177
21
17.534952
0
LINE
8
boundary
62
5
39
2
10
122.936177
20
17.534952
11
122.977631
21
16.084450
0
LINE
8
boundary
62
5
39
2
10
122.977631
20
16.084450
11
123.022391
21
15.462062
0
LINE
8
boundary
62
5
39
2
10
123.022391
20
15.462062
11
123.068075
21
14.874688
0
LINE
8
boundary
62
5
39
2
10
123.068075
20
14.874688
11
123.194870
21
13.848703
0
LINE
8
boundary
62
5
39
2
10
123.194870
20
13.848703
11
123.360418
21
12.880147
0
LINE
8
boundary
62
5
39
2
10
123.360418
20
12.880147
11
123.566754
21
11.970259
0
LINE
8
boundary
62
5
39
2
10
123.566754
20
11.970259
11
123.729083
21
11.355927
0
LINE
8
boundary
62
5
39
2
10
123.729083
20
11.355927
11
124.067380
21
10.421715
0
LINE
8
boundary
62
5
39
2
10
124.067380
20
10.421715
11
124.381942
21
9.769058
0
LINE
8
boundary
62
5
39
2
10
124.381942
20
9.769058
11
124.869491
21
8.981608
0
LINE
8
boundary
62
5
39
2
10
124.869491
20
8.981608
11
125.335964
21
8.416673
0
LINE
8
boundary
62
5
39
2
10
125.335964
20
8.416673
11
125.861685
21
7.923190
0
LINE
8
boundary
62
5
39
2
10
125.861685
20
7.923190
11
126.451025
21
7.504902
0
LINE
8
boundary
62
5
39
2
10
126.451025
20
7.504902
11
127.108269
21
7.166038
0
LINE
8
boundary
62
5
39
2
10
127.108269
20
7.166038
11
127.835785
21
6.911171
0
LINE
8
boundary
62
5
39
2
10
127.835785
20
6.911171
11
128.633607
21
6.745123
0
LINE
8
boundary
62
5
39
2
10
128.633607
20
6.745123
11
129.200621
21
6.671523
0
LINE
8
boundary
62
5
39
2
10
129.200621
20
6.671523
11
130.136631
21
6.667500
0
LINE
8
boundary
62
5
39
2
10
130.136631
20
6.667500
11
131.124601
21
6.769020
0
LINE
8
boundary
62
5
39
2
10
131.124601
20
6.769020
11
132.159197
21
6.976713
0
LINE
8
boundary
62
5
39
2
10
132.159197
20
6.976713
11
133.235089
21
7.291193
0
LINE
8
boundary
62
5
39
2
10
133.235089
20
7.291193
11
134.346899
21
7.712987
0
LINE
8
boundary
62
5
39
2
10
134.346899
20
7.712987
11
134.831696
21
7.939590
0
LINE
8
boundary
62
5
39
2
10
134.831696
20
7.939590
11
135.489263
21
8.242581
0
LINE
8
boundary
62
5
39
2
10
135.489263
20
8.242581
11
136.080296
21
8.567064
0
LINE
8
boundary
62
5
39
2
10
136.080296
20
8.567064
11
136.656777
21
8.880350
0
LINE
8
boundary
62
5
39
2
10
136.656777
20
8.880350
11
137.381445
21
9.337097
0
LINE
8
boundary
62
5
39
2
10
137.381445
20
9.337097
11
137.844016
21
9.626560
0
LINE
8
boundary
62
5
39
2
10
137.844016
20
9.626560
11
138.730099
21
10.257770
0
LINE
8
boundary
62
5
39
2
10
138.730099
20
10.257770
11
139.045535
21
10.481366
0
LINE
8
annotation
62
1
39
211
10
141.691557
20
18.619764
11
142.758658
21
23.419764
0
LINE
8
annotation
62
1
39
211
10
142.758658
20
23.419764
11
140.624154
21
23.419764
0
LINE
8
annotation
62
1
39
211
10
142.758658
20
21.282250
11
141.691557
21
21.282250
0
LINE
8
annotation
62
1
39
211
10
145.891701
20
38.560759
11
145.891701
21
38.560759
0
LINE
8
annotation
62
1
39
211
10
145.891701
20
38.560759
11
145.908910
21
38.369107
0
LINE
8
annotation
62
1
39
211
10
145.908910
20
38.369107
11
145.958512
21
38.188858
0
LINE
8
annotation
62
1
39
211
10
145.958512
20
38.188858
11
146.037470
21
38.022989
0
LINE
8
annotation
62
1
39
211
10
146.037470
20
38.022989
11
146.142747
21
37.874475
0
LINE
8
annotation
62
1
39
211
10
146.142747
20
37.874475
11
146.271305
21
37.746290
0
LINE
8
annotation
62
1
39
211
10
146.271305
20
37.746290
11
146.420106
21
37.641412
0
LINE
8
annotation
62
1
39
211
10
146.420106
20
37.641412
11
146.586114
21
37.562815
0
LINE
8
annotation
62
1
39
211
10
146.586114
20
37.562815
11
146.766290
21
37.513475
0
LINE
8
annotation
62
1
39
211
10
146.766290
20
37.513475
11
146.957598
21
37.496367
0
LINE
8
annotation
62
1
39
211
10
146.957598
20
37.496367
11
146.957598
21
37.496367
0
LINE
8
annotation
62
1
39
211
10
146.957598
20
37.496367
11
147.148906
21
37.513475
0
LINE
8
annotation
62
1
39
211
10
147.148906
20
37.513475
11
147.329082
21
37.562815
0
LINE
8
annotation
62
1
39
211
10
147.329082
20
37.562815
11
147.495090
21
37.641412
0
LINE
8
annotation
62
1
39
211
10
147.495090
20
37.641412
11
147.643891
21
37.746290
0
LINE
8
annotation
62
1
39
211
10
147.643891
20
37.746290
11
147.772449
21
37.874475
0
LINE
8
annotation
62
1
39
211
10
147.772449
20
37.874475
11
147.877726
21
38.022989
0
LINE
8
annotation
62
1
39
211
10
147.877726
20
38.022989
11
147.956684
21
38.188858
0
LINE
8
annotation
62
1
39
211
10
147.956684
20
38.188858
11
148.006286
21
38.369107
0
LINE
8
annotation
62
1
39
211
10
148.006286
20
38.369107
11
148.023495
21
38.560759
0
LINE
8
annotation
62
1
39
211
10
148.023495
20
38.560759
11
148.023495
21
39.091752
0
LINE
8
annotation
62
1
39
211
10
148.023495
20
39.091752
11
148.023495
21
39.091752
0
LINE
8
annotation
62
1
39
211
10
148.023495
20
39.091752
11
148.006296
21
39.283497
0
LINE
8
annotation
62
1
39
211
10
148.006296
20
39.283497
11
147.956719
21
39.463995
0
LINE
8
annotation
62
1
39
211
10
147.956719
20
39.463995
11
147.877793
21
39.630224
0
LINE
8
annotation
62
1
39
211
10
147.877793
20
39.630224
11
147.772548
21
39.779166
0
LINE
8
annotation
62
1
39
211
10
147.772548
20
39.779166
11
147.644015
21
39.907800
0
LINE
8
annotation
62
1
39
211
10
147.644015
20
39.907800
11
147.495224
21
40.013106
0
LINE
8
annotation
62
1
39
211
10
147.495224
20
40.013106
11
147.329204
21
40.092063
0
LINE
8
annotation
62
1
39
211
10
147.329204
20
40.092063
11
147.148985
21
40.141652
0
LINE
8
annotation
62
1
39
211
10
147.148985
20
40.141652
11
146.957598
21
40.158853
0
LINE
8
annotation
62
1
39
211
10
146.957598
20
40.158853
11
146.957598
21
40.158853
0
LINE
8
annotation
62
1
39
211
10
146.957598
20
40.158853
11
146.766211
21
40.141642
0
LINE
8
annotation
62
1
39
211
10
146.766211
20
40.141642
11
146.585992
21
40.092028
0
LINE
8
annotation
62
1
39
211
10
146.585992
20
40.092028
11
146.419972
21
40.013039
0
LINE
8
annotation
62
1
39
211
10
146.419972
20
40.013039
11
146.271181
21
39.907701
0
LINE
8
annotation
62
1
39
211
10
146.271181
20
39.907701
11
146.142648
21
39.779042
0
LINE
8
annotation
62
1
39
211
10
146.142648
20
39.779042
11
146.037403
21
39.630091
0
LINE
8
annotation
62
1
39
211
10
146.037403
20
39.630091
11
145.958477
21
39.463873
0
LINE
8
annotation
62
1
39
211
10
145.958477
20
39.463873
11
145.908900
21
39.283418
0
LINE
8
annotation
62
1
39
211
10
145.908900
20
39.283418
11
145.891701
21
39.091752
0
LINE
8
annotation
62
1
39
211
10
145.891701
20
39.091752
11
145.891701
21
38.560759
0
LINE
8
annotation
62
1
39
211
10
148.023495
20
41.226256
11
148.023495
21
41.226256
0
LINE
8
annotation
62
1
39
211
10
148.023495
20
41.226256
11
148.006296
21
41.417115
0
LINE
8
annotation
62
1
39
211
10
148.006296
20
41.417115
11
147.956719
21
41.596943
0
LINE
8
annotation
62
1
39
211
10
147.956719
20
41.596943
11
147.877793
21
41.762688
0
LINE
8
annotation
62
1
39
211
10
147.877793
20
41.762688
11
147.772548
21
41.911302
0
LINE
8
annotation
62
1
39
211
10
147.772548
20
41.911302
11
147.644015
21
42.039734
0
LINE
8
annotation
62
1
39
211
10
147.644015
20
42.039734
11
147.495224
21
42.144934
0
LINE
8
annotation
62
1
39
211
10
147.495224
20
42.144934
11
147.329204
21
42.223853
0
LINE
8
annotation
62
1
39
211
10
147.329204
20
42.223853
11
147.148985
21
42.273441
0
LINE
8
annotation
62
1
39
211
10
147.148985
20
42.273441
11
146.957598
21
42.290648
0
LINE
8
annotation
62
1
39
211
10
146.957598
20
42.290648
11
146.957598
21
42.290648
0
LINE
8
annotation
62
1
39
211
10
146.957598
20
42.290648
11
146.766211
21
42.273441
0
LINE
8
annotation
62
1
39
211
10
146.766211
20
42.273441
11
146.585992
21
42.223853
0
LINE
8
annotation
62
1
39
211
10
146.585992
20
42.223853
11
146.419972
21
42.144934
0
LINE
8
annotation
62
1
39
211
10
146.419972
20
42.144934
11
146.271181
21
42.039734
0
LINE
8
annotation
62
1
39
211
10
146.271181
20
42.039734
11
146.142648
21
41.911302
0
LINE
8
annotation
62
1
39
211
10
146.142648
20
41.911302
11
146.037403
21
41.762688
0
LINE
8
annotation
62
1
39
211
10
146.037403
20
41.762688
11
145.958477
21
41.596943
0
LINE
8
annotation
62
1
39
211
10
145.958477
20
41.596943
11
145.908900
21
41.417115
0
LINE
8
annotation
62
1
39
211
10
145.908900
20
41.417115
11
145.891701
21
41.226256
0
LINE
8
annotation
62
1
39
211
10
145.891701
20
41.226256
11
145.891701
21
41.226256
0
LINE
8
annotation
62
1
39
211
10
145.891701
20
41.226256
11
145.908910
21
41.034500
0
LINE
8
annotation
62
1
39
211
10
145.908910
20
41.034500
11
145.958512
21
40.853974
0
LINE
8
annotation
62
1
39
211
10
145.958512
20
40.853974
11
146.037470
21
40.687705
0
LINE
8
annotation
62
1
39
211
10
146.037470
20
40.687705
11
146.142747
21
40.538715
0
LINE
8
annotation
62
1
39
211
10
146.142747
20
40.538715
11
146.271305
21
40.410032
0
LINE
8
annotation
62
1
39
211
10
146.271305
20
40.410032
11
146.420106
21
40.304679
0
LINE
8
annotation
62
1
39
211
10
146.420106
20
40.304679
11
146.586114
21
40.225681
0
LINE
8
annotation
62
1
39
211
10
146.586114
20
40.225681
11
146.766290
21
40.176064
0
LINE
8
annotation
62
1
39
211
10
146.766290
20
40.176064
11
146.957598
21
40.158853
0
LINE
8
annotation
62
1
39
211
10
146.957598
20
40.158853
11
146.957598
21
40.158853
0
LINE
8
annotation
62
1
39
211
10
146.957598
20
40.158853
11
147.148906
21
40.176064
0
LINE
8
annotation
62
1
39
211
10
147.148906
20
40.176064
11
147.329082
21
40.225681
0
LINE
8
annotation
62
1
39
211
10
147.329082
20
40.225681
11
147.495090
21
40.304679
0
LINE
8
annotation
62
1
39
211
10
147.495090
20
40.304679
11
147.643891
21
40.410032
0
LINE
8
annotation
62
1
39
211
10
147.643891
20
40.410032
11
147.772449
21
40.538715
0
LINE
8
annotation
62
1
39
211
10
147.772449
20
40.538715
11
147.877726
21
40.687705
0
LINE
8
annotation
62
1
39
211
10
147.877726
20
40.687705
11
147.956684
21
40.853974
0
LINE
8
annotation
62
1
39
211
10
147.956684
20
40.853974
11
148.006286
21
41.034500
0
LINE
8
annotation
62
1
39
211
10
148.006286
20
41.034500
11
148.023495
21
41.226256
0
LINE
8
annotation
62
1
39
211
10
150.156648
20
56.373271
11
150.156648
21
56.373271
0
LINE
8
annotation
62
1
39
211
10
150.156648
20
56.373271
11
150.461463
21
56.486861
0
LINE
8
annotation
62
1
39
211
10
150.461463
20
56.486861
11
150.741246
21
56.640397
0
LINE
8
annotation
62
1
39
211
10
150.741246
20
56.640397
11
150.993105
21
56.829968
0
LINE
8
annotation
62
1
39
211
10
150.993105
20
56.829968
11
151.214148
21
57.051663
0
LINE
8
annotation
62
1
39
211
10
151.214148
20
57.051663
11
151.401485
21
57.301569
0
LINE
8
annotation
62
1
39
211
10
151.401485
20
57.301569
11
151.552225
21
57.575774
0
LINE
8
annotation
62
1
39
211
10
151.552225
20
57.575774
11
151.663476
21
57.870367
0
LINE
8
annotation
62
1
39
211
10
151.663476
20
57.870367
11
151.732346
21
58.181435
0
LINE
8
annotation
62
1
39
211
10
151.732346
20
58.181435
11
151.755946
21
58.505066
0
LINE
8
annotation
62
1
39
211
10
151.755946
20
58.505066
11
151.755946
21
60.105869
0
LINE
8
annotation
62
1
39
211
10
151.755946
20
60.105869
11
151.755946
21
60.105869
0
LINE
8
annotation
62
1
39
211
10
151.755946
20
60.105869
11
151.738786
21
60.297625
0
LINE
8
annotation
62
1
39
211
10
151.738786
20
60.297625
11
151.689308
21
60.478150
0
LINE
8
annotation
62
1
39
211
10
151.689308
20
60.478150
11
151.610511
21
60.644420
0
LINE
8
annotation
62
1
39
211
10
151.610511
20
60.644420
11
151.505395
21
60.793409
0
LINE
8
annotation
62
1
39
211
10
151.505395
20
60.793409
11
151.376961
21
60.922093
0
LINE
8
annotation
62
1
39
211
10
151.376961
20
60.922093
11
151.228209
21
61.027446
0
LINE
8
annotation
62
1
39
211
10
151.228209
20
61.027446
11
151.062140
21
61.106443
0
LINE
8
annotation
62
1
39
211
10
151.062140
20
61.106443
11
150.881753
21
61.156060
0
LINE
8
annotation
62
1
39
211
10
150.881753
20
61.156060
11
150.690048
21
61.173271
0
LINE
8
annotation
62
1
39
211
10
150.690048
20
61.173271
11
150.690048
21
61.173271
0
LINE
8
annotation
62
1
39
211
10
150.690048
20
61.173271
11
150.498741
21
61.156060
0
LINE
8
annotation
62
1
39
211
10
150.498741
20
61.156060
11
150.318564
21
61.106443
0
LINE
8
annotation
62
1
39
211
10
150.318564
20
61.106443
11
150.152557
21
61.027446
0
LINE
8
annotation
62
1
39
211
10
150.152557
20
61.027446
11
150.003755
21
60.922093
0
LINE
8
annotation
62
1
39
211
10
150.003755
20
60.922093
11
149.875198
21
60.793409
0
LINE
8
annotation
62
1
39
211
10
149.875198
20
60.793409
11
149.769921
21
60.644420
0
LINE
8
annotation
62
1
39
211
10
149.769921
20
60.644420
11
149.690963
21
60.478150
0
LINE
8
annotation
62
1
39
211
10
149.690963
20
60.478150
11
149.641360
21
60.297625
0
LINE
8
annotation
62
1
39
211
10
149.641360
20
60.297625
11
149.624151
21
60.105869
0
LINE
8
annotation
62
1
39
211
10
149.624151
20
60.105869
11
149.624151
21
59.572168
0
LINE
8
annotation
62
1
39
211
10
149.624151
20
59.572168
11
149.624151
21
59.572168
0
LINE
8
annotation
62
1
39
211
10
149.624151
20
59.572168
11
149.641360
21
59.380422
0
LINE
8
annotation
62
1
39
211
10
149.641360
20
59.380422
11
149.690963
21
59.199925
0
LINE
8
annotation
62
1
39
211
10
149.690963
20
59.199925
11
149.769921
21
59.033695
0
LINE
8
annotation
62
1
39
211
10
149.769921
20
59.033695
11
149.875198
21
58.884753
0
LINE
8
annotation
62
1
39
211
10
149.875198
20
58.884753
11
150.003755
21
58.756119
0
LINE
8
annotation
62
1
39
211
10
150.003755
20
58.756119
11
150.152557
21
58.650814
0
LINE
8
annotation
62
1
39
211
10
150.152557
20
58.650814
11
150.318564
21
58.571856
0
LINE
8
annotation
62
1
39
211
10
150.318564
20
58.571856
11
150.498741
21
58.522267
0
LINE
8
annotation
62
1
39
211
10
150.498741
20
58.522267
11
150.690048
21
58.505066
0
LINE
8
annotation
62
1
39
211
10
150.690048
20
58.505066
11
151.755946
21
58.505066
0
LINE
8
annotation
62
1
39
211
10
149.490952
20
55.773271
11
151.890952
21
55.773271
0
LINE
8
annotation
62
1
39
211
10
152.750793
20
75.341165
11
152.750793
21
79.958885
0
LINE
8
annotation
62
1
39
211
10
152.750793
20
79.958885
11
151.724214
21
78.932017
0
LINE
8
annotation
62
1
39
211
10
155.224021
20
75.402075
11
155.224021
21
75.402075
0
LINE
8
annotation
62
1
39
211
10
155.224021
20
75.402075
11
155.331343
21
75.361955
0
LINE
8
annotation
62
1
39
211
10
155.331343
20
75.361955
11
155.441410
21
75.342023
0
LINE
8
annotation
62
1
39
211
10
155.441410
20
75.342023
11
155.551735
21
75.341466
0
LINE
8
annotation
62
1
39
211
10
155.551735
20
75.341466
11
155.659829
21
75.359470
0
LINE
8
annotation
62
1
39
211
10
155.659829
20
75.359470
11
155.763203
21
75.395224
0
LINE
8
annotation
62
1
39
211
10
155.763203
20
75.395224
11
155.859370
21
75.447915
0
LINE
8
annotation
62
1
39
211
10
155.859370
20
75.447915
11
155.945842
21
75.516729
0
LINE
8
annotation
62
1
39
211
10
155.945842
20
75.516729
11
156.020129
21
75.600855
0
LINE
8
annotation
62
1
39
211
10
156.020129
20
75.600855
11
156.079744
21
75.699478
0
LINE
8
annotation
62
1
39
211
10
156.079744
20
75.699478
11
156.079744
21
75.699478
0
LINE
8
annotation
62
1
39
211
10
156.079744
20
75.699478
11
156.257614
21
76.115825
0
LINE
8
annotation
62
1
39
211
10
156.257614
20
76.115825
11
156.391016
21
76.544223
0
LINE
8
annotation
62
1
39
211
10
156.391016
20
76.544223
11
156.479951
21
76.981256
0
LINE
8
annotation
62
1
39
211
10
156.479951
20
76.981256
11
156.524418
21
77.423508
0
LINE
8
annotation
62
1
39
211
10
156.524418
20
77.423508
11
156.524418
21
77.867565
0
LINE
8
annotation
62
1
39
211
10
156.524418
20
77.867565
11
156.479951
21
78.310011
0
LINE
8
annotation
62
1
39
211
10
156.479951
20
78.310011
11
156.391016
21
78.747429
0
LINE
8
annotation
62
1
39
211
10
156.391016
20
78.747429
11
156.257614
21
79.176406
0
LINE
8
annotation
62
1
39
211
10
156.257614
20
79.176406
11
156.079744
21
79.593526
0
LINE
8
annotation
62
1
39
211
10
156.079744
20
79.593526
11
156.079744
21
79.593526
0
LINE
8
annotation
62
1
39
211
10
156.079744
20
79.593526
11
156.057125
21
79.635622
0
LINE
8
annotation
62
1
39
211
10
156.057125
20
79.635622
11
156.031480
21
79.675869
0
LINE
8
annotation
62
1
39
211
10
156.031480
20
79.675869
11
156.003004
21
79.714068
0
LINE
8
annotation
62
1
39
211
10
156.003004
20
79.714068
11
155.971890
21
79.750022
0
LINE
8
annotation
62
1
39
211
10
155.971890
20
79.750022
11
155.938331
21
79.783533
0
LINE
8
annotation
62
1
39
211
10
155.938331
20
79.783533
11
155.902519
21
79.814404
0
LINE
8
annotation
62
1
39
211
10
155.902519
20
79.814404
11
155.864647
21
79.842435
0
LINE
8
annotation
62
1
39
211
10
155.864647
20
79.842435
11
155.824910
21
79.867431
0
LINE
8
annotation
62
1
39
211
10
155.824910
20
79.867431
11
155.783499
21
79.889192
0
LINE
8
annotation
62
1
39
211
10
155.783499
20
79.889192
11
155.783499
21
79.889192
0
LINE
8
annotation
62
1
39
211
10
155.783499
20
79.889192
11
155.675326
21
79.930181
0
LINE
8
annotation
62
1
39
211
10
155.675326
20
79.930181
11
155.564614
21
79.950794
0
LINE
8
annotation
62
1
39
211
10
155.564614
20
79.950794
11
155.453823
21
79.951849
0
LINE
8
annotation
62
1
39
211
10
155.453823
20
79.951849
11
155.345413
21
79.934164
0
LINE
8
annotation
62
1
39
211
10
155.345413
20
79.934164
11
155.241844
21
79.898555
0
LINE
8
annotation
62
1
39
211
10
155.241844
20
79.898555
11
155.145576
21
79.845840
0
LINE
8
annotation
62
1
39
211
10
155.145576
20
79.845840
11
155.059068
21
79.776837
0
LINE
8
annotation
62
1
39
211
10
155.059068
20
79.776837
11
154.984779
21
79.692363
0
LINE
8
annotation
62
1
39
211
10
154.984779
20
79.692363
11
154.925170
21
79.593236
0
LINE
8
annotation
62
1
39
211
10
154.925170
20
79.593236
11
154.925170
21
79.593236
0
LINE
8
annotation
62
1
39
211
10
154.925170
20
79.593236
11
154.748158
21
79.176975
0
LINE
8
annotation
62
1
39
211
10
154.748158
20
79.176975
11
154.615400
21
78.748641
0
LINE
8
annotation
62
1
39
211
10
154.615400
20
78.748641
11
154.526894
21
78.311652
0
LINE
8
annotation
62
1
39
211
10
154.526894
20
78.311652
11
154.482641
21
77.869421
0
LINE
8
annotation
62
1
39
211
10
154.482641
20
77.869421
11
154.482641
21
77.425364
0
LINE
8
annotation
62
1
39
211
10
154.482641
20
77.425364
11
154.526894
21
76.982897
0
LINE
8
annotation
62
1
39
211
10
154.526894
20
76.982897
11
154.615400
21
76.545435
0
LINE
8
annotation
62
1
39
211
10
154.615400
20
76.545435
11
154.748158
21
76.116394
0
LINE
8
annotation
62
1
39
211
10
154.748158
20
76.116394
11
154.925170
21
75.699189
0
LINE
8
annotation
62
1
39
211
10
154.925170
20
75.699189
11
154.925170
21
75.699189
0
LINE
8
annotation
62
1
39
211
10
154.925170
20
75.699189
11
154.947707
21
75.657176
0
LINE
8
annotation
62
1
39
211
10
154.947707
20
75.657176
11
154.973162
21
75.617130
0
LINE
8
annotation
62
1
39
211
10
154.973162
20
75.617130
11
155.001427
21
75.579172
0
LINE
8
annotation
62
1
39
211
10
155.001427
20
75.579172
11
155.032395
21
75.543423
0
LINE
8
annotation
62
1
39
211
10
155.032395
20
75.543423
11
155.065958
21
75.510005
0
LINE
8
annotation
62
1
39
211
10
155.065958
20
75.510005
11
155.102010
21
75.479040
0
LINE
8
annotation
62
1
39
211
10
155.102010
20
75.479040
11
155.140442
21
75.450649
0
LINE
8
annotation
62
1
39
211
10
155.140442
20
75.450649
11
155.181148
21
75.424953
0
LINE
8
annotation
62
1
39
211
10
155.181148
20
75.424953
11
155.224021
21
75.402075
0
LINE
8
annotation
62
1
39
211
10
156.760882
20
94.126779
11
156.760882
21
98.926779
0
LINE
8
annotation
62
1
39
211
10
156.760882
20
98.926779
11
155.693781
21
97.859377
0
LINE
8
annotation
62
1
39
211
10
159.627983
20
94.126779
11
159.627983
21
98.926779
0
LINE
8
annotation
62
1
39
211
10
159.627983
20
98.926779
11
158.560882
21
97.859377
0
LINE
8
annotation
62
1
39
211
10
160.030688
20
113.099358
11
160.030688
21
117.707708
0
LINE
8
annotation
62
1
39
211
10
160.030688
20
117.707708
11
159.006193
21
116.682923
0
LINE
8
annotation
62
1
39
211
10
163.805701
20
113.099321
11
161.759023
21
113.099321
0
LINE
8
annotation
62
1
39
211
10
161.759023
20
113.099321
11
163.650220
21
116.143906
0
LINE
8
annotation
62
1
39
211
10
163.650220
20
116.143906
11
163.650220
21
116.143906
0
LINE
8
annotation
62
1
39
211
10
163.650220
20
116.143906
11
163.652481
21
116.146704
0
LINE
8
annotation
62
1
39
211
10
163.652481
20
116.146704
11
163.654649
21
116.149525
0
LINE
8
annotation
62
1
39
211
10
163.654649
20
116.149525
11
163.656739
21
116.152394
0
LINE
8
annotation
62
1
39
211
10
163.656739
20
116.152394
11
163.658764
21
116.155334
0
LINE
8
annotation
62
1
39
211
10
163.658764
20
116.155334
11
163.660740
21
116.158370
0
LINE
8
annotation
62
1
39
211
10
163.660740
20
116.158370
11
163.662679
21
116.161524
0
LINE
8
annotation
62
1
39
211
10
163.662679
20
116.161524
11
163.664598
21
116.164821
0
LINE
8
annotation
62
1
39
211
10
163.664598
20
116.164821
11
163.666509
21
116.168285
0
LINE
8
annotation
62
1
39
211
10
163.666509
20
116.168285
11
163.668427
21
116.171939
0
LINE
8
annotation
62
1
39
211
10
163.668427
20
116.171939
11
163.668427
21
116.171939
0
LINE
8
annotation
62
1
39
211
10
163.668427
20
116.171939
11
163.746514
21
116.339599
0
LINE
8
annotation
62
1
39
211
10
163.746514
20
116.339599
11
163.792131
21
116.513393
0
LINE
8
annotation
62
1
39
211
10
163.792131
20
116.513393
11
163.806397
21
116.689394
0
LINE
8
annotation
62
1
39
211
10
163.806397
20
116.689394
11
163.790428
21
116.863675
0
LINE
8
annotation
62
1
39
211
10
163.790428
20
116.863675
11
163.745342
21
117.032310
0
LINE
8
annotation
62
1
39
211
10
163.745342
20
117.032310
11
163.672259
21
117.191371
0
LINE
8
annotation
62
1
39
211
10
163.672259
20
117.191371
11
163.572295
21
117.336931
0
LINE
8
annotation
62
1
39
211
10
163.572295
20
117.336931
11
163.446569
21
117.465064
0
LINE
8
annotation
62
1
39
211
10
163.446569
20
117.465064
11
163.296199
21
117.571841
0
LINE
8
annotation
62
1
39
211
10
163.296199
20
117.571841
11
163.296199
21
117.571841
0
LINE
8
annotation
62
1
39
211
10
163.296199
20
117.571841
11
163.128073
21
117.648819
0
LINE
8
annotation
62
1
39
211
10
163.128073
20
117.648819
11
162.954013
21
117.693733
0
LINE
8
annotation
62
1
39
211
10
162.954013
20
117.693733
11
162.777909
21
117.707595
0
LINE
8
annotation
62
1
39
211
10
162.777909
20
117.707595
11
162.603654
21
117.691416
0
LINE
8
annotation
62
1
39
211
10
162.603654
20
117.691416
11
162.435138
21
117.646206
0
LINE
8
annotation
62
1
39
211
10
162.435138
20
117.646206
11
162.276253
21
117.572976
0
LINE
8
annotation
62
1
39
211
10
162.276253
20
117.572976
11
162.130890
21
117.472738
0
LINE
8
annotation
62
1
39
211
10
162.130890
20
117.472738
11
162.002941
21
117.346501
0
LINE
8
annotation
62
1
39
211
10
162.002941
20
117.346501
11
161.896296
21
117.195278
0
LINE
8
annotation
62
1
39
211
10
161.896296
20
117.195278
11
161.761913
21
116.937493
0
LINE
8
annotation
62
1
39
211
10
163.947764
20
131.975778
11
163.947764
21
136.584795
0
LINE
8
annotation
62
1
39
211
10
163.947764
20
136.584795
11
162.923121
21
135.559863
0
LINE
8
annotation
62
1
39
211
10
165.676001
20
131.975922
11
166.699489
21
131.975922
0
LINE
8
annotation
62
1
39
211
10
166.699489
20
131.975922
11
166.699489
21
131.975922
0
LINE
8
annotation
62
1
39
211
10
166.699489
20
131.975922
11
166.883565
21
131.992435
0
LINE
8
annotation
62
1
39
211
10
166.883565
20
131.992435
11
167.056775
21
132.040026
0
LINE
8
annotation
62
1
39
211
10
167.056775
20
132.040026
11
167.216237
21
132.115775
0
LINE
8
annotation
62
1
39
211
10
167.216237
20
132.115775
11
167.359070
21
132.216758
0
LINE
8
annotation
62
1
39
211
10
167.359070
20
132.216758
11
167.482394
21
132.340056
0
LINE
8
annotation
62
1
39
211
10
167.482394
20
132.340056
11
167.583328
21
132.482747
0
LINE
8
annotation
62
1
39
211
10
167.583328
20
132.482747
11
167.658990
21
132.641910
0
LINE
8
annotation
62
1
39
211
10
167.658990
20
132.641910
11
167.706499
21
132.814623
0
LINE
8
annotation
62
1
39
211
10
167.706499
20
132.814623
11
167.722976
21
132.997965
0
LINE
8
annotation
62
1
39
211
10
167.722976
20
132.997965
11
167.722976
21
133.510431
0
LINE
8
annotation
62
1
39
211
10
167.722976
20
133.510431
11
167.722976
21
133.510431
0
LINE
8
annotation
62
1
39
211
10
167.722976
20
133.510431
11
167.706499
21
133.693697
0
LINE
8
annotation
62
1
39
211
10
167.706499
20
133.693697
11
167.658990
21
133.866369
0
LINE
8
annotation
62
1
39
211
10
167.658990
20
133.866369
11
167.583328
21
134.025520
0
LINE
8
annotation
62
1
39
211
10
167.583328
20
134.025520
11
167.482394
21
134.168221
0
LINE
8
annotation
62
1
39
211
10
167.482394
20
134.168221
11
167.359070
21
134.291542
0
LINE
8
annotation
62
1
39
211
10
167.359070
20
134.291542
11
167.216237
21
134.392557
0
LINE
8
annotation
62
1
39
211
10
167.216237
20
134.392557
11
167.056775
21
134.468336
0
LINE
8
annotation
62
1
39
211
10
167.056775
20
134.468336
11
166.883565
21
134.515951
0
LINE
8
annotation
62
1
39
211
10
166.883565
20
134.515951
11
166.699489
21
134.532473
0
LINE
8
annotation
62
1
39
211
10
166.699489
20
134.532473
11
166.187022
21
134.532473
0
LINE
8
annotation
62
1
39
211
10
166.187022
20
134.532473
11
166.699489
21
134.532473
0
LINE
8
annotation
62
1
39
211
10
166.699489
20
134.532473
11
166.699489
21
134.532473
0
LINE
8
annotation
62
1
39
211
10
166.699489
20
134.532473
11
166.883565
21
134.549000
0
LINE
8
annotation
62
1
39
211
10
166.883565
20
134.549000
11
167.056775
21
134.596642
0
LINE
8
annotation
62
1
39
211
10
167.056775
20
134.596642
11
167.216237
21
134.672497
0
LINE
8
annotation
62
1
39
211
10
167.216237
20
134.672497
11
167.359070
21
134.773658
0
LINE
8
annotation
62
1
39
211
10
167.359070
20
134.773658
11
167.482394
21
134.897222
0
LINE
8
annotation
62
1
39
211
10
167.482394
20
134.897222
11
167.583328
21
135.040283
0
LINE
8
annotation
62
1
39
211
10
167.583328
20
135.040283
11
167.658990
21
135.199937
0
LINE
8
annotation
62
1
39
211
10
167.658990
20
135.199937
11
167.706499
21
135.373280
0
LINE
8
annotation
62
1
39
211
10
167.706499
20
135.373280
11
167.722976
21
135.557406
0
LINE
8
annotation
62
1
39
211
10
167.722976
20
135.557406
11
167.722976
21
135.557406
0
LINE
8
annotation
62
1
39
211
10
167.722976
20
135.557406
11
167.706499
21
135.740672
0
LINE
8
annotation
62
1
39
211
10
167.706499
20
135.740672
11
167.658990
21
135.913344
0
LINE
8
annotation
62
1
39
211
10
167.658990
20
135.913344
11
167.583328
21
136.072495
0
LINE
8
annotation
62
1
39
211
10
167.583328
20
136.072495
11
167.482394
21
136.215195
0
LINE
8
annotation
62
1
39
211
10
167.482394
20
136.215195
11
167.359070
21
136.338517
0
LINE
8
annotation
62
1
39
211
10
167.359070
20
136.338517
11
167.216237
21
136.439532
0
LINE
8
annotation
62
1
39
211
10
167.216237
20
136.439532
11
167.056775
21
136.515311
0
LINE
8
annotation
62
1
39
211
10
167.056775
20
136.515311
11
166.883565
21
136.562926
0
LINE
8
annotation
62
1
39
211
10
166.883565
20
136.562926
11
166.699489
21
136.579448
0
LINE
8
annotation
62
1
39
211
10
166.699489
20
136.579448
11
165.676001
21
136.579448
0
LINE
8
annotation
62
1
39
211
10
168.007005
20
151.074723
11
168.007005
21
155.239358
0
LINE
8
annotation
62
1
39
211
10
168.007005
20
155.239358
11
167.081153
21
154.313245
0
LINE
8
annotation
62
1
39
211
10
171.881023
20
152.000574
11
169.568613
21
152.000574
0
LINE
8
annotation
62
1
39
211
10
169.568613
20
152.000574
11
170.492114
21
155.239358
0
LINE
8
annotation
62
1
39
211
10
171.187874
20
151.074723
11
171.187874
21
152.924337
0
LINE
8
annotation
62
1
39
211
10
172.587377
20
169.729286
11
172.587377
21
174.338303
0
LINE
8
annotation
62
1
39
211
10
172.587377
20
174.338303
11
171.562733
21
173.313370
0
LINE
8
annotation
62
1
39
211
10
174.315614
20
169.729286
11
175.339101
21
169.729286
0
LINE
8
annotation
62
1
39
211
10
175.339101
20
169.729286
11
175.339101
21
169.729286
0
LINE
8
annotation
62
1
39
211
10
175.339101
20
169.729286
11
175.522798
21
169.745802
0
LINE
8
annotation
62
1
39
211
10
175.522798
20
169.745802
11
175.695805
21
169.793418
0
LINE
8
annotation
62
1
39
211
10
175.695805
20
169.793418
11
175.855208
21
169.869234
0
LINE
8
annotation
62
1
39
211
10
175.855208
20
169.869234
11
175.998088
21
169.970350
0
LINE
8
annotation
62
1
39
211
10
175.998088
20
169.970350
11
176.121531
21
170.093865
0
LINE
8
annotation
62
1
39
211
10
176.121531
20
170.093865
11
176.222619
21
170.236881
0
LINE
8
annotation
62
1
39
211
10
176.222619
20
170.236881
11
176.298436
21
170.396497
0
LINE
8
annotation
62
1
39
211
10
176.298436
20
170.396497
11
176.346065
21
170.569813
0
LINE
8
annotation
62
1
39
211
10
176.346065
20
170.569813
11
176.362589
21
170.753929
0
LINE
8
annotation
62
1
39
211
10
176.362589
20
170.753929
11
176.362589
21
171.263794
0
LINE
8
annotation
62
1
39
211
10
176.362589
20
171.263794
11
176.362589
21
171.263794
0
LINE
8
annotation
62
1
39
211
10
176.362589
20
171.263794
11
176.346074
21
171.447821
0
LINE
8
annotation
62
1
39
211
10
176.346074
20
171.447821
11
176.298469
21
171.620898
0
LINE
8
annotation
62
1
39
211
10
176.298469
20
171.620898
11
176.222683
21
171.780168
0
LINE
8
annotation
62
1
39
211
10
176.222683
20
171.780168
11
176.121626
21
171.922773
0
LINE
8
annotation
62
1
39
211
10
176.121626
20
171.922773
11
175.998207
21
172.045857
0
LINE
8
annotation
62
1
39
211
10
175.998207
20
172.045857
11
175.855336
21
172.146562
0
LINE
8
annotation
62
1
39
211
10
175.855336
20
172.146562
11
175.695922
21
172.222032
0
LINE
8
annotation
62
1
39
211
10
175.695922
20
172.222032
11
175.522874
21
172.269409
0
LINE
8
annotation
62
1
39
211
10
175.522874
20
172.269409
11
175.339101
21
172.285836
0
LINE
8
annotation
62
1
39
211
10
175.339101
20
172.285836
11
174.315614
21
172.285836
0
LINE
8
annotation
62
1
39
211
10
174.315614
20
172.285836
11
174.315614
21
174.338303
0
LINE
8
annotation
62
1
39
211
10
174.315614
20
174.338303
11
176.362589
21
174.338303
0
LINE
8
annotation
62
1
39
211
10
177.415483
20
188.606039
11
177.415483
21
193.215057
0
LINE
8
annotation
62
1
39
211
10
177.415483
20
193.215057
11
176.390840
21
192.190124
0
LINE
8
annotation
62
1
39
211
10
180.681119
20
193.215057
11
180.681119
21
193.215057
0
LINE
8
annotation
62
1
39
211
10
180.681119
20
193.215057
11
180.387916
21
193.105123
0
LINE
8
annotation
62
1
39
211
10
180.387916
20
193.105123
11
180.118863
21
192.957001
0
LINE
8
annotation
62
1
39
211
10
180.118863
20
192.957001
11
179.876723
21
192.774401
0
LINE
8
annotation
62
1
39
211
10
179.876723
20
192.774401
11
179.664258
21
192.561034
0
LINE
8
annotation
62
1
39
211
10
179.664258
20
192.561034
11
179.484230
21
192.320612
0
LINE
8
annotation
62
1
39
211
10
179.484230
20
192.320612
11
179.339400
21
192.056845
0
LINE
8
annotation
62
1
39
211
10
179.339400
20
192.056845
11
179.232530
21
191.773445
0
LINE
8
annotation
62
1
39
211
10
179.232530
20
191.773445
11
179.166383
21
191.474123
0
LINE
8
annotation
62
1
39
211
10
179.166383
20
191.474123
11
179.143720
21
191.162590
0
LINE
8
annotation
62
1
39
211
10
179.143720
20
191.162590
11
179.143720
21
189.630683
0
LINE
8
annotation
62
1
39
211
10
179.143720
20
189.630683
11
179.143720
21
189.630683
0
LINE
8
annotation
62
1
39
211
10
179.143720
20
189.630683
11
179.160245
21
189.446567
0
LINE
8
annotation
62
1
39
211
10
179.160245
20
189.446567
11
179.207873
21
189.273251
0
LINE
8
annotation
62
1
39
211
10
179.207873
20
189.273251
11
179.283690
21
189.113635
0
LINE
8
annotation
62
1
39
211
10
179.283690
20
189.113635
11
179.384778
21
188.970619
0
LINE
8
annotation
62
1
39
211
10
179.384778
20
188.970619
11
179.508221
21
188.847103
0
LINE
8
annotation
62
1
39
211
10
179.508221
20
188.847103
11
179.651101
21
188.745988
0
LINE
8
annotation
62
1
39
211
10
179.651101
20
188.745988
11
179.810504
21
188.670172
0
LINE
8
annotation
62
1
39
211
10
179.810504
20
188.670172
11
179.983512
21
188.622556
0
LINE
8
annotation
62
1
39
211
10
179.983512
20
188.622556
11
180.167208
21
188.606039
0
LINE
8
annotation
62
1
39
211
10
180.167208
20
188.606039
11
180.167208
21
188.606039
0
LINE
8
annotation
62
1
39
211
10
180.167208
20
188.606039
11
180.351284
21
188.622556
0
LINE
8
annotation
62
1
39
211
10
180.351284
20
188.622556
11
180.524494
21
188.670172
0
LINE
8
annotation
62
1
39
211
10
180.524494
20
188.670172
11
180.683956
21
188.745988
0
LINE
8
annotation
62
1
39
211
10
180.683956
20
188.745988
11
180.826789
21
188.847103
0
LINE
8
annotation
62
1
39
211
10
180.826789
20
188.847103
11
180.950113
21
188.970619
0
LINE
8
annotation
62
1
39
211
10
180.950113
20
188.970619
11
181.051046
21
189.113635
0
LINE
8
annotation
62
1
39
211
10
181.051046
20
189.113635
11
181.126708
21
189.273251
0
LINE
8
annotation
62
1
39
211
10
181.126708
20
189.273251
11
181.174218
21
189.446567
0
LINE
8
annotation
62
1
39
211
10
181.174218
20
189.446567
11
181.190695
21
189.630683
0
LINE
8
annotation
62
1
39
211
10
181.190695
20
189.630683
11
181.190695
21
190.140548
0
LINE
8
annotation
62
1
39
211
10
181.190695
20
190.140548
11
181.190695
21
190.140548
0
LINE
8
annotation
62
1
39
211
10
181.190695
20
190.140548
11
181.174218
21
190.324575
0
LINE
8
annotation
62
1
39
211
10
181.174218
20
190.324575
11
181.126708
21
190.497652
0
LINE
8
annotation
62
1
39
211
10
181.126708
20
190.497652
11
181.051046
21
190.656922
0
LINE
8
annotation
62
1
39
211
10
181.051046
20
190.656922
11
180.950113
21
190.799527
0
LINE
8
annotation
62
1
39
211
10
180.950113
20
190.799527
11
180.826789
21
190.922611
0
LINE
8
annotation
62
1
39
211
10
180.826789
20
190.922611
11
180.683956
21
191.023316
0
LINE
8
annotation
62
1
39
211
10
180.683956
20
191.023316
11
180.524494
21
191.098786
0
LINE
8
annotation
62
1
39
211
10
180.524494
20
191.098786
11
180.351284
21
191.146163
0
LINE
8
annotation
62
1
39
211
10
180.351284
20
191.146163
11
180.167208
21
191.162590
0
LINE
8
annotation
62
1
39
211
10
180.167208
20
191.162590
11
179.143720
21
191.162590
0
LINE
8
annotation
62
1
39
211
10
179.015531
20
188.029912
11
181.320040
21
188.029912
0
LINE
8
annotation
62
1
39
211
10
182.435622
20
207.484041
11
182.435622
21
212.090562
0
LINE
8
annotation
62
1
39
211
10
182.435622
20
212.090562
11
181.411533
21
211.066185
0
LINE
8
annotation
62
1
39
211
10
185.187156
20
207.484041
11
186.211244
21
212.090562
0
LINE
8
annotation
62
1
39
211
10
186.211244
20
212.090562
11
184.162778
21
212.090562
0
LINE
8
annotation
62
1
39
211
10
186.211244
20
210.039207
11
185.187156
21
210.039207
0
LINE
8
annotation
62
1
39
211
10
187.637609
20
226.359547
11
187.637609
21
230.968564
0
LINE
8
annotation
62
1
39
211
10
187.637609
20
230.968564
11
186.612965
21
229.943632
0
LINE
8
annotation
62
1
39
211
10
189.365846
20
227.381445
11
189.365846
21
227.381445
0
LINE
8
annotation
62
1
39
211
10
189.365846
20
227.381445
11
189.382370
21
227.197418
0
LINE
8
annotation
62
1
39
211
10
189.382370
20
227.197418
11
189.429999
21
227.024341
0
LINE
8
annotation
62
1
39
211
10
189.429999
20
227.024341
11
189.505816
21
226.865071
0
LINE
8
annotation
62
1
39
211
10
189.505816
20
226.865071
11
189.606904
21
226.722466
0
LINE
8
annotation
62
1
39
211
10
189.606904
20
226.722466
11
189.730346
21
226.599382
0
LINE
8
annotation
62
1
39
211
10
189.730346
20
226.599382
11
189.873227
21
226.498676
0
LINE
8
annotation
62
1
39
211
10
189.873227
20
226.498676
11
190.032630
21
226.423207
0
LINE
8
annotation
62
1
39
211
10
190.032630
20
226.423207
11
190.205637
21
226.375830
0
LINE
8
annotation
62
1
39
211
10
190.205637
20
226.375830
11
190.389333
21
226.359402
0
LINE
8
annotation
62
1
39
211
10
190.389333
20
226.359402
11
190.389333
21
226.359402
0
LINE
8
annotation
62
1
39
211
10
190.389333
20
226.359402
11
190.573029
21
226.375830
0
LINE
8
annotation
62
1
39
211
10
190.573029
20
226.375830
11
190.746037
21
226.423207
0
LINE
8
annotation
62
1
39
211
10
190.746037
20
226.423207
11
190.905439
21
226.498676
0
LINE
8
annotation
62
1
39
211
10
190.905439
20
226.498676
11
191.048320
21
226.599382
0
LINE
8
annotation
62
1
39
211
10
191.048320
20
226.599382
11
191.171763
21
226.722466
0
LINE
8
annotation
62
1
39
211
10
191.171763
20
226.722466
11
191.272851
21
226.865071
0
LINE
8
annotation
62
1
39
211
10
191.272851
20
226.865071
11
191.348667
21
227.024341
0
LINE
8
annotation
62
1
39
211
10
191.348667
20
227.024341
11
191.396296
21
227.197418
0
LINE
8
annotation
62
1
39
211
10
191.396296
20
227.197418
11
191.412821
21
227.381445
0
LINE
8
annotation
62
1
39
211
10
191.412821
20
227.381445
11
191.412821
21
227.891310
0
LINE
8
annotation
62
1
39
211
10
191.412821
20
227.891310
11
191.412821
21
227.891310
0
LINE
8
annotation
62
1
39
211
10
191.412821
20
227.891310
11
191.396306
21
228.075426
0
LINE
8
annotation
62
1
39
211
10
191.396306
20
228.075426
11
191.348701
21
228.248742
0
LINE
8
annotation
62
1
39
211
10
191.348701
20
228.248742
11
191.272915
21
228.408358
0
LINE
8
annotation
62
1
39
211
10
191.272915
20
228.408358
11
191.171858
21
228.551373
0
LINE
8
annotation
62
1
39
211
10
191.171858
20
228.551373
11
191.048439
21
228.674889
0
LINE
8
annotation
62
1
39
211
10
191.048439
20
228.674889
11
190.905568
21
228.776005
0
LINE
8
annotation
62
1
39
211
10
190.905568
20
228.776005
11
190.746153
21
228.851821
0
LINE
8
annotation
62
1
39
211
10
190.746153
20
228.851821
11
190.573105
21
228.899437
0
LINE
8
annotation
62
1
39
211
10
190.573105
20
228.899437
11
190.389333
21
228.915953
0
LINE
8
annotation
62
1
39
211
10
190.389333
20
228.915953
11
190.389333
21
228.915953
0
LINE
8
annotation
62
1
39
211
10
190.389333
20
228.915953
11
190.205561
21
228.899427
0
LINE
8
annotation
62
1
39
211
10
190.205561
20
228.899427
11
190.032513
21
228.851787
0
LINE
8
annotation
62
1
39
211
10
190.032513
20
228.851787
11
189.873099
21
228.775940
0
LINE
8
annotation
62
1
39
211
10
189.873099
20
228.775940
11
189.730227
21
228.674794
0
LINE
8
annotation
62
1
39
211
10
189.730227
20
228.674794
11
189.606808
21
228.551254
0
LINE
8
annotation
62
1
39
211
10
189.606808
20
228.551254
11
189.505751
21
228.408229
0
LINE
8
annotation
62
1
39
211
10
189.505751
20
228.408229
11
189.429966
21
228.248625
0
LINE
8
annotation
62
1
39
211
10
189.429966
20
228.248625
11
189.382361
21
228.075350
0
LINE
8
annotation
62
1
39
211
10
189.382361
20
228.075350
11
189.365846
21
227.891310
0
LINE
8
annotation
62
1
39
211
10
189.365846
20
227.891310
11
189.365846
21
227.381445
0
LINE
8
annotation
62
1
39
211
10
191.412821
20
229.940886
11
191.412821
21
229.940886
0
LINE
8
annotation
62
1
39
211
10
191.412821
20
229.940886
11
191.396306
21
230.124152
0
LINE
8
annotation
62
1
39
211
10
191.396306
20
230.124152
11
191.348701
21
230.296824
0
LINE
8
annotation
62
1
39
211
10
191.348701
20
230.296824
11
191.272915
21
230.455975
0
LINE
8
annotation
62
1
39
211
10
191.272915
20
230.455975
11
191.171858
21
230.598675
0
LINE
8
annotation
62
1
39
211
10
191.171858
20
230.598675
11
191.048439
21
230.721997
0
LINE
8
annotation
62
1
39
211
10
191.048439
20
230.721997
11
190.905568
21
230.823012
0
LINE
8
annotation
62
1
39
211
10
190.905568
20
230.823012
11
190.746153
21
230.898791
0
LINE
8
annotation
62
1
39
211
10
190.746153
20
230.898791
11
190.573105
21
230.946406
0
LINE
8
annotation
62
1
39
211
10
190.573105
20
230.946406
11
190.389333
21
230.962928
0
LINE
8
annotation
62
1
39
211
10
190.389333
20
230.962928
11
190.389333
21
230.962928
0
LINE
8
annotation
62
1
39
211
10
190.389333
20
230.962928
11
190.205561
21
230.946406
0
LINE
8
annotation
62
1
39
211
10
190.205561
20
230.946406
11
190.032513
21
230.898791
0
LINE
8
annotation
62
1
39
211
10
190.032513
20
230.898791
11
189.873099
21
230.823012
0
LINE
8
annotation
62
1
39
211
10
189.873099
20
230.823012
11
189.730227
21
230.721997
0
LINE
8
annotation
62
1
39
211
10
189.730227
20
230.721997
11
189.606808
21
230.598675
0
LINE
8
annotation
62
1
39
211
10
189.606808
20
230.598675
11
189.505751
21
230.455975
0
LINE
8
annotation
62
1
39
211
10
189.505751
20
230.455975
11
189.429966
21
230.296824
0
LINE
8
annotation
62
1
39
211
10
189.429966
20
230.296824
11
189.382361
21
230.124152
0
LINE
8
annotation
62
1
39
211
10
189.382361
20
230.124152
11
189.365846
21
229.940886
0
LINE
8
annotation
62
1
39
211
10
189.365846
20
229.940886
11
189.365846
21
229.940886
0
LINE
8
annotation
62
1
39
211
10
189.365846
20
229.940886
11
189.382370
21
229.756760
0
LINE
8
annotation
62
1
39
211
10
189.382370
20
229.756760
11
189.429999
21
229.583417
0
LINE
8
annotation
62
1
39
211
10
189.429999
20
229.583417
11
189.505816
21
229.423763
0
LINE
8
annotation
62
1
39
211
10
189.505816
20
229.423763
11
189.606904
21
229.280701
0
LINE
8
annotation
62
1
39
211
10
189.606904
20
229.280701
11
189.730346
21
229.157138
0
LINE
8
annotation
62
1
39
211
10
189.730346
20
229.157138
11
189.873227
21
229.055977
0
LINE
8
annotation
62
1
39
211
10
189.873227
20
229.055977
11
190.032630
21
228.980122
0
LINE
8
annotation
62
1
39
211
10
190.032630
20
228.980122
11
190.205637
21
228.932480
0
LINE
8
annotation
62
1
39
211
10
190.205637
20
228.932480
11
190.389333
21
228.915953
0
LINE
8
annotation
62
1
39
211
10
190.389333
20
228.915953
11
190.389333
21
228.915953
0
LINE
8
annotation
62
1
39
211
10
190.389333
20
228.915953
11
190.573029
21
228.932480
0
LINE
8
annotation
62
1
39
211
10
190.573029
20
228.932480
11
190.746037
21
228.980122
0
LINE
8
annotation
62
1
39
211
10
190.746037
20
228.980122
11
190.905439
21
229.055977
0
LINE
8
annotation
62
1
39
211
10
190.905439
20
229.055977
11
191.048320
21
229.157138
0
LINE
8
annotation
62
1
39
211
10
191.048320
20
229.157138
11
191.171763
21
229.280701
0
LINE
8
annotation
62
1
39
211
10
191.171763
20
229.280701
11
191.272851
21
229.423763
0
LINE
8
annotation
62
1
39
211
10
191.272851
20
229.423763
11
191.348667
21
229.583417
0
LINE
8
annotation
62
1
39
211
10
191.348667
20
229.583417
11
191.396296
21
229.756760
0
LINE
8
annotation
62
1
39
211
10
191.396296
20
229.756760
11
191.412821
21
229.940886
0
LINE
8
annotation
62
1
39
211
10
192.989468
20
245.236301
11
192.989468
21
249.845318
0
LINE
8
annotation
62
1
39
211
10
192.989468
20
249.845318
11
191.964824
21
248.820385
0
LINE
8
annotation
62
1
39
211
10
195.228726
20
245.236301
11
195.228726
21
245.236301
0
LINE
8
annotation
62
1
39
211
10
195.228726
20
245.236301
11
195.521413
21
245.345370
0
LINE
8
annotation
62
1
39
211
10
195.521413
20
245.345370
11
195.790063
21
245.492798
0
LINE
8
annotation
62
1
39
211
10
195.790063
20
245.492798
11
196.031901
21
245.674827
0
LINE
8
annotation
62
1
39
211
10
196.031901
20
245.674827
11
196.244150
21
245.887700
0
LINE
8
annotation
62
1
39
211
10
196.244150
20
245.887700
11
196.424033
21
246.127663
0
LINE
8
annotation
62
1
39
211
10
196.424033
20
246.127663
11
196.568775
21
246.390958
0
LINE
8
annotation
62
1
39
211
10
196.568775
20
246.390958
11
196.675600
21
246.673830
0
LINE
8
annotation
62
1
39
211
10
196.675600
20
246.673830
11
196.741730
21
246.972521
0
LINE
8
annotation
62
1
39
211
10
196.741730
20
246.972521
11
196.764390
21
247.283276
0
LINE
8
annotation
62
1
39
211
10
196.764390
20
247.283276
11
196.764390
21
248.820385
0
LINE
8
annotation
62
1
39
211
10
196.764390
20
248.820385
11
196.764390
21
248.820385
0
LINE
8
annotation
62
1
39
211
10
196.764390
20
248.820385
11
196.747914
21
249.004512
0
LINE
8
annotation
62
1
39
211
10
196.747914
20
249.004512
11
196.700404
21
249.177854
0
LINE
8
annotation
62
1
39
211
10
196.700404
20
249.177854
11
196.624742
21
249.337509
0
LINE
8
annotation
62
1
39
211
10
196.624742
20
249.337509
11
196.523808
21
249.480570
0
LINE
8
annotation
62
1
39
211
10
196.523808
20
249.480570
11
196.400485
21
249.604133
0
LINE
8
annotation
62
1
39
211
10
196.400485
20
249.604133
11
196.257651
21
249.705295
0
LINE
8
annotation
62
1
39
211
10
196.257651
20
249.705295
11
196.098189
21
249.781149
0
LINE
8
annotation
62
1
39
211
10
196.098189
20
249.781149
11
195.924980
21
249.828792
0
LINE
8
annotation
62
1
39
211
10
195.924980
20
249.828792
11
195.740903
21
249.845318
0
LINE
8
annotation
62
1
39
211
10
195.740903
20
249.845318
11
195.740903
21
249.845318
0
LINE
8
annotation
62
1
39
211
10
195.740903
20
249.845318
11
195.557207
21
249.828792
0
LINE
8
annotation
62
1
39
211
10
195.557207
20
249.828792
11
195.384199
21
249.781149
0
LINE
8
annotation
62
1
39
211
10
195.384199
20
249.781149
11
195.224797
21
249.705295
0
LINE
8
annotation
62
1
39
211
10
195.224797
20
249.705295
11
195.081916
21
249.604133
0
LINE
8
annotation
62
1
39
211
10
195.081916
20
249.604133
11
194.958473
21
249.480570
0
LINE
8
annotation
62
1
39
211
10
194.958473
20
249.480570
11
194.857385
21
249.337509
0
LINE
8
annotation
62
1
39
211
10
194.857385
20
249.337509
11
194.781569
21
249.177854
0
LINE
8
annotation
62
1
39
211
10
194.781569
20
249.177854
11
194.733940
21
249.004512
0
LINE
8
annotation
62
1
39
211
10
194.733940
20
249.004512
11
194.717416
21
248.820385
0
LINE
8
annotation
62
1
39
211
10
194.717416
20
248.820385
11
194.717416
21
248.307919
0
LINE
8
annotation
62
1
39
211
10
194.717416
20
248.307919
11
194.717416
21
248.307919
0
LINE
8
annotation
62
1
39
211
10
194.717416
20
248.307919
11
194.733940
21
248.123803
0
LINE
8
annotation
62
1
39
211
10
194.733940
20
248.123803
11
194.781569
21
247.950487
0
LINE
8
annotation
62
1
39
211
10
194.781569
20
247.950487
11
194.857385
21
247.790871
0
LINE
8
annotation
62
1
39
211
10
194.857385
20
247.790871
11
194.958473
21
247.647855
0
LINE
8
annotation
62
1
39
211
10
194.958473
20
247.647855
11
195.081916
21
247.524340
0
LINE
8
annotation
62
1
39
211
10
195.081916
20
247.524340
11
195.224797
21
247.423224
0
LINE
8
annotation
62
1
39
211
10
195.224797
20
247.423224
11
195.384199
21
247.347408
0
LINE
8
annotation
62
1
39
211
10
195.384199
20
247.347408
11
195.557207
21
247.299792
0
LINE
8
annotation
62
1
39
211
10
195.557207
20
247.299792
11
195.740903
21
247.283276
0
LINE
8
annotation
62
1
39
211
10
195.740903
20
247.283276
11
196.764390
21
247.283276
0
LINE
8
annotation
62
1
39
211
10
194.589516
20
244.660174
11
196.894024
21
244.660174
0
LINE
8
annotation
62
1
39
211
10
199.219113
20
264.514939
11
197.529139
21
264.514939
0
LINE
8
annotation
62
1
39
211
10
197.529139
20
264.514939
11
199.090731
21
267.028901
0
LINE
8
annotation
62
1
39
211
10
199.090731
20
267.028901
11
199.090731
21
267.028901
0
LINE
8
annotation
62
1
39
211
10
199.090731
20
267.028901
11
199.092597
21
267.031211
0
LINE
8
annotation
62
1
39
211
10
199.092597
20
267.031211
11
199.094388
21
267.033541
0
LINE
8
annotation
62
1
39
211
10
199.094388
20
267.033541
11
199.096113
21
267.035910
0
LINE
8
annotation
62
1
39
211
10
199.096113
20
267.035910
11
199.097785
21
267.038338
0
LINE
8
annotation
62
1
39
211
10
199.097785
20
267.038338
11
199.099416
21
267.040844
0
LINE
8
annotation
62
1
39
211
10
199.099416
20
267.040844
11
199.101018
21
267.043449
0
LINE
8
annotation
62
1
39
211
10
199.101018
20
267.043449
11
199.102602
21
267.046171
0
LINE
8
annotation
62
1
39
211
10
199.102602
20
267.046171
11
199.104180
21
267.049031
0
LINE
8
annotation
62
1
39
211
10
199.104180
20
267.049031
11
199.105764
21
267.052048
0
LINE
8
annotation
62
1
39
211
10
199.105764
20
267.052048
11
199.105764
21
267.052048
0
LINE
8
annotation
62
1
39
211
10
199.105764
20
267.052048
11
199.170242
21
267.190487
0
LINE
8
annotation
62
1
39
211
10
199.170242
20
267.190487
11
199.207909
21
267.333992
0
LINE
8
annotation
62
1
39
211
10
199.207909
20
267.333992
11
199.219688
21
267.479319
0
LINE
8
annotation
62
1
39
211
10
199.219688
20
267.479319
11
199.206502
21
267.623226
0
LINE
8
annotation
62
1
39
211
10
199.206502
20
267.623226
11
199.169274
21
267.762470
0
LINE
8
annotation
62
1
39
211
10
199.169274
20
267.762470
11
199.108928
21
267.893809
0
LINE
8
annotation
62
1
39
211
10
199.108928
20
267.893809
11
199.026387
21
268.014001
0
LINE
8
annotation
62
1
39
211
10
199.026387
20
268.014001
11
198.922573
21
268.119802
0
LINE
8
annotation
62
1
39
211
10
198.922573
20
268.119802
11
198.798409
21
268.207970
0
LINE
8
annotation
62
1
39
211
10
198.798409
20
268.207970
11
198.798409
21
268.207970
0
LINE
8
annotation
62
1
39
211
10
198.798409
20
268.207970
11
198.659585
21
268.271531
0
LINE
8
annotation
62
1
39
211
10
198.659585
20
268.271531
11
198.515861
21
268.308618
0
LINE
8
annotation
62
1
39
211
10
198.515861
20
268.308618
11
198.370449
21
268.320064
0
LINE
8
annotation
62
1
39
211
10
198.370449
20
268.320064
11
198.226564
21
268.306704
0
LINE
8
annotation
62
1
39
211
10
198.226564
20
268.306704
11
198.087418
21
268.269373
0
LINE
8
annotation
62
1
39
211
10
198.087418
20
268.269373
11
197.956224
21
268.208907
0
LINE
8
annotation
62
1
39
211
10
197.956224
20
268.208907
11
197.836195
21
268.126138
0
LINE
8
annotation
62
1
39
211
10
197.836195
20
268.126138
11
197.730546
21
268.021903
0
LINE
8
annotation
62
1
39
211
10
197.730546
20
268.021903
11
197.642488
21
267.897035
0
LINE
8
annotation
62
1
39
211
10
197.642488
20
267.897035
11
197.531525
21
267.684178
0
LINE
8
annotation
62
1
39
211
10
201.257560
20
264.565162
11
201.257560
21
264.565162
0
LINE
8
annotation
62
1
39
211
10
201.257560
20
264.565162
11
201.345997
21
264.532101
0
LINE
8
annotation
62
1
39
211
10
201.345997
20
264.532101
11
201.436697
21
264.515677
0
LINE
8
annotation
62
1
39
211
10
201.436697
20
264.515677
11
201.527609
21
264.515217
0
LINE
8
annotation
62
1
39
211
10
201.527609
20
264.515217
11
201.616682
21
264.530054
0
LINE
8
annotation
62
1
39
211
10
201.616682
20
264.530054
11
201.701867
21
264.559517
0
LINE
8
annotation
62
1
39
211
10
201.701867
20
264.559517
11
201.781113
21
264.602936
0
LINE
8
annotation
62
1
39
211
10
201.781113
20
264.602936
11
201.852369
21
264.659642
0
LINE
8
annotation
62
1
39
211
10
201.852369
20
264.659642
11
201.913585
21
264.728964
0
LINE
8
annotation
62
1
39
211
10
201.913585
20
264.728964
11
201.962710
21
264.810234
0
LINE
8
annotation
62
1
39
211
10
201.962710
20
264.810234
11
201.962710
21
264.810234
0
LINE
8
annotation
62
1
39
211
10
201.962710
20
264.810234
11
202.109281
21
265.153321
0
LINE
8
annotation
62
1
39
211
10
202.109281
20
265.153321
11
202.219210
21
265.506338
0
LINE
8
annotation
62
1
39
211
10
202.219210
20
265.506338
11
202.292496
21
265.866470
0
LINE
8
annotation
62
1
39
211
10
202.292496
20
265.866470
11
202.329139
21
266.230904
0
LINE
8
annotation
62
1
39
211
10
202.329139
20
266.230904
11
202.329139
21
266.596825
0
LINE
8
annotation
62
1
39
211
10
202.329139
20
266.596825
11
202.292496
21
266.961418
0
LINE
8
annotation
62
1
39
211
10
202.292496
20
266.961418
11
202.219210
21
267.321868
0
LINE
8
annotation
62
1
39
211
10
202.219210
20
267.321868
11
202.109281
21
267.675362
0
LINE
8
annotation
62
1
39
211
10
202.109281
20
267.675362
11
201.962710
21
268.019086
0
LINE
8
annotation
62
1
39
211
10
201.962710
20
268.019086
11
201.962710
21
268.019086
0
LINE
8
annotation
62
1
39
211
10
201.962710
20
268.019086
11
201.944070
21
268.053775
0
LINE
8
annotation
62
1
39
211
10
201.944070
20
268.053775
11
201.922938
21
268.086939
0
LINE
8
annotation
62
1
39
211
10
201.922938
20
268.086939
11
201.899473
21
268.118417
0
LINE
8
annotation
62
1
39
211
10
201.899473
20
268.118417
11
201.873834
21
268.148045
0
LINE
8
annotation
62
1
39
211
10
201.873834
20
268.148045
11
201.846179
21
268.175660
0
LINE
8
annotation
62
1
39
211
10
201.846179
20
268.175660
11
201.816669
21
268.201098
0
LINE
8
annotation
62
1
39
211
10
201.816669
20
268.201098
11
201.785461
21
268.224197
0
LINE
8
annotation
62
1
39
211
10
201.785461
20
268.224197
11
201.752716
21
268.244794
0
LINE
8
annotation
62
1
39
211
10
201.752716
20
268.244794
11
201.718592
21
268.262726
0
LINE
8
annotation
62
1
39
211
10
201.718592
20
268.262726
11
201.718592
21
268.262726
0
LINE
8
annotation
62
1
39
211
10
201.718592
20
268.262726
11
201.629452
21
268.296503
0
LINE
8
annotation
62
1
39
211
10
201.629452
20
268.296503
11
201.538221
21
268.313489
0
LINE
8
annotation
62
1
39
211
10
201.538221
20
268.313489
11
201.446925
21
268.314359
0
LINE
8
annotation
62
1
39
211
10
201.446925
20
268.314359
11
201.357592
21
268.299785
0
LINE
8
annotation
62
1
39
211
10
201.357592
20
268.299785
11
201.272247
21
268.270442
0
LINE
8
annotation
62
1
39
211
10
201.272247
20
268.270442
11
201.192918
21
268.227003
0
LINE
8
annotation
62
1
39
211
10
201.192918
20
268.227003
11
201.121631
21
268.170141
0
LINE
8
annotation
62
1
39
211
10
201.121631
20
268.170141
11
201.060414
21
268.100532
0
LINE
8
annotation
62
1
39
211
10
201.060414
20
268.100532
11
201.011294
21
268.018847
0
LINE
8
annotation
62
1
39
211
10
201.011294
20
268.018847
11
201.011294
21
268.018847
0
LINE
8
annotation
62
1
39
211
10
201.011294
20
268.018847
11
200.865429
21
267.675831
0
LINE
8
annotation
62
1
39
211
10
200.865429
20
267.675831
11
200.756031
21
267.322867
0
LINE
8
annotation
62
1
39
211
10
200.756031
20
267.322867
11
200.683099
21
266.962770
0
LINE
8
annotation
62
1
39
211
10
200.683099
20
266.962770
11
200.646633
21
266.598354
0
LINE
8
annotation
62
1
39
211
10
200.646633
20
266.598354
11
200.646633
21
266.232433
0
LINE
8
annotation
62
1
39
211
10
200.646633
20
266.232433
11
200.683099
21
265.867823
0
LINE
8
annotation
62
1
39
211
10
200.683099
20
265.867823
11
200.756031
21
265.507337
0
LINE
8
annotation
62
1
39
211
10
200.756031
20
265.507337
11
200.865429
21
265.153789
0
LINE
8
annotation
62
1
39
211
10
200.865429
20
265.153789
11
201.011294
21
264.809996
0
LINE
8
annotation
62
1
39
211
10
201.011294
20
264.809996
11
201.011294
21
264.809996
0
LINE
8
annotation
62
1
39
211
10
201.011294
20
264.809996
11
201.029866
21
264.775376
0
LINE
8
annotation
62
1
39
211
10
201.029866
20
264.775376
11
201.050842
21
264.742376
0
LINE
8
annotation
62
1
39
211
10
201.050842
20
264.742376
11
201.074133
21
264.711097
0
LINE
8
annotation
62
1
39
211
10
201.074133
20
264.711097
11
201.099652
21
264.681638
0
LINE
8
annotation
62
1
39
211
10
201.099652
20
264.681638
11
201.127309
21
264.654101
0
LINE
8
annotation
62
1
39
211
10
201.127309
20
264.654101
11
201.157017
21
264.628584
0
LINE
8
annotation
62
1
39
211
10
201.157017
20
264.628584
11
201.188687
21
264.605189
0
LINE
8
annotation
62
1
39
211
10
201.188687
20
264.605189
11
201.222231
21
264.584014
0
LINE
8
annotation
62
1
39
211
10
201.222231
20
264.584014
11
201.257560
21
264.565162
0
LINE
8
annotation
62
1
39
211
10
205.394002
20
282.990105
11
203.347324
21
282.990105
0
LINE
8
annotation
62
1
39
211
10
203.347324
20
282.990105
11
205.238522
21
286.034690
0
LINE
8
annotation
62
1
39
211
10
205.238522
20
286.034690
11
205.238522
21
286.034690
0
LINE
8
annotation
62
1
39
211
10
205.238522
20
286.034690
11
205.240783
21
286.037488
0
LINE
8
annotation
62
1
39
211
10
205.240783
20
286.037488
11
205.242951
21
286.040309
0
LINE
8
annotation
62
1
39
211
10
205.242951
20
286.040309
11
205.245040
21
286.043178
0
LINE
8
annotation
62
1
39
211
10
205.245040
20
286.043178
11
205.247066
21
286.046119
0
LINE
8
annotation
62
1
39
211
10
205.247066
20
286.046119
11
205.249041
21
286.049154
0
LINE
8
annotation
62
1
39
211
10
205.249041
20
286.049154
11
205.250981
21
286.052308
0
LINE
8
annotation
62
1
39
211
10
205.250981
20
286.052308
11
205.252899
21
286.055606
0
LINE
8
annotation
62
1
39
211
10
205.252899
20
286.055606
11
205.254810
21
286.059069
0
LINE
8
annotation
62
1
39
211
10
205.254810
20
286.059069
11
205.256729
21
286.062723
0
LINE
8
annotation
62
1
39
211
10
205.256729
20
286.062723
11
205.256729
21
286.062723
0
LINE
8
annotation
62
1
39
211
10
205.256729
20
286.062723
11
205.334816
21
286.230383
0
LINE
8
annotation
62
1
39
211
10
205.334816
20
286.230383
11
205.380433
21
286.404177
0
LINE
8
annotation
62
1
39
211
10
205.380433
20
286.404177
11
205.394698
21
286.580178
0
LINE
8
annotation
62
1
39
211
10
205.394698
20
286.580178
11
205.378729
21
286.754459
0
LINE
8
annotation
62
1
39
211
10
205.378729
20
286.754459
11
205.333644
21
286.923094
0
LINE
8
annotation
62
1
39
211
10
205.333644
20
286.923094
11
205.260561
21
287.082155
0
LINE
8
annotation
62
1
39
211
10
205.260561
20
287.082155
11
205.160597
21
287.227716
0
LINE
8
annotation
62
1
39
211
10
205.160597
20
287.227716
11
205.034871
21
287.355848
0
LINE
8
annotation
62
1
39
211
10
205.034871
20
287.355848
11
204.884500
21
287.462626
0
LINE
8
annotation
62
1
39
211
10
204.884500
20
287.462626
11
204.884500
21
287.462626
0
LINE
8
annotation
62
1
39
211
10
204.884500
20
287.462626
11
204.716375
21
287.539603
0
LINE
8
annotation
62
1
39
211
10
204.716375
20
287.539603
11
204.542314
21
287.584517
0
LINE
8
annotation
62
1
39
211
10
204.542314
20
287.584517
11
204.366211
21
287.598379
0
LINE
8
annotation
62
1
39
211
10
204.366211
20
287.598379
11
204.191955
21
287.582200
0
LINE
8
annotation
62
1
39
211
10
204.191955
20
287.582200
11
204.023439
21
287.536990
0
LINE
8
annotation
62
1
39
211
10
204.023439
20
287.536990
11
203.864554
21
287.463760
0
LINE
8
annotation
62
1
39
211
10
203.864554
20
287.463760
11
203.719192
21
287.363522
0
LINE
8
annotation
62
1
39
211
10
203.719192
20
287.363522
11
203.591242
21
287.237285
0
LINE
8
annotation
62
1
39
211
10
203.591242
20
287.237285
11
203.484598
21
287.086062
0
LINE
8
annotation
62
1
39
211
10
203.484598
20
287.086062
11
203.350214
21
286.828277
0
LINE
8
annotation
62
1
39
211
10
208.147121
20
282.990142
11
208.147121
21
287.598492
0
LINE
8
annotation
62
1
39
211
10
208.147121
20
287.598492
11
207.122626
21
286.573708
0
LINE
8
annotation
62
1
39
211
10
211.128831
20
302.271629
11
209.441684
21
302.271629
0
LINE
8
annotation
62
1
39
211
10
209.441684
20
302.271629
11
211.000663
21
304.781386
0
LINE
8
annotation
62
1
39
211
10
211.000663
20
304.781386
11
211.000663
21
304.781386
0
LINE
8
annotation
62
1
39
211
10
211.000663
20
304.781386
11
211.002527
21
304.783692
0
LINE
8
annotation
62
1
39
211
10
211.002527
20
304.783692
11
211.004314
21
304.786018
0
LINE
8
annotation
62
1
39
211
10
211.004314
20
304.786018
11
211.006037
21
304.788383
0
LINE
8
annotation
62
1
39
211
10
211.006037
20
304.788383
11
211.007706
21
304.790807
0
LINE
8
annotation
62
1
39
211
10
211.007706
20
304.790807
11
211.009335
21
304.793309
0
LINE
8
annotation
62
1
39
211
10
211.009335
20
304.793309
11
211.010934
21
304.795909
0
LINE
8
annotation
62
1
39
211
10
211.010934
20
304.795909
11
211.012515
21
304.798627
0
LINE
8
annotation
62
1
39
211
10
211.012515
20
304.798627
11
211.014090
21
304.801482
0
LINE
8
annotation
62
1
39
211
10
211.014090
20
304.801482
11
211.015672
21
304.804494
0
LINE
8
annotation
62
1
39
211
10
211.015672
20
304.804494
11
211.015672
21
304.804494
0
LINE
8
annotation
62
1
39
211
10
211.015672
20
304.804494
11
211.080042
21
304.942702
0
LINE
8
annotation
62
1
39
211
10
211.080042
20
304.942702
11
211.117645
21
305.085966
0
LINE
8
annotation
62
1
39
211
10
211.117645
20
305.085966
11
211.129405
21
305.231050
0
LINE
8
annotation
62
1
39
211
10
211.129405
20
305.231050
11
211.116241
21
305.374717
0
LINE
8
annotation
62
1
39
211
10
211.116241
20
305.374717
11
211.079076
21
305.513728
0
LINE
8
annotation
62
1
39
211
10
211.079076
20
305.513728
11
211.018830
21
305.644848
0
LINE
8
annotation
62
1
39
211
10
211.018830
20
305.644848
11
210.936427
21
305.764838
0
LINE
8
annotation
62
1
39
211
10
210.936427
20
305.764838
11
210.832787
21
305.870462
0
LINE
8
annotation
62
1
39
211
10
210.832787
20
305.870462
11
210.708831
21
305.958482
0
LINE
8
annotation
62
1
39
211
10
210.708831
20
305.958482
11
210.708831
21
305.958482
0
LINE
8
annotation
62
1
39
211
10
210.708831
20
305.958482
11
210.570239
21
306.021938
0
LINE
8
annotation
62
1
39
211
10
210.570239
20
306.021938
11
210.426755
21
306.058962
0
LINE
8
annotation
62
1
39
211
10
210.426755
20
306.058962
11
210.281587
21
306.070389
0
LINE
8
annotation
62
1
39
211
10
210.281587
20
306.070389
11
210.137942
21
306.057052
0
LINE
8
annotation
62
1
39
211
10
210.137942
20
306.057052
11
209.999029
21
306.019783
0
LINE
8
annotation
62
1
39
211
10
209.999029
20
306.019783
11
209.868054
21
305.959418
0
LINE
8
annotation
62
1
39
211
10
209.868054
20
305.959418
11
209.748227
21
305.876788
0
LINE
8
annotation
62
1
39
211
10
209.748227
20
305.876788
11
209.642754
21
305.772727
0
LINE
8
annotation
62
1
39
211
10
209.642754
20
305.772727
11
209.554843
21
305.648068
0
LINE
8
annotation
62
1
39
211
10
209.554843
20
305.648068
11
209.444066
21
305.435567
0
LINE
8
annotation
62
1
39
211
10
214.241110
20
302.271629
11
212.553963
21
302.271629
0
LINE
8
annotation
62
1
39
211
10
212.553963
20
302.271629
11
214.112942
21
304.781386
0
LINE
8
annotation
62
1
39
211
10
214.112942
20
304.781386
11
214.112942
21
304.781386
0
LINE
8
annotation
62
1
39
211
10
214.112942
20
304.781386
11
214.114806
21
304.783692
0
LINE
8
annotation
62
1
39
211
10
214.114806
20
304.783692
11
214.116593
21
304.786018
0
LINE
8
annotation
62
1
39
211
10
214.116593
20
304.786018
11
214.118316
21
304.788383
0
LINE
8
annotation
62
1
39
211
10
214.118316
20
304.788383
11
214.119985
21
304.790807
0
LINE
8
annotation
62
1
39
211
10
214.119985
20
304.790807
11
214.121614
21
304.793309
0
LINE
8
annotation
62
1
39
211
10
214.121614
20
304.793309
11
214.123213
21
304.795909
0
LINE
8
annotation
62
1
39
211
10
214.123213
20
304.795909
11
214.124794
21
304.798627
0
LINE
8
annotation
62
1
39
211
10
214.124794
20
304.798627
11
214.126369
21
304.801482
0
LINE
8
annotation
62
1
39
211
10
214.126369
20
304.801482
11
214.127951
21
304.804494
0
LINE
8
annotation
62
1
39
211
10
214.127951
20
304.804494
11
214.127951
21
304.804494
0
LINE
8
annotation
62
1
39
211
10
214.127951
20
304.804494
11
214.192321
21
304.942702
0
LINE
8
annotation
62
1
39
211
10
214.192321
20
304.942702
11
214.229924
21
305.085966
0
LINE
8
annotation
62
1
39
211
10
214.229924
20
305.085966
11
214.241684
21
305.231050
0
LINE
8
annotation
62
1
39
211
10
214.241684
20
305.231050
11
214.228520
21
305.374717
0
LINE
8
annotation
62
1
39
211
10
214.228520
20
305.374717
11
214.191355
21
305.513728
0
LINE
8
annotation
62
1
39
211
10
214.191355
20
305.513728
11
214.131109
21
305.644848
0
LINE
8
annotation
62
1
39
211
10
214.131109
20
305.644848
11
214.048706
21
305.764838
0
LINE
8
annotation
62
1
39
211
10
214.048706
20
305.764838
11
213.945066
21
305.870462
0
LINE
8
annotation
62
1
39
211
10
213.945066
20
305.870462
11
213.821110
21
305.958482
0
LINE
8
annotation
62
1
39
211
10
213.821110
20
305.958482
11
213.821110
21
305.958482
0
LINE
8
annotation
62
1
39
211
10
213.821110
20
305.958482
11
213.682518
21
306.021938
0
LINE
8
annotation
62
1
39
211
10
213.682518
20
306.021938
11
213.539034
21
306.058962
0
LINE
8
annotation
62
1
39
211
10
213.539034
20
306.058962
11
213.393866
21
306.070389
0
LINE
8
annotation
62
1
39
211
10
213.393866
20
306.070389
11
213.250221
21
306.057052
0
LINE
8
annotation
62
1
39
211
10
213.250221
20
306.057052
11
213.111308
21
306.019783
0
LINE
8
annotation
62
1
39
211
10
213.111308
20
306.019783
11
212.980333
21
305.959418
0
LINE
8
annotation
62
1
39
211
10
212.980333
20
305.959418
11
212.860506
21
305.876788
0
LINE
8
annotation
62
1
39
211
10
212.860506
20
305.876788
11
212.755033
21
305.772727
0
LINE
8
annotation
62
1
39
211
10
212.755033
20
305.772727
11
212.667122
21
305.648068
0
LINE
8
annotation
62
1
39
211
10
212.667122
20
305.648068
11
212.556345
21
305.435567
0
LINE
8
annotation
62
1
39
211
10
217.679767
20
321.148156
11
215.992418
21
321.148156
0
LINE
8
annotation
62
1
39
211
10
215.992418
20
321.148156
11
217.551584
21
323.658213
0
LINE
8
annotation
62
1
39
211
10
217.551584
20
323.658213
11
217.551584
21
323.658213
0
LINE
8
annotation
62
1
39
211
10
217.551584
20
323.658213
11
217.553448
21
323.660519
0
LINE
8
annotation
62
1
39
211
10
217.553448
20
323.660519
11
217.555235
21
323.662845
0
LINE
8
annotation
62
1
39
211
10
217.555235
20
323.662845
11
217.556958
21
323.665211
0
LINE
8
annotation
62
1
39
211
10
217.556958
20
323.665211
11
217.558628
21
323.667635
0
LINE
8
annotation
62
1
39
211
10
217.558628
20
323.667635
11
217.560256
21
323.670137
0
LINE
8
annotation
62
1
39
211
10
217.560256
20
323.670137
11
217.561856
21
323.672738
0
LINE
8
annotation
62
1
39
211
10
217.561856
20
323.672738
11
217.563437
21
323.675456
0
LINE
8
annotation
62
1
39
211
10
217.563437
20
323.675456
11
217.565013
21
323.678312
0
LINE
8
annotation
62
1
39
211
10
217.565013
20
323.678312
11
217.566594
21
323.681324
0
LINE
8
annotation
62
1
39
211
10
217.566594
20
323.681324
11
217.566594
21
323.681324
0
LINE
8
annotation
62
1
39
211
10
217.566594
20
323.681324
11
217.630972
21
323.819548
0
LINE
8
annotation
62
1
39
211
10
217.630972
20
323.819548
11
217.668580
21
323.962830
0
LINE
8
annotation
62
1
39
211
10
217.668580
20
323.962830
11
217.680341
21
324.107931
0
LINE
8
annotation
62
1
39
211
10
217.680341
20
324.107931
11
217.667175
21
324.251614
0
LINE
8
annotation
62
1
39
211
10
217.667175
20
324.251614
11
217.630006
21
324.390642
0
LINE
8
annotation
62
1
39
211
10
217.630006
20
324.390642
11
217.569753
21
324.521778
0
LINE
8
annotation
62
1
39
211
10
217.569753
20
324.521778
11
217.487340
21
324.641782
0
LINE
8
annotation
62
1
39
211
10
217.487340
20
324.641782
11
217.383687
21
324.747419
0
LINE
8
annotation
62
1
39
211
10
217.383687
20
324.747419
11
217.259717
21
324.835450
0
LINE
8
annotation
62
1
39
211
10
217.259717
20
324.835450
11
217.259717
21
324.835450
0
LINE
8
annotation
62
1
39
211
10
217.259717
20
324.835450
11
217.121108
21
324.898913
0
LINE
8
annotation
62
1
39
211
10
217.121108
20
324.898913
11
216.977607
21
324.935941
0
LINE
8
annotation
62
1
39
211
10
216.977607
20
324.935941
11
216.832422
21
324.947370
0
LINE
8
annotation
62
1
39
211
10
216.832422
20
324.947370
11
216.688760
21
324.934031
0
LINE
8
annotation
62
1
39
211
10
216.688760
20
324.934031
11
216.549830
21
324.896758
0
LINE
8
annotation
62
1
39
211
10
216.549830
20
324.896758
11
216.418840
21
324.836385
0
LINE
8
annotation
62
1
39
211
10
216.418840
20
324.836385
11
216.298998
21
324.753745
0
LINE
8
annotation
62
1
39
211
10
216.298998
20
324.753745
11
216.193512
21
324.649672
0
LINE
8
annotation
62
1
39
211
10
216.193512
20
324.649672
11
216.105591
21
324.524998
0
LINE
8
annotation
62
1
39
211
10
216.105591
20
324.524998
11
215.994801
21
324.312472
0
LINE
8
annotation
62
1
39
211
10
219.104782
20
321.148306
11
219.948457
21
321.148306
0
LINE
8
annotation
62
1
39
211
10
219.948457
20
321.148306
11
219.948457
21
321.148306
0
LINE
8
annotation
62
1
39
211
10
219.948457
20
321.148306
11
220.100194
21
321.161918
0
LINE
8
annotation
62
1
39
211
10
220.100194
20
321.161918
11
220.242973
21
321.201148
0
LINE
8
annotation
62
1
39
211
10
220.242973
20
321.201148
11
220.374419
21
321.263588
0
LINE
8
annotation
62
1
39
211
10
220.374419
20
321.263588
11
220.492159
21
321.346830
0
LINE
8
annotation
62
1
39
211
10
220.492159
20
321.346830
11
220.593816
21
321.448466
0
LINE
8
annotation
62
1
39
211
10
220.593816
20
321.448466
11
220.677017
21
321.566088
0
LINE
8
annotation
62
1
39
211
10
220.677017
20
321.566088
11
220.739386
21
321.697288
0
LINE
8
annotation
62
1
39
211
10
220.739386
20
321.697288
11
220.778549
21
321.839658
0
LINE
8
annotation
62
1
39
211
10
220.778549
20
321.839658
11
220.792131
21
321.990789
0
LINE
8
annotation
62
1
39
211
10
220.792131
20
321.990789
11
220.792131
21
322.413222
0
LINE
8
annotation
62
1
39
211
10
220.792131
20
322.413222
11
220.792131
21
322.413222
0
LINE
8
annotation
62
1
39
211
10
220.792131
20
322.413222
11
220.778549
21
322.564291
0
LINE
8
annotation
62
1
39
211
10
220.778549
20
322.564291
11
220.739386
21
322.706627
0
LINE
8
annotation
62
1
39
211
10
220.739386
20
322.706627
11
220.677017
21
322.837817
0
LINE
8
annotation
62
1
39
211
10
220.677017
20
322.837817
11
220.593816
21
322.955447
0
LINE
8
annotation
62
1
39
211
10
220.593816
20
322.955447
11
220.492159
21
323.057103
0
LINE
8
annotation
62
1
39
211
10
220.492159
20
323.057103
11
220.374419
21
323.140370
0
LINE
8
annotation
62
1
39
211
10
220.374419
20
323.140370
11
220.242973
21
323.202836
0
LINE
8
annotation
62
1
39
211
10
220.242973
20
323.202836
11
220.100194
21
323.242086
0
LINE
8
annotation
62
1
39
211
10
220.100194
20
323.242086
11
219.948457
21
323.255705
0
LINE
8
annotation
62
1
39
211
10
219.948457
20
323.255705
11
219.526024
21
323.255705
0
LINE
8
annotation
62
1
39
211
10
219.526024
20
323.255705
11
219.948457
21
323.255705
0
LINE
8
annotation
62
1
39
211
10
219.948457
20
323.255705
11
219.948457
21
323.255705
0
LINE
8
annotation
62
1
39
211
10
219.948457
20
323.255705
11
220.100194
21
323.269328
0
LINE
8
annotation
62
1
39
211
10
220.100194
20
323.269328
11
220.242973
21
323.308601
0
LINE
8
annotation
62
1
39
211
10
220.242973
20
323.308601
11
220.374419
21
323.371129
0
LINE
8
annotation
62
1
39
211
10
220.374419
20
323.371129
11
220.492159
21
323.454517
0
LINE
8
annotation
62
1
39
211
10
220.492159
20
323.454517
11
220.593816
21
323.556372
0
LINE
8
annotation
62
1
39
211
10
220.593816
20
323.556372
11
220.677017
21
323.674300
0
LINE
8
annotation
62
1
39
211
10
220.677017
20
323.674300
11
220.739386
21
323.805905
0
LINE
8
annotation
62
1
39
211
10
220.739386
20
323.805905
11
220.778549
21
323.948793
0
LINE
8
annotation
62
1
39
211
10
220.778549
20
323.948793
11
220.792131
21
324.100571
0
LINE
8
annotation
62
1
39
211
10
220.792131
20
324.100571
11
220.792131
21
324.100571
0
LINE
8
annotation
62
1
39
211
10
220.792131
20
324.100571
11
220.778549
21
324.251640
0
LINE
8
annotation
62
1
39
211
10
220.778549
20
324.251640
11
220.739386
21
324.393976
0
LINE
8
annotation
62
1
39
211
10
220.739386
20
324.393976
11
220.677017
21
324.525166
0
LINE
8
annotation
62
1
39
211
10
220.677017
20
324.525166
11
220.593816
21
324.642796
0
LINE
8
annotation
62
1
39
211
10
220.593816
20
324.642796
11
220.492159
21
324.744452
0
LINE
8
annotation
62
1
39
211
10
220.492159
20
324.744452
11
220.374419
21
324.827720
0
LINE
8
annotation
62
1
39
211
10
220.374419
20
324.827720
11
220.242973
21
324.890185
0
LINE
8
annotation
62
1
39
211
10
220.242973
20
324.890185
11
220.100194
21
324.929435
0
LINE
8
annotation
62
1
39
211
10
220.100194
20
324.929435
11
219.948457
21
324.943054
0
LINE
8
annotation
62
1
39
211
10
219.948457
20
324.943054
11
219.104782
21
324.943054
0
LINE
8
annotation
62
1
39
211
10
223.682729
20
340.535154
11
222.448596
21
340.535154
0
LINE
8
annotation
62
1
39
211
10
222.448596
20
340.535154
11
223.588975
21
342.371018
0
LINE
8
annotation
62
1
39
211
10
223.588975
20
342.371018
11
223.588975
21
342.371018
0
LINE
8
annotation
62
1
39
211
10
223.588975
20
342.371018
11
223.590338
21
342.372705
0
LINE
8
annotation
62
1
39
211
10
223.590338
20
342.372705
11
223.591646
21
342.374407
0
LINE
8
annotation
62
1
39
211
10
223.591646
20
342.374407
11
223.592906
21
342.376137
0
LINE
8
annotation
62
1
39
211
10
223.592906
20
342.376137
11
223.594127
21
342.377910
0
LINE
8
annotation
62
1
39
211
10
223.594127
20
342.377910
11
223.595318
21
342.379740
0
LINE
8
annotation
62
1
39
211
10
223.595318
20
342.379740
11
223.596488
21
342.381642
0
LINE
8
annotation
62
1
39
211
10
223.596488
20
342.381642
11
223.597645
21
342.383630
0
LINE
8
annotation
62
1
39
211
10
223.597645
20
342.383630
11
223.598797
21
342.385719
0
LINE
8
annotation
62
1
39
211
10
223.598797
20
342.385719
11
223.599954
21
342.387922
0
LINE
8
annotation
62
1
39
211
10
223.599954
20
342.387922
11
223.599954
21
342.387922
0
LINE
8
annotation
62
1
39
211
10
223.599954
20
342.387922
11
223.647040
21
342.489020
0
LINE
8
annotation
62
1
39
211
10
223.647040
20
342.489020
11
223.674547
21
342.593816
0
LINE
8
annotation
62
1
39
211
10
223.674547
20
342.593816
11
223.683148
21
342.699944
0
LINE
8
annotation
62
1
39
211
10
223.683148
20
342.699944
11
223.673519
21
342.805034
0
LINE
8
annotation
62
1
39
211
10
223.673519
20
342.805034
11
223.646333
21
342.906720
0
LINE
8
annotation
62
1
39
211
10
223.646333
20
342.906720
11
223.602264
21
343.002633
0
LINE
8
annotation
62
1
39
211
10
223.602264
20
343.002633
11
223.541987
21
343.090405
0
LINE
8
annotation
62
1
39
211
10
223.541987
20
343.090405
11
223.466175
21
343.167668
0
LINE
8
annotation
62
1
39
211
10
223.466175
20
343.167668
11
223.375503
21
343.232054
0
LINE
8
annotation
62
1
39
211
10
223.375503
20
343.232054
11
223.375503
21
343.232054
0
LINE
8
annotation
62
1
39
211
10
223.375503
20
343.232054
11
223.274124
21
343.278471
0
LINE
8
annotation
62
1
39
211
10
223.274124
20
343.278471
11
223.169167
21
343.305554
0
LINE
8
annotation
62
1
39
211
10
223.169167
20
343.305554
11
223.062977
21
343.313912
0
LINE
8
annotation
62
1
39
211
10
223.062977
20
343.313912
11
222.957902
21
343.304156
0
LINE
8
annotation
62
1
39
211
10
222.957902
20
343.304156
11
222.856289
21
343.276895
0
LINE
8
annotation
62
1
39
211
10
222.856289
20
343.276895
11
222.760482
21
343.232738
0
LINE
8
annotation
62
1
39
211
10
222.760482
20
343.232738
11
222.672829
21
343.172295
0
LINE
8
annotation
62
1
39
211
10
222.672829
20
343.172295
11
222.595677
21
343.096175
0
LINE
8
annotation
62
1
39
211
10
222.595677
20
343.096175
11
222.531371
21
343.004989
0
LINE
8
annotation
62
1
39
211
10
222.531371
20
343.004989
11
222.450338
21
342.849546
0
LINE
8
annotation
62
1
39
211
10
226.267918
20
341.152940
11
224.724990
21
341.152940
0
LINE
8
annotation
62
1
39
211
10
224.724990
20
341.152940
11
225.341185
21
343.313980
0
LINE
8
annotation
62
1
39
211
10
225.805423
20
340.535177
11
225.805423
21
341.769310
0
LINE
8
annotation
62
1
39
211
10
140.940768
20
71.009897
11
138.893207
21
68.048287
0
LINE
8
annotation
62
1
39
211
10
138.893207
20
68.048287
11
136.845260
21
71.009897
0
LINE
8
annotation
62
1
39
211
10
138.893207
20
68.286617
11
138.893207
21
64.869908
0
LINE
8
annotation
62
1
39
211
10
146.600921
20
67.939903
11
143.243890
21
67.939903
0
LINE
8
annotation
62
1
39
211
10
150.267800
20
64.870100
11
150.267800
21
71.009705
0
LINE
8
annotation
62
1
39
211
10
150.267800
20
71.009705
11
148.902887
21
69.644407
0
LINE
8
annotation
62
1
39
211
10
153.556143
20
64.951084
11
153.556143
21
64.951084
0
LINE
8
annotation
62
1
39
211
10
153.556143
20
64.951084
11
153.698835
21
64.897742
0
LINE
8
annotation
62
1
39
211
10
153.698835
20
64.897742
11
153.845178
21
64.871241
0
LINE
8
annotation
62
1
39
211
10
153.845178
20
64.871241
11
153.991863
21
64.870500
0
LINE
8
annotation
62
1
39
211
10
153.991863
20
64.870500
11
154.135582
21
64.894438
0
LINE
8
annotation
62
1
39
211
10
154.135582
20
64.894438
11
154.273026
21
64.941976
0
LINE
8
annotation
62
1
39
211
10
154.273026
20
64.941976
11
154.400887
21
65.012032
0
LINE
8
annotation
62
1
39
211
10
154.400887
20
65.012032
11
154.515858
21
65.103526
0
LINE
8
annotation
62
1
39
211
10
154.515858
20
65.103526
11
154.614628
21
65.215377
0
LINE
8
annotation
62
1
39
211
10
154.614628
20
65.215377
11
154.693891
21
65.346504
0
LINE
8
annotation
62
1
39
211
10
154.693891
20
65.346504
11
154.693891
21
65.346504
0
LINE
8
annotation
62
1
39
211
10
154.693891
20
65.346504
11
154.930382
21
65.900069
0
LINE
8
annotation
62
1
39
211
10
154.930382
20
65.900069
11
155.107750
21
66.469656
0
LINE
8
annotation
62
1
39
211
10
155.107750
20
66.469656
11
155.225996
21
67.050724
0
LINE
8
annotation
62
1
39
211
10
155.225996
20
67.050724
11
155.285118
21
67.638731
0
LINE
8
annotation
62
1
39
211
10
155.285118
20
67.638731
11
155.285118
21
68.229138
0
LINE
8
annotation
62
1
39
211
10
155.285118
20
68.229138
11
155.225996
21
68.817403
0
LINE
8
annotation
62
1
39
211
10
155.225996
20
68.817403
11
155.107750
21
69.398984
0
LINE
8
annotation
62
1
39
211
10
155.107750
20
69.398984
11
154.930382
21
69.969341
0
LINE
8
annotation
62
1
39
211
10
154.930382
20
69.969341
11
154.693891
21
70.523932
0
LINE
8
annotation
62
1
39
211
10
154.693891
20
70.523932
11
154.693891
21
70.523932
0
LINE
8
annotation
62
1
39
211
10
154.693891
20
70.523932
11
154.663817
21
70.579902
0
LINE
8
annotation
62
1
39
211
10
154.663817
20
70.579902
11
154.629721
21
70.633413
0
LINE
8
annotation
62
1
39
211
10
154.629721
20
70.633413
11
154.591860
21
70.684202
0
LINE
8
annotation
62
1
39
211
10
154.591860
20
70.684202
11
154.550491
21
70.732006
0
LINE
8
annotation
62
1
39
211
10
154.550491
20
70.732006
11
154.505871
21
70.776562
0
LINE
8
annotation
62
1
39
211
10
154.505871
20
70.776562
11
154.458256
21
70.817606
0
LINE
8
annotation
62
1
39
211
10
154.458256
20
70.817606
11
154.407903
21
70.854876
0
LINE
8
annotation
62
1
39
211
10
154.407903
20
70.854876
11
154.355070
21
70.888109
0
LINE
8
annotation
62
1
39
211
10
154.355070
20
70.888109
11
154.300011
21
70.917042
0
LINE
8
annotation
62
1
39
211
10
154.300011
20
70.917042
11
154.300011
21
70.917042
0
LINE
8
annotation
62
1
39
211
10
154.300011
20
70.917042
11
154.156186
21
70.971540
0
LINE
8
annotation
62
1
39
211
10
154.156186
20
70.971540
11
154.008986
21
70.998947
0
LINE
8
annotation
62
1
39
211
10
154.008986
20
70.998947
11
153.861682
21
71.000350
0
LINE
8
annotation
62
1
39
211
10
153.861682
20
71.000350
11
153.717543
21
70.976836
0
LINE
8
annotation
62
1
39
211
10
153.717543
20
70.976836
11
153.579840
21
70.929491
0
LINE
8
annotation
62
1
39
211
10
153.579840
20
70.929491
11
153.451844
21
70.859403
0
LINE
8
annotation
62
1
39
211
10
153.451844
20
70.859403
11
153.336825
21
70.767658
0
LINE
8
annotation
62
1
39
211
10
153.336825
20
70.767658
11
153.238053
21
70.655344
0
LINE
8
annotation
62
1
39
211
10
153.238053
20
70.655344
11
153.158798
21
70.523547
0
LINE
8
annotation
62
1
39
211
10
153.158798
20
70.523547
11
153.158798
21
70.523547
0
LINE
8
annotation
62
1
39
211
10
153.158798
20
70.523547
11
152.923448
21
69.970096
0
LINE
8
annotation
62
1
39
211
10
152.923448
20
69.970096
11
152.746935
21
69.400595
0
LINE
8
annotation
62
1
39
211
10
152.746935
20
69.400595
11
152.629260
21
68.819584
0
LINE
8
annotation
62
1
39
211
10
152.629260
20
68.819584
11
152.570423
21
68.231605
0
LINE
8
annotation
62
1
39
211
10
152.570423
20
68.231605
11
152.570423
21
67.641198
0
LINE
8
annotation
62
1
39
211
10
152.570423
20
67.641198
11
152.629260
21
67.052905
0
LINE
8
annotation
62
1
39
211
10
152.629260
20
67.052905
11
152.746935
21
66.471267
0
LINE
8
annotation
62
1
39
211
10
152.746935
20
66.471267
11
152.923448
21
65.900825
0
LINE
8
annotation
62
1
39
211
10
152.923448
20
65.900825
11
153.158798
21
65.346119
0
LINE
8
annotation
62
1
39
211
10
153.158798
20
65.346119
11
153.158798
21
65.346119
0
LINE
8
annotation
62
1
39
211
10
153.158798
20
65.346119
11
153.188763
21
65.290261
0
LINE
8
annotation
62
1
39
211
10
153.188763
20
65.290261
11
153.222607
21
65.237016
0
LINE
8
annotation
62
1
39
211
10
153.222607
20
65.237016
11
153.260188
21
65.186548
0
LINE
8
annotation
62
1
39
211
10
153.260188
20
65.186548
11
153.301361
21
65.139017
0
LINE
8
annotation
62
1
39
211
10
153.301361
20
65.139017
11
153.345986
21
65.094586
0
LINE
8
annotation
62
1
39
211
10
153.345986
20
65.094586
11
153.393919
21
65.053415
0
LINE
8
annotation
62
1
39
211
10
153.393919
20
65.053415
11
153.445018
21
65.015667
0
LINE
8
annotation
62
1
39
211
10
153.445018
20
65.015667
11
153.499141
21
64.981502
0
LINE
8
annotation
62
1
39
211
10
153.499141
20
64.981502
11
153.556143
21
64.951084
0
LINE
8
frame
62
5
39
2
10
0.000000
20
0.000000
11
300.000000
21
0.000000
0
LINE
8
frame
62
5
39
2
10
300.000000
20
0.000000
11
300.000000
21
600.000000
0
LINE
8
frame
62
5
39
2
10
300.000000
20
600.000000
11
0.000000
21
600.000000
0
LINE
8
frame
62
5
39
2
10
0.000000
20
600.000000
11
0.000000
21
0.000000
0
ENDSEC
0
EOF
