0
SECTION
2
HEADER
9
$INSUNITS
70
4
9
$ACADVER
1
AC1014
9
$HANDSEED
5
FFFF
0
ENDSEC
0
SECTION
2
TABLES
0
TABLE
2
VPORT
5
8
100
AcDbSymbolTable
0
ENDTAB
0
TABLE
2
LTYPE
5
5
100
AcDbSymbolTable
0
LTYPE
5
14
100
AcDbSymbolTableRecord
100
AcDbLinetypeTableRecord
2
BYBLOCK
70
0
0
LTYPE
5
15
100
AcDbSymbolTableRecord
100
AcDbLinetypeTableRecord
2
BYLAYER
70
0
0
ENDTAB
0
TABLE
2
LAYER
5
2
100
AcDbSymbolTable
70
2
0
LAYER
5
50
100
AcDbSymbolTableRecord
100
AcDbLayerTableRecord
2
0
70
0
6
CONTINUOUS
0
ENDTAB
0
TABLE
2
STYLE
5
3
100
AcDbSymbolTable
70
1
0
STYLE
5
11
100
AcDbSymbolTableRecord
100
AcDbTextStyleTableRecord
2
STANDARD
70
0
0
ENDTAB
0
TABLE
2
VIEW
5
6
100
AcDbSymbolTable
70
0
0
ENDTAB
0
TABLE
2
UCS
5
7
100
AcDbSymbolTable
70
0
0
ENDTAB
0
TABLE
2
APPID
5
9
100
AcDbSymbolTable
70
2
0
APPID
5
12
100
AcDbSymbolTableRecord
100
AcDbRegAppTableRecord
2
ACAD
70
0
0
ENDTAB
0
TABLE
2
DIMSTYLE
5
A
100
AcDbSymbolTable
70
1
0
ENDTAB
0
TABLE
2
BLOCK_RECORD
5
1
100
AcDbSymbolTable
70
1
0
BLOCK_RECORD
5
1F
100
AcDbSymbolTableRecord
100
AcDbBlockTableRecord
2
*MODEL_SPACE
0
BLOCK_RECORD
5
1B
100
AcDbSymbolTableRecord
100
AcDbBlockTableRecord
2
*PAPER_SPACE
0
ENDTAB
0
ENDSEC
0
SECTION
2
BLOCKS
0
BLOCK
5
20
100
AcDbEntity
100
AcDbBlockBegin
2
*MODEL_SPACE
0
ENDBLK
5
21
100
AcDbEntity
100
AcDbBlockEnd
0
BLOCK
5
1C
100
AcDbEntity
100
AcDbBlockBegin
2
*PAPER_SPACE
0
ENDBLK
5
1D
100
AcDbEntity
100
AcDbBlockEnd
0
ENDSEC
0
SECTION
2
ENTITIES
0
LWPOLYLINE
5
100
100
AcDbEntity
8
0
100
AcDbPolyline
90
4
70
1
43
0.0
10
-807.50000000000102
20
-84.199999999999989
10
-807.50000000000102
20
-95
10
-825.50000000000091
20
-95
10
-825.50000000000091
20
-84.199999999999989
0
LWPOLYLINE
5
101
100
AcDbEntity
8
0
100
AcDbPolyline
90
4
70
1
43
0.0
10
-825.49999999999841
20
-139.54999999999742
10
-825.50000000000068
20
-128.74999999999741
10
-807.49999999999659
20
-128.74999999999369
10
-807.49999999999682
20
-139.5499999999937
0
LWPOLYLINE
5
102
100
AcDbEntity
8
0
100
AcDbPolyline
90
4
70
1
43
0.0
10
-807.50000000000045
20
-163.84999999999997
10
-825.50000000000045
20
-163.84999999999997
10
-825.50000000000045
20
-153.04999999999998
10
-807.50000000000045
20
-153.04999999999998
0
LWPOLYLINE
5
103
100
AcDbEntity
8
0
100
AcDbPolyline
90
4
70
1
43
0.0
10
-825.50000000000239
20
-237.64999999999742
10
-825.50000000000455
20
-226.84999999999741
10
-807.50000000000057
20
-226.84999999999371
10
-807.50000000000068
20
-237.64999999999372
0
LWPOLYLINE
5
104
100
AcDbEntity
8
0
100
AcDbPolyline
90
4
70
1
43
0.0
10
-807.50000000000432
20
-261.94999999999999
10
-825.50000000000432
20
-261.94999999999999
10
-825.50000000000432
20
-251.14999999999998
10
-807.50000000000432
20
-251.14999999999998
0
LWPOLYLINE
5
105
100
AcDbEntity
8
0
100
AcDbPolyline
90
4
70
1
43
0.0
10
-825.49999999999932
20
-388.84999999999741
10
-825.50000000000136
20
-378.04999999999745
10
-807.4999999999975
20
-378.0499999999937
10
-807.49999999999761
20
-388.84999999999371
0
LWPOLYLINE
5
106
100
AcDbEntity
8
0
100
AcDbPolyline
90
4
70
1
43
0.0
10
-807.50000000000114
20
-413.15000000000003
10
-825.50000000000125
20
-413.15000000000003
10
-825.50000000000125
20
-402.35000000000002
10
-807.50000000000114
20
-402.35000000000002
0
LWPOLYLINE
5
107
100
AcDbEntity
8
0
100
AcDbPolyline
90
4
70
1
43
0.0
10
-825.49999999999932
20
-486.94999999999743
10
-825.50000000000136
20
-476.14999999999736
10
-807.4999999999975
20
-476.14999999999372
10
-807.49999999999761
20
-486.94999999999374
0
LWPOLYLINE
5
108
100
AcDbEntity
8
0
100
AcDbPolyline
90
4
70
1
43
0.0
10
-807.50000000000114
20
-511.25
10
-825.50000000000125
20
-511.25
10
-825.50000000000125
20
-500.45000000000005
10
-807.50000000000114
20
-500.45000000000005
0
LINE
5
109
100
AcDbEntity
8
0
100
AcDbLine
10
-807.50000000000102
20
-555.80000000000007
30
0
11
-825.50000000000091
21
-555.80000000000007
31
0
0
LWPOLYLINE
5
110
100
AcDbEntity
8
0
100
AcDbPolyline
90
4
70
1
43
0.0
10
-807.50000000000102
20
-555.80000000000007
10
-825.50000000000091
20
-555.80000000000007
10
-825.50000000000091
20
-545
10
-807.50000000000102
20
-545
0
LWPOLYLINE
5
111
100
AcDbEntity
8
0
100
AcDbPolyline
90
4
70
1
43
0.0
10
-384.49999999999994
20
-555.80000000000007
10
-402.49999999999994
20
-555.80000000000007
10
-402.49999999999994
20
-545
10
-384.49999999999994
20
-545
0
LWPOLYLINE
5
112
100
AcDbEntity
8
0
100
AcDbPolyline
90
4
70
1
43
0.0
10
-384.49999999999977
20
-511.25
10
-402.49999999999972
20
-511.25
10
-402.49999999999972
20
-500.45000000000005
10
-384.49999999999977
20
-500.45000000000005
0
LWPOLYLINE
5
113
100
AcDbEntity
8
0
100
AcDbPolyline
90
4
70
1
43
0.0
10
-384.49999999999955
20
-476.14999999999736
10
-384.50000000000182
20
-486.94999999999743
10
-402.50000000000335
20
-486.94999999999374
10
-402.50000000000352
20
-476.14999999999372
0
LWPOLYLINE
5
114
100
AcDbEntity
8
0
100
AcDbPolyline
90
4
70
1
43
0.0
10
-384.49999999999977
20
-413.15000000000003
10
-402.49999999999972
20
-413.15000000000003
10
-402.49999999999972
20
-402.35000000000002
10
-384.49999999999977
20
-402.35000000000002
0
LWPOLYLINE
5
115
100
AcDbEntity
8
0
100
AcDbPolyline
90
4
70
1
43
0.0
10
-384.49999999999955
20
-378.04999999999745
10
-384.50000000000182
20
-388.84999999999741
10
-402.50000000000335
20
-388.84999999999371
10
-402.50000000000352
20
-378.0499999999937
0
LWPOLYLINE
5
116
100
AcDbEntity
8
0
100
AcDbPolyline
90
4
70
1
43
0.0
10
-384.49999999999653
20
-261.94999999999999
10
-402.49999999999653
20
-261.94999999999999
10
-402.49999999999653
20
-251.14999999999998
10
-384.49999999999653
20
-251.14999999999998
0
LWPOLYLINE
5
117
100
AcDbEntity
8
0
100
AcDbPolyline
90
4
70
1
43
0.0
10
-384.49999999999636
20
-226.84999999999741
10
-384.49999999999864
20
-237.64999999999742
10
-402.50000000000023
20
-237.64999999999372
10
-402.50000000000034
20
-226.84999999999371
0
LWPOLYLINE
5
118
100
AcDbEntity
8
0
100
AcDbPolyline
90
4
70
1
43
0.0
10
-384.50000000000045
20
-163.84999999999997
10
-402.50000000000045
20
-163.84999999999997
10
-402.50000000000045
20
-153.04999999999998
10
-384.50000000000045
20
-153.04999999999998
0
LWPOLYLINE
5
119
100
AcDbEntity
8
0
100
AcDbPolyline
90
4
70
1
43
0.0
10
-384.50000000000034
20
-128.74999999999741
10
-384.5000000000025
20
-139.54999999999742
10
-402.50000000000409
20
-139.5499999999937
10
-402.50000000000426
20
-128.74999999999369
0
LWPOLYLINE
5
120
100
AcDbEntity
8
0
100
AcDbPolyline
90
4
70
1
43
0.0
10
-402.49999999999994
20
-95
10
-402.49999999999994
20
-84.199999999999989
10
-384.49999999999994
20
-84.199999999999989
10
-384.49999999999994
20
-95
0
LWPOLYLINE
5
121
100
AcDbEntity
8
0
100
AcDbPolyline
90
4
70
1
43
0.0
10
-807.50000000000102
20
-669.20000000000005
10
-807.50000000000102
20
-680
10
-825.50000000000091
20
-680
10
-825.50000000000091
20
-669.20000000000005
0
LWPOLYLINE
5
122
100
AcDbEntity
8
0
100
AcDbPolyline
90
4
70
1
43
0.0
10
-825.49999999999841
20
-724.54999999999745
10
-825.50000000000068
20
-713.7499999999975
10
-807.49999999999659
20
-713.74999999999375
10
-807.49999999999682
20
-724.5499999999937
0
LWPOLYLINE
5
123
100
AcDbEntity
8
0
100
AcDbPolyline
90
4
70
1
43
0.0
10
-807.50000000000045
20
-748.85000000000002
10
-825.50000000000045
20
-748.85000000000002
10
-825.50000000000045
20
-738.05000000000007
10
-807.50000000000045
20
-738.05000000000007
0
LWPOLYLINE
5
124
100
AcDbEntity
8
0
100
AcDbPolyline
90
4
70
1
43
0.0
10
-825.50000000000239
20
-822.64999999999748
10
-825.50000000000455
20
-811.84999999999729
10
-807.50000000000057
20
-811.84999999999366
10
-807.50000000000068
20
-822.64999999999372
0
LWPOLYLINE
5
125
100
AcDbEntity
8
0
100
AcDbPolyline
90
4
70
1
43
0.0
10
-807.50000000000432
20
-846.94999999999993
10
-825.50000000000432
20
-846.94999999999993
10
-825.50000000000432
20
-836.14999999999998
10
-807.50000000000432
20
-836.14999999999998
0
LWPOLYLINE
5
126
100
AcDbEntity
8
0
100
AcDbPolyline
90
4
70
1
43
0.0
10
-825.49999999999932
20
-973.84999999999752
10
-825.50000000000136
20
-963.04999999999734
10
-807.4999999999975
20
-963.04999999999382
10
-807.49999999999761
20
-973.84999999999366
0
LWPOLYLINE
5
127
100
AcDbEntity
8
0
100
AcDbPolyline
90
4
70
1
43
0.0
10
-807.50000000000114
20
-998.14999999999998
10
-825.50000000000125
20
-998.14999999999998
10
-825.50000000000125
20
-987.35000000000014
10
-807.50000000000114
20
-987.35000000000014
0
LWPOLYLINE
5
128
100
AcDbEntity
8
0
100
AcDbPolyline
90
4
70
1
43
0.0
10
-825.49999999999932
20
-1071.9499999999973
10
-825.50000000000136
20
-1061.1499999999974
10
-807.4999999999975
20
-1061.1499999999937
10
-807.49999999999761
20
-1071.9499999999937
0
LWPOLYLINE
5
129
100
AcDbEntity
8
0
100
AcDbPolyline
90
4
70
1
43
0.0
10
-807.50000000000114
20
-1096.25
10
-825.50000000000125
20
-1096.25
10
-825.50000000000125
20
-1085.45
10
-807.50000000000114
20
-1085.45
0
LINE
5
130
100
AcDbEntity
8
0
100
AcDbLine
10
-807.50000000000102
20
-1140.8
30
0
11
-825.50000000000091
21
-1140.8
31
0
0
LWPOLYLINE
5
131
100
AcDbEntity
8
0
100
AcDbPolyline
90
4
70
1
43
0.0
10
-807.50000000000102
20
-1140.8
10
-825.50000000000091
20
-1140.8
10
-825.50000000000091
20
-1130
10
-807.50000000000102
20
-1130
0
LWPOLYLINE
5
132
100
AcDbEntity
8
0
100
AcDbPolyline
90
4
70
1
43
0.0
10
-384.49999999999994
20
-1140.8
10
-402.49999999999994
20
-1140.8
10
-402.49999999999994
20
-1130
10
-384.49999999999994
20
-1130
0
LWPOLYLINE
5
133
100
AcDbEntity
8
0
100
AcDbPolyline
90
4
70
1
43
0.0
10
-384.49999999999977
20
-1096.25
10
-402.49999999999972
20
-1096.25
10
-402.49999999999972
20
-1085.45
10
-384.49999999999977
20
-1085.45
0
LWPOLYLINE
5
134
100
AcDbEntity
8
0
100
AcDbPolyline
90
4
70
1
43
0.0
10
-384.49999999999955
20
-1061.1499999999974
10
-384.50000000000182
20
-1071.9499999999973
10
-402.50000000000335
20
-1071.9499999999937
10
-402.50000000000352
20
-1061.1499999999937
0
LWPOLYLINE
5
135
100
AcDbEntity
8
0
100
AcDbPolyline
90
4
70
1
43
0.0
10
-384.49999999999977
20
-998.14999999999998
10
-402.49999999999972
20
-998.14999999999998
10
-402.49999999999972
20
-987.35000000000014
10
-384.49999999999977
20
-987.35000000000014
0
LWPOLYLINE
5
136
100
AcDbEntity
8
0
100
AcDbPolyline
90
4
70
1
43
0.0
10
-384.49999999999955
20
-963.04999999999734
10
-384.50000000000182
20
-973.84999999999752
10
-402.50000000000335
20
-973.84999999999366
10
-402.50000000000352
20
-963.04999999999382
0
LWPOLYLINE
5
137
100
AcDbEntity
8
0
100
AcDbPolyline
90
4
70
1
43
0.0
10
-384.49999999999653
20
-846.94999999999993
10
-402.49999999999653
20
-846.94999999999993
10
-402.49999999999653
20
-836.14999999999998
10
-384.49999999999653
20
-836.14999999999998
0
LWPOLYLINE
5
138
100
AcDbEntity
8
0
100
AcDbPolyline
90
4
70
1
43
0.0
10
-384.49999999999636
20
-811.84999999999729
10
-384.49999999999864
20
-822.64999999999748
10
-402.50000000000023
20
-822.64999999999372
10
-402.50000000000034
20
-811.84999999999366
0
LWPOLYLINE
5
139
100
AcDbEntity
8
0
100
AcDbPolyline
90
4
70
1
43
0.0
10
-384.50000000000045
20
-748.85000000000002
10
-402.50000000000045
20
-748.85000000000002
10
-402.50000000000045
20
-738.05000000000007
10
-384.50000000000045
20
-738.05000000000007
0
LWPOLYLINE
5
140
100
AcDbEntity
8
0
100
AcDbPolyline
90
4
70
1
43
0.0
10
-384.50000000000034
20
-713.7499999999975
10
-384.5000000000025
20
-724.54999999999745
10
-402.50000000000409
20
-724.5499999999937
10
-402.50000000000426
20
-713.74999999999375
0
LWPOLYLINE
5
141
100
AcDbEntity
8
0
100
AcDbPolyline
90
4
70
1
43
0.0
10
-402.49999999999994
20
-680
10
-402.49999999999994
20
-669.20000000000005
10
-384.49999999999994
20
-669.20000000000005
10
-384.49999999999994
20
-680
0
LWPOLYLINE
5
142
100
AcDbEntity
8
0
100
AcDbPolyline
90
84
70
1
43
0.0
10
-402.50000000000409
20
-139.5499999999937
10
-384.5000000000025
20
-139.54999999999742
10
-384.50000000000034
20
-128.74999999999741
10
-371.00000000000068
20
-128.75000000000011
42
-0.41421356237314017
10
-366.5
20
-133.2500000000002
10
-366.49999999999989
20
-135.04999999999825
42
-0.41421356237309159
10
-371.00000000000296
20
-139.55000000000121
10
-375.49999999999835
20
-139.55000000000121
10
-375.49999999999807
20
-153.05000000000118
10
-371.00000000000091
20
-153.05000000000061
42
-0.41421356237309043
10
-366.5000000000008
20
-157.5500000000003
10
-366.50000000000063
20
-159.34999999999977
42
-0.41421356237310897
10
-371.00000000000068
20
-163.84999999999997
10
-384.50000000000045
20
-163.84999999999997
10
-384.50000000000045
20
-153.04999999999998
10
-402.50000000000045
20
-153.04999999999998
10
-402.50000000000023
20
-237.64999999999372
10
-384.49999999999864
20
-237.64999999999742
10
-384.49999999999636
20
-226.84999999999741
10
-370.99999999999682
20
-226.85000000000016
42
-0.41421356237315748
10
-366.49999999999608
20
-231.35000000000022
10
-366.49999999999608
20
-233.14999999999827
42
-0.41421356237309503
10
-370.99999999999903
20
-237.65000000000123
10
-375.49999999999443
20
-237.65000000000123
10
-375.49999999999415
20
-251.1500000000012
10
-370.99999999999704
20
-251.15000000000055
42
-0.41421356237308582
10
-366.49999999999687
20
-255.65000000000029
10
-366.4999999999967
20
-257.44999999999976
42
-0.41421356237311818
10
-370.99999999999676
20
-261.94999999999999
10
-384.49999999999653
20
-261.94999999999999
10
-384.49999999999653
20
-251.14999999999998
10
-402.49999999999653
20
-251.14999999999998
10
-402.50000000000335
20
-388.84999999999371
10
-384.50000000000182
20
-388.84999999999741
10
-384.49999999999955
20
-378.04999999999745
10
-370.99999999999989
20
-378.0500000000003
42
-0.41421356237315521
10
-366.49999999999926
20
-382.55000000000024
10
-366.4999999999992
20
-384.34999999999826
42
-0.41421356237309043
10
-371.00000000000222
20
-388.85000000000116
10
-375.49999999999756
20
-388.85000000000116
10
-375.49999999999733
20
-402.35000000000122
10
-371.00000000000017
20
-402.3500000000007
42
-0.41421356237308116
10
-366.50000000000006
20
-406.85000000000031
10
-366.49999999999989
20
-408.64999999999975
42
-0.41421356237311358
10
-370.99999999999994
20
-413.15000000000003
10
-384.49999999999977
20
-413.15000000000003
10
-384.49999999999977
20
-402.35000000000002
10
-402.49999999999972
20
-402.35000000000002
10
-402.50000000000335
20
-486.94999999999374
10
-384.50000000000182
20
-486.94999999999743
10
-384.49999999999955
20
-476.14999999999736
10
-370.99999999999989
20
-476.1500000000002
42
-0.41421356237313667
10
-366.49999999999926
20
-480.6500000000002
10
-366.49999999999926
20
-482.44999999999828
42
-0.41421356237309503
10
-371.00000000000222
20
-486.95000000000118
10
-375.49999999999756
20
-486.95000000000118
10
-375.49999999999733
20
-500.45000000000124
10
-371.00000000000023
20
-500.45000000000067
42
-0.41421356237309964
10
-366.50000000000006
20
-504.95000000000033
10
-366.5
20
-506.74999999999977
42
-0.41421356237311358
10
-370.99999999999994
20
-511.25
10
-384.49999999999977
20
-511.25
10
-384.49999999999977
20
-500.45000000000005
10
-402.49999999999972
20
-500.45000000000005
10
-402.49999999999994
20
-555.80000000000007
10
-384.49999999999994
20
-555.80000000000007
10
-384.49999999999994
20
-545
10
-370.99999999999994
20
-545
42
-0.34754048559235251
10
-366.62146170130529
20
-548.46153846153834
42
0.34754048559235845
10
-314.07900211696915
20
-590
10
-42.499999999999929
20
-590.00000000000011
10
-42.499999999998934
20
-545.00000000000023
10
-282.38791670676585
20
-522.48175687721903
42
-0.38705828624010541
10
-339.49999999999989
20
-459.75749971259336
10
-339.49999999999994
20
-180.24250028740676
42
-0.3870582862401053
10
-282.38791670676591
20
-117.51824312278094
10
-42.499999999998934
20
-94.999999999999829
10
-42.499999999999929
20
-49.999999999999872
10
-314.07900211696915
20
-49.999999999999964
42
0.34754048559235828
10
-366.62146170130529
20
-91.538461538461547
42
-0.34754048559235784
10
-370.99999999999994
20
-95
10
-384.49999999999994
20
-95
10
-384.49999999999994
20
-84.199999999999989
10
-402.49999999999994
20
-84.199999999999989
0
LWPOLYLINE
5
143
100
AcDbEntity
8
0
100
AcDbPolyline
90
12
70
1
43
0.0
10
-515.00000000003763
20
-333.5
10
-591.50000000003752
20
-333.5
10
-591.50000000003774
20
-441.50000000000011
42
-0.99999999999999989
10
-618.50000000003763
20
-441.5
10
-618.50000000003763
20
-333.5
10
-695.00000000003774
20
-333.49999999999994
42
-0.99999999999999989
10
-695.00000000003752
20
-306.5
10
-618.50000000003763
20
-306.5
10
-618.50000000003752
20
-198.49999999999994
42
-0.99999999999999989
10
-591.50000000003752
20
-198.5
10
-591.50000000003752
20
-306.5
10
-515.00000000003763
20
-306.5
42
-0.99999999999999989
0
LWPOLYLINE
5
144
100
AcDbEntity
8
0
100
AcDbPolyline
90
128
70
1
43
0.0
10
-785.00000000007526
20
-77
42
-0.41421356237309503
10
-758.00000000007526
20
-50
10
-451.99999999999994
20
-49.999999999999972
42
-0.41421356237309515
10
-424.99999999999994
20
-77.000000000000014
10
-424.99999999999977
20
-94.099999999989237
10
-430.85000000000332
20
-94.099999999989237
10
-430.84999999999843
20
-83.299999999989211
10
-446.14999999999827
20
-83.299999999989211
10
-446.15000000000566
20
-94.099999999989237
10
-452.90000000000015
20
-94.099999999989237
10
-452.90000000000032
20
-129.64999999998932
10
-446.15000000000003
20
-129.64999999998923
10
-446.15000000000003
20
-140.44999999998927
10
-430.85000000000002
20
-140.44999999998927
10
-430.85000000000002
20
-129.64999999999011
10
-424.99999999999994
20
-129.64999999998923
10
-424.99999999999994
20
-162.94999999998925
10
-430.84999999999991
20
-162.94999999998922
10
-430.84999999999985
20
-152.14999999998921
10
-446.150000000018
20
-152.14999999998926
10
-446.15000000001794
20
-162.94999999998925
10
-452.90000000001817
20
-162.94999999998925
10
-452.90000000000333
20
-227.74999999998926
10
-446.1500000000035
20
-227.74999999998926
10
-446.1500000000035
20
-238.54999999998924
10
-430.85000000000349
20
-238.54999999998924
10
-430.85000000000343
20
-227.74999999998929
10
-425.00000000000341
20
-227.74999999998923
10
-425.00000000001228
20
-261.04999999998734
10
-430.85000000001207
20
-261.0499999999887
10
-430.85000000001207
20
-250.24999999998869
10
-446.15000000001635
20
-250.24999999999241
10
-446.15000000001396
20
-261.04999999999239
10
-452.90000000001385
20
-261.04999999999393
10
-452.90000000000356
20
-378.94999999999357
10
-446.15000000000356
20
-378.94999999999357
10
-446.15000000000356
20
-389.74999999999363
10
-430.85000000000355
20
-389.74999999999363
10
-430.85000000000355
20
-378.94999999999362
10
-425.00000000000352
20
-378.94999999999357
10
-424.99999999999994
20
-412.24999999999369
10
-430.84999999999991
20
-412.24999999999363
10
-430.84999999999991
20
-401.44999999999357
10
-446.15000000001817
20
-401.44999999999362
10
-446.15000000001805
20
-412.24999999999369
10
-452.90000000001828
20
-412.24999999999369
10
-452.90000000000339
20
-477.0499999999937
10
-446.15000000000356
20
-477.0499999999937
10
-446.15000000000356
20
-487.84999999999371
10
-430.85000000000355
20
-487.84999999999371
10
-430.85000000000355
20
-477.04999999999382
10
-425.00000000000352
20
-477.0499999999937
10
-424.99999999999972
20
-510.34999999999997
10
-430.85000000000321
20
-510.34999999999997
10
-430.84999999999832
20
-499.54999999999995
10
-446.1499999999981
20
-499.54999999999995
10
-446.15000000000549
20
-510.34999999999997
10
-452.90000000000009
20
-510.34999999999997
10
-452.90000000000026
20
-545.90000000000009
10
-446.14999999999998
20
-545.90000000000009
10
-446.14999999999998
20
-556.70000000000005
10
-430.84999999999991
20
-556.70000000000005
10
-430.84999999999991
20
-545.90000000000089
10
-424.99999999999977
20
-545.90000000000009
10
-424.99999999999994
20
-563
42
-0.41421356237309503
10
-451.99999999999994
20
-590.00000000000011
10
-758.00000000007526
20
-590.00000000000011
42
-0.41421356237309503
10
-785.00000000007526
20
-563
10
-785.00000000007526
20
-545.90000000000009
10
-779.15000000007524
20
-545.90000000000089
10
-779.15000000007524
20
-556.70000000000005
10
-763.85000000007517
20
-556.70000000000005
10
-763.85000000007517
20
-545.90000000000009
10
-757.10000000007494
20
-545.90000000000009
10
-757.10000000007517
20
-510.34999999999997
10
-763.85000000006971
20
-510.34999999999997
10
-763.85000000007722
20
-499.54999999999995
10
-779.15000000007694
20
-499.54999999999995
10
-779.15000000007194
20
-510.34999999999997
10
-785.0000000000756
20
-510.34999999999997
10
-785.00000000007162
20
-477.0499999999937
10
-779.15000000007149
20
-477.04999999999382
10
-779.15000000007149
20
-487.84999999999371
10
-763.85000000007153
20
-487.84999999999371
10
-763.85000000007153
20
-477.0499999999937
10
-757.10000000007176
20
-477.0499999999937
10
-757.10000000005698
20
-412.24999999999369
10
-763.85000000005721
20
-412.24999999999369
10
-763.85000000005698
20
-401.44999999999362
10
-779.15000000007524
20
-401.44999999999357
10
-779.15000000007524
20
-412.24999999999363
10
-785.00000000007526
20
-412.24999999999369
10
-785.00000000007162
20
-378.94999999999357
10
-779.15000000007149
20
-378.94999999999362
10
-779.15000000007149
20
-389.74999999999363
10
-763.85000000007153
20
-389.74999999999363
10
-763.85000000007153
20
-378.94999999999357
10
-757.10000000007176
20
-378.94999999999357
10
-757.10000000006153
20
-261.04999999999387
10
-763.8500000000613
20
-261.04999999999234
10
-763.8500000000588
20
-250.24999999999244
10
-779.15000000006307
20
-250.24999999998869
10
-779.15000000006307
20
-261.0499999999887
10
-785.00000000006276
20
-261.04999999998734
10
-785.00000000007174
20
-227.74999999998926
10
-779.15000000007183
20
-227.74999999998926
10
-779.15000000007183
20
-238.54999999998927
10
-763.85000000007176
20
-238.54999999998927
10
-763.85000000007176
20
-227.74999999998926
10
-757.10000000007187
20
-227.74999999998926
10
-757.10000000005709
20
-162.94999999998922
10
-763.85000000005732
20
-162.94999999998922
10
-763.85000000005721
20
-152.14999999998926
10
-779.15000000007535
20
-152.14999999998921
10
-779.15000000007524
20
-162.94999999998922
10
-785.00000000007526
20
-162.94999999998922
10
-785.00000000007526
20
-129.64999999998921
10
-779.15000000007524
20
-129.64999999999011
10
-779.15000000007524
20
-140.44999999998925
10
-763.85000000007517
20
-140.44999999998925
10
-763.85000000007517
20
-129.64999999998921
10
-757.10000000007483
20
-129.64999999998935
10
-757.10000000007517
20
-94.099999999989237
10
-763.85000000006949
20
-94.099999999989237
10
-763.85000000007699
20
-83.299999999989211
10
-779.15000000007672
20
-83.299999999989211
10
-779.15000000007183
20
-94.099999999989237
10
-785.00000000007526
20
-94.099999999989237
0
LWPOLYLINE
5
145
100
AcDbEntity
8
0
100
AcDbPolyline
90
84
70
1
43
0.0
10
-825.49999999999841
20
-139.54999999999742
10
-807.49999999999682
20
-139.5499999999937
10
-807.50000000000102
20
-84.199999999999989
10
-825.50000000000091
20
-84.199999999999989
10
-825.50000000000091
20
-95
10
-839.00000000000102
20
-95.000000000000057
42
-0.34754048559236217
10
-843.37853829869573
20
-91.538461538461533
42
0.34754048559235912
10
-895.92099788303187
20
-49.999999999999964
10
-1167.5000000000009
20
-49.999999999999872
10
-1167.500000000002
20
-94.999999999999829
10
-927.61208329323506
20
-117.5182431227809
42
-0.38705828624010558
10
-870.50000000000091
20
-180.2425002874067
10
-870.50000000000114
20
-459.75749971259336
42
-0.38705828624010619
10
-927.61208329323506
20
-522.48175687721903
10
-1167.500000000002
20
-545.00000000000023
10
-1167.5000000000009
20
-590.00000000000011
10
-895.92099788303187
20
-590
42
0.34754048559235617
10
-843.37853829869573
20
-548.46153846153857
42
-0.34754048559238082
10
-839.00000000000102
20
-545
10
-825.50000000000091
20
-545
10
-825.50000000000091
20
-555.80000000000007
10
-807.50000000000102
20
-555.80000000000007
10
-807.50000000000114
20
-500.45000000000005
10
-825.50000000000125
20
-500.45000000000005
10
-825.50000000000125
20
-511.25
10
-839.00000000000091
20
-511.25000000000011
42
-0.41421356237309964
10
-843.50000000000091
20
-506.74999999999977
10
-843.5000000000008
20
-504.95000000000027
42
-0.41421356237311818
10
-839.00000000000068
20
-500.45000000000067
10
-834.50000000000364
20
-500.45000000000124
10
-834.5000000000033
20
-486.95000000000118
10
-838.99999999999864
20
-486.95000000000113
42
-0.41421356237308582
10
-843.50000000000159
20
-482.44999999999828
10
-843.50000000000193
20
-480.6500000000002
42
-0.41421356237315055
10
-839.00000000000102
20
-476.1500000000002
10
-825.50000000000136
20
-476.14999999999736
10
-825.49999999999932
20
-486.94999999999743
10
-807.49999999999761
20
-486.94999999999374
10
-807.50000000000114
20
-402.35000000000002
10
-825.50000000000125
20
-402.35000000000002
10
-825.50000000000125
20
-413.15000000000003
10
-839.00000000000091
20
-413.15000000000003
42
-0.41421356237311358
10
-843.50000000000091
20
-408.64999999999975
10
-843.5000000000008
20
-406.85000000000031
42
-0.41421356237309503
10
-839.00000000000068
20
-402.35000000000065
10
-834.50000000000364
20
-402.35000000000122
10
-834.5000000000033
20
-388.85000000000116
10
-838.99999999999864
20
-388.85000000000127
42
-0.41421356237309503
10
-843.50000000000159
20
-384.34999999999826
10
-843.50000000000182
20
-382.5500000000003
42
-0.41421356237314588
10
-839.00000000000102
20
-378.05000000000018
10
-825.50000000000136
20
-378.04999999999745
10
-825.49999999999932
20
-388.84999999999741
10
-807.49999999999761
20
-388.84999999999371
10
-807.50000000000432
20
-251.14999999999998
10
-825.50000000000432
20
-251.14999999999998
10
-825.50000000000432
20
-261.94999999999999
10
-839.00000000000421
20
-261.95000000000005
42
-0.41421356237311124
10
-843.50000000000421
20
-257.44999999999976
10
-843.50000000000387
20
-255.65000000000023
42
-0.41421356237308343
10
-839.00000000000387
20
-251.15000000000063
10
-834.50000000000671
20
-251.1500000000012
10
-834.50000000000637
20
-237.65000000000123
10
-839.00000000000182
20
-237.65000000000128
42
-0.41421356237309503
10
-843.50000000000477
20
-233.14999999999827
10
-843.50000000000489
20
-231.35000000000025
42
-0.41421356237313439
10
-839.00000000000432
20
-226.85000000000019
10
-825.50000000000455
20
-226.84999999999741
10
-825.50000000000239
20
-237.64999999999742
10
-807.50000000000068
20
-237.64999999999372
10
-807.50000000000045
20
-153.04999999999998
10
-825.50000000000045
20
-153.04999999999998
10
-825.50000000000045
20
-163.84999999999997
10
-839.00000000000034
20
-163.84999999999991
42
-0.41421356237311124
10
-843.50000000000023
20
-159.34999999999977
10
-843.50000000000011
20
-157.55000000000027
42
-0.4142135623730846
10
-839
20
-153.05000000000061
10
-834.50000000000273
20
-153.05000000000118
10
-834.50000000000273
20
-139.55000000000121
10
-838.99999999999795
20
-139.55000000000112
42
-0.41421356237309503
10
-843.5000000000008
20
-135.04999999999825
10
-843.50000000000091
20
-133.25000000000026
42
-0.4142135623731355
10
-839.00000000000034
20
-128.75000000000023
10
-825.50000000000068
20
-128.74999999999741
0
LWPOLYLINE
5
146
100
AcDbEntity
8
0
100
AcDbPolyline
90
12
70
1
43
0.0
10
-515.00000000003763
20
-918.50000000000011
10
-591.50000000003752
20
-918.50000000000011
10
-591.50000000003774
20
-1026.5
42
-0.99999999999999989
10
-618.50000000003763
20
-1026.5
10
-618.50000000003763
20
-918.50000000000011
10
-695.00000000003774
20
-918.5
42
-0.99999999999999989
10
-695.00000000003752
20
-891.5
10
-618.50000000003763
20
-891.5
10
-618.50000000003752
20
-783.50000000000011
42
-0.99999999999999989
10
-591.50000000003752
20
-783.50000000000011
10
-591.50000000003752
20
-891.5
10
-515.00000000003763
20
-891.49999999999989
42
-0.99999999999999989
0
LWPOLYLINE
5
147
100
AcDbEntity
8
0
100
AcDbPolyline
90
128
70
1
43
0.0
10
-785.00000000007526
20
-662
42
-0.41421356237309503
10
-758.00000000007526
20
-635
10
-451.99999999999994
20
-635
42
-0.41421356237309503
10
-424.99999999999994
20
-662
10
-424.99999999999977
20
-679.09999999998934
10
-430.85000000000332
20
-679.09999999998934
10
-430.84999999999843
20
-668.29999999998915
10
-446.14999999999827
20
-668.29999999998915
10
-446.15000000000566
20
-679.09999999998934
10
-452.90000000000015
20
-679.09999999998934
10
-452.90000000000032
20
-714.6499999999894
10
-446.15000000000003
20
-714.64999999998918
10
-446.15000000000003
20
-725.44999999998925
10
-430.85000000000002
20
-725.44999999998925
10
-430.85000000000002
20
-714.64999999999009
10
-424.99999999999994
20
-714.64999999998918
10
-424.99999999999994
20
-747.94999999998925
10
-430.84999999999991
20
-747.94999999998925
10
-430.84999999999985
20
-737.14999999998918
10
-446.150000000018
20
-737.14999999998918
10
-446.15000000001794
20
-747.94999999998925
10
-452.90000000001817
20
-747.94999999998925
10
-452.90000000000333
20
-812.74999999998931
10
-446.1500000000035
20
-812.74999999998931
10
-446.1500000000035
20
-823.54999999998927
10
-430.85000000000349
20
-823.54999999998927
10
-430.85000000000343
20
-812.74999999998931
10
-425.00000000000341
20
-812.74999999998931
10
-425.00000000001228
20
-846.04999999998745
10
-430.85000000001207
20
-846.0499999999887
10
-430.85000000001207
20
-835.24999999998886
10
-446.15000000001635
20
-835.2499999999925
10
-446.15000000001396
20
-846.04999999999234
10
-452.90000000001385
20
-846.04999999999393
10
-452.90000000000356
20
-963.94999999999357
10
-446.15000000000356
20
-963.94999999999357
10
-446.15000000000356
20
-974.74999999999363
10
-430.85000000000355
20
-974.74999999999363
10
-430.85000000000355
20
-963.94999999999368
10
-425.00000000000352
20
-963.94999999999357
10
-424.99999999999994
20
-997.24999999999363
10
-430.84999999999991
20
-997.24999999999363
10
-430.84999999999991
20
-986.44999999999357
10
-446.15000000001817
20
-986.44999999999368
10
-446.15000000001805
20
-997.24999999999363
10
-452.90000000001828
20
-997.24999999999363
10
-452.90000000000339
20
-1062.0499999999938
10
-446.15000000000356
20
-1062.0499999999938
10
-446.15000000000356
20
-1072.8499999999938
10
-430.85000000000355
20
-1072.8499999999938
10
-430.85000000000355
20
-1062.0499999999938
10
-425.00000000000352
20
-1062.0499999999938
10
-424.99999999999972
20
-1095.3500000000001
10
-430.85000000000321
20
-1095.3500000000001
10
-430.84999999999832
20
-1084.55
10
-446.1499999999981
20
-1084.55
10
-446.15000000000549
20
-1095.3500000000001
10
-452.90000000000009
20
-1095.3500000000001
10
-452.90000000000026
20
-1130.9000000000001
10
-446.14999999999998
20
-1130.9000000000001
10
-446.14999999999998
20
-1141.7000000000003
10
-430.84999999999991
20
-1141.7000000000003
10
-430.84999999999991
20
-1130.900000000001
10
-424.99999999999977
20
-1130.9000000000001
10
-424.99999999999994
20
-1148
42
-0.41421356237309503
10
-451.99999999999994
20
-1175
10
-758.00000000007526
20
-1175
42
-0.41421356237309503
10
-785.00000000007526
20
-1148
10
-785.00000000007526
20
-1130.9000000000001
10
-779.15000000007524
20
-1130.900000000001
10
-779.15000000007524
20
-1141.7000000000003
10
-763.85000000007517
20
-1141.7000000000003
10
-763.85000000007517
20
-1130.9000000000001
10
-757.10000000007494
20
-1130.9000000000001
10
-757.10000000007517
20
-1095.3500000000001
10
-763.85000000006971
20
-1095.3500000000001
10
-763.85000000007722
20
-1084.55
10
-779.15000000007694
20
-1084.55
10
-779.15000000007194
20
-1095.3500000000001
10
-785.0000000000756
20
-1095.3500000000001
10
-785.00000000007162
20
-1062.0499999999938
10
-779.15000000007149
20
-1062.0499999999938
10
-779.15000000007149
20
-1072.8499999999938
10
-763.85000000007153
20
-1072.8499999999938
10
-763.85000000007153
20
-1062.0499999999938
10
-757.10000000007176
20
-1062.0499999999938
10
-757.10000000005698
20
-997.24999999999363
10
-763.85000000005721
20
-997.24999999999363
10
-763.85000000005698
20
-986.44999999999368
10
-779.15000000007524
20
-986.44999999999357
10
-779.15000000007524
20
-997.24999999999363
10
-785.00000000007526
20
-997.24999999999363
10
-785.00000000007162
20
-963.94999999999357
10
-779.15000000007149
20
-963.94999999999368
10
-779.15000000007149
20
-974.74999999999363
10
-763.85000000007153
20
-974.74999999999363
10
-763.85000000007153
20
-963.94999999999357
10
-757.10000000007176
20
-963.94999999999357
10
-757.10000000006153
20
-846.04999999999393
10
-763.8500000000613
20
-846.04999999999234
10
-763.8500000000588
20
-835.2499999999925
10
-779.15000000006307
20
-835.24999999998886
10
-779.15000000006307
20
-846.0499999999887
10
-785.00000000006276
20
-846.04999999998745
10
-785.00000000007174
20
-812.74999999998931
10
-779.15000000007183
20
-812.74999999998931
10
-779.15000000007183
20
-823.54999999998927
10
-763.85000000007176
20
-823.54999999998927
10
-763.85000000007176
20
-812.74999999998931
10
-757.10000000007187
20
-812.74999999998931
10
-757.10000000005709
20
-747.94999999998925
10
-763.85000000005732
20
-747.94999999998925
10
-763.85000000005721
20
-737.14999999998918
10
-779.15000000007535
20
-737.14999999998918
10
-779.15000000007524
20
-747.94999999998925
10
-785.00000000007526
20
-747.94999999998925
10
-785.00000000007526
20
-714.64999999998918
10
-779.15000000007524
20
-714.64999999999009
10
-779.15000000007524
20
-725.44999999998925
10
-763.85000000007517
20
-725.44999999998925
10
-763.85000000007517
20
-714.64999999998918
10
-757.10000000007483
20
-714.6499999999894
10
-757.10000000007517
20
-679.09999999998934
10
-763.85000000006949
20
-679.09999999998934
10
-763.85000000007699
20
-668.29999999998915
10
-779.15000000007672
20
-668.29999999998915
10
-779.15000000007183
20
-679.09999999998934
10
-785.00000000007526
20
-679.09999999998934
0
LWPOLYLINE
5
148
100
AcDbEntity
8
0
100
AcDbPolyline
90
84
70
1
43
0.0
10
-825.49999999999841
20
-724.54999999999745
10
-807.49999999999682
20
-724.5499999999937
10
-807.50000000000102
20
-669.20000000000005
10
-825.50000000000091
20
-669.20000000000005
10
-825.50000000000091
20
-680
10
-839.00000000000102
20
-680.00000000000011
42
-0.34754048559236966
10
-843.37853829869573
20
-676.53846153846166
42
0.34754048559235901
10
-895.92099788303187
20
-635
10
-1167.5000000000009
20
-634.99999999999989
10
-1167.500000000002
20
-679.99999999999977
10
-927.61208329323495
20
-702.51824312278086
42
-0.38705828624010652
10
-870.50000000000091
20
-765.24250028740664
10
-870.50000000000125
20
-1044.7574997125932
42
-0.38705828624010524
10
-927.61208329323506
20
-1107.4817568772189
10
-1167.500000000002
20
-1130.0000000000002
10
-1167.5000000000009
20
-1175.0000000000002
10
-895.92099788303187
20
-1175.0000000000002
42
0.34754048559235901
10
-843.37853829869573
20
-1133.4615384615386
42
-0.34754048559236111
10
-839.00000000000102
20
-1130
10
-825.50000000000091
20
-1130
10
-825.50000000000091
20
-1140.8
10
-807.50000000000102
20
-1140.8
10
-807.50000000000114
20
-1085.45
10
-825.50000000000125
20
-1085.45
10
-825.50000000000125
20
-1096.25
10
-839.00000000000091
20
-1096.2500000000002
42
-0.41421356237311358
10
-843.50000000000091
20
-1091.7499999999998
10
-843.50000000000091
20
-1089.9500000000003
42
-0.41421356237315055
10
-839.00000000000068
20
-1085.4500000000005
10
-834.50000000000364
20
-1085.4500000000012
10
-834.5000000000033
20
-1071.9500000000012
10
-838.99999999999864
20
-1071.9500000000014
42
-0.41421356237307655
10
-843.50000000000159
20
-1067.4499999999985
10
-843.50000000000182
20
-1065.6500000000003
42
-0.41421356237312279
10
-839.00000000000102
20
-1061.1500000000003
10
-825.50000000000136
20
-1061.1499999999974
10
-825.49999999999932
20
-1071.9499999999973
10
-807.49999999999761
20
-1071.9499999999937
10
-807.50000000000114
20
-987.35000000000014
10
-825.50000000000125
20
-987.35000000000014
10
-825.50000000000125
20
-998.14999999999998
10
-839.00000000000091
20
-998.14999999999998
42
-0.41421356237311358
10
-843.50000000000091
20
-993.64999999999964
10
-843.50000000000091
20
-991.85000000000014
42
-0.41421356237308582
10
-839.00000000000068
20
-987.35000000000059
10
-834.50000000000364
20
-987.35000000000127
10
-834.5000000000033
20
-973.85000000000116
10
-838.99999999999864
20
-973.85000000000127
42
-0.41421356237309503
10
-843.50000000000159
20
-969.34999999999832
10
-843.50000000000182
20
-967.55000000000041
42
-0.41421356237315055
10
-839.00000000000102
20
-963.05000000000018
10
-825.50000000000136
20
-963.04999999999734
10
-825.49999999999932
20
-973.84999999999752
10
-807.49999999999761
20
-973.84999999999366
10
-807.50000000000432
20
-836.14999999999998
10
-825.50000000000432
20
-836.14999999999998
10
-825.50000000000432
20
-846.94999999999993
10
-839.00000000000421
20
-846.95000000000005
42
-0.41421356237311358
10
-843.50000000000421
20
-842.44999999999982
10
-843.50000000000387
20
-840.65000000000009
42
-0.41421356237307655
10
-839.00000000000387
20
-836.15000000000066
10
-834.50000000000671
20
-836.15000000000123
10
-834.50000000000637
20
-822.65000000000123
10
-839.00000000000182
20
-822.65000000000123
42
-0.41421356237309503
10
-843.50000000000477
20
-818.14999999999827
10
-843.50000000000489
20
-816.35000000000036
42
-0.41421356237314128
10
-839.00000000000432
20
-811.85000000000014
10
-825.50000000000455
20
-811.84999999999729
10
-825.50000000000239
20
-822.64999999999748
10
-807.50000000000068
20
-822.64999999999372
10
-807.50000000000045
20
-738.05000000000007
10
-825.50000000000045
20
-738.05000000000007
10
-825.50000000000045
20
-748.85000000000002
10
-839.00000000000034
20
-748.84999999999991
42
-0.41421356237310425
10
-843.50000000000023
20
-744.34999999999991
10
-843.50000000000011
20
-742.55000000000007
42
-0.41421356237307655
10
-839
20
-738.05000000000064
10
-834.50000000000273
20
-738.05000000000121
10
-834.50000000000273
20
-724.55000000000132
10
-838.99999999999795
20
-724.55000000000109
42
-0.41421356237309503
10
-843.5000000000008
20
-720.04999999999825
10
-843.50000000000091
20
-718.25000000000045
42
-0.41421356237314128
10
-839.00000000000034
20
-713.75000000000023
10
-825.50000000000068
20
-713.7499999999975
0
LWPOLYLINE
5
149
100
AcDbEntity
8
0
100
AcDbPolyline
90
84
70
1
43
0.0
10
-402.50000000000409
20
-724.5499999999937
10
-384.5000000000025
20
-724.54999999999745
10
-384.50000000000034
20
-713.7499999999975
10
-371.00000000000068
20
-713.75000000000011
42
-0.41421356237314588
10
-366.5
20
-718.25000000000034
10
-366.49999999999989
20
-720.04999999999825
42
-0.41421356237307655
10
-371.00000000000296
20
-724.55000000000132
10
-375.49999999999835
20
-724.55000000000132
10
-375.49999999999807
20
-738.05000000000121
10
-371.00000000000091
20
-738.05000000000064
42
-0.41421356237311358
10
-366.5000000000008
20
-742.55000000000018
10
-366.50000000000057
20
-744.34999999999968
42
-0.41421356237311818
10
-371.00000000000068
20
-748.85000000000002
10
-384.50000000000045
20
-748.85000000000002
10
-384.50000000000045
20
-738.05000000000007
10
-402.50000000000045
20
-738.05000000000007
10
-402.50000000000023
20
-822.64999999999372
10
-384.49999999999864
20
-822.64999999999748
10
-384.49999999999636
20
-811.84999999999729
10
-370.99999999999676
20
-811.85000000000014
42
-0.41421356237313667
10
-366.49999999999608
20
-816.35000000000014
10
-366.49999999999613
20
-818.14999999999827
42
-0.41421356237308582
10
-370.99999999999903
20
-822.65000000000123
10
-375.49999999999443
20
-822.65000000000123
10
-375.49999999999415
20
-836.15000000000123
10
-370.99999999999704
20
-836.15000000000066
42
-0.41421356237313667
10
-366.49999999999687
20
-840.65000000000043
10
-366.49999999999682
20
-842.44999999999982
42
-0.41421356237311818
10
-370.99999999999676
20
-846.94999999999993
10
-384.49999999999653
20
-846.94999999999993
10
-384.49999999999653
20
-836.14999999999998
10
-402.49999999999653
20
-836.14999999999998
10
-402.50000000000335
20
-973.84999999999366
10
-384.50000000000182
20
-973.84999999999752
10
-384.49999999999955
20
-963.04999999999734
10
-370.99999999999989
20
-963.05000000000041
42
-0.41421356237313667
10
-366.49999999999926
20
-967.55000000000018
10
-366.49999999999932
20
-969.34999999999832
42
-0.41421356237307655
10
-371.00000000000222
20
-973.85000000000116
10
-375.49999999999756
20
-973.85000000000116
10
-375.49999999999733
20
-987.35000000000127
10
-371.00000000000017
20
-987.3500000000007
42
-0.4142135623731274
10
-366.50000000000006
20
-991.85000000000036
10
-366.49999999999989
20
-993.64999999999986
42
-0.41421356237312279
10
-370.99999999999994
20
-998.14999999999998
10
-384.49999999999977
20
-998.14999999999998
10
-384.49999999999977
20
-987.35000000000014
10
-402.49999999999972
20
-987.35000000000014
10
-402.50000000000335
20
-1071.9499999999937
10
-384.50000000000182
20
-1071.9499999999973
10
-384.49999999999955
20
-1061.1499999999974
10
-370.99999999999989
20
-1061.1500000000003
42
-0.41421356237313667
10
-366.49999999999926
20
-1065.6500000000003
10
-366.49999999999932
20
-1067.4499999999985
42
-0.41421356237309503
10
-371.00000000000222
20
-1071.9500000000012
10
-375.49999999999756
20
-1071.9500000000012
10
-375.49999999999733
20
-1085.4500000000012
10
-371.00000000000023
20
-1085.4500000000007
42
-0.41421356237309503
10
-366.50000000000006
20
-1089.9500000000003
10
-366.49999999999989
20
-1091.7499999999998
42
-0.41421356237311358
10
-370.99999999999994
20
-1096.25
10
-384.49999999999977
20
-1096.25
10
-384.49999999999977
20
-1085.45
10
-402.49999999999972
20
-1085.45
10
-402.49999999999994
20
-1140.8
10
-384.49999999999994
20
-1140.8
10
-384.49999999999994
20
-1130
10
-370.99999999999994
20
-1130
42
-0.34754048559236111
10
-366.62146170130529
20
-1133.4615384615386
42
0.34754048559235812
10
-314.07900211696915
20
-1175
10
-42.499999999999929
20
-1175.0000000000002
10
-42.499999999998934
20
-1130.0000000000002
10
-282.38791670676585
20
-1107.4817568772191
42
-0.38705828624010541
10
-339.49999999999989
20
-1044.7574997125932
10
-339.49999999999983
20
-765.24250028740664
42
-0.38705828624010524
10
-282.38791670676591
20
-702.51824312278109
10
-42.499999999998934
20
-679.99999999999977
10
-42.499999999999929
20
-634.99999999999989
10
-314.07900211696915
20
-635.00000000000011
42
0.34754048559235812
10
-366.62146170130535
20
-676.53846153846166
42
-0.34754048559236111
10
-370.99999999999994
20
-680
10
-384.49999999999994
20
-680
10
-384.49999999999994
20
-669.20000000000005
10
-402.49999999999994
20
-669.20000000000005
0
ENDSEC
0
SECTION
2
OBJECTS
0
DICTIONARY
5
C
100
AcDbDictionary
3
ACAD_GROUP
350
D
3
ACAD_MLINESTYLE
350
17
0
DICTIONARY
5
D
100
AcDbDictionary
0
DICTIONARY
5
1A
330
C
100
AcDbDictionary
0
DICTIONARY
5
17
100
AcDbDictionary
0
ENDSEC
0
EOF
