0
SECTION
2
HEADER
9
$INSUNITS
70
4
9
$ACADVER
1
AC1014
9
$HANDSEED
5
FFFF
0
ENDSEC
0
SECTION
2
TABLES
0
TABLE
2
VPORT
5
8
100
AcDbSymbolTable
0
ENDTAB
0
TABLE
2
LTYPE
5
5
100
AcDbSymbolTable
0
LTYPE
5
14
100
AcDbSymbolTableRecord
100
AcDbLinetypeTableRecord
2
BYBLOCK
70
0
0
LTYPE
5
15
100
AcDbSymbolTableRecord
100
AcDbLinetypeTableRecord
2
BYLAYER
70
0
0
ENDTAB
0
TABLE
2
LAYER
5
2
100
AcDbSymbolTable
70
2
0
LAYER
5
50
100
AcDbSymbolTableRecord
100
AcDbLayerTableRecord
2
0
70
0
6
CONTINUOUS
0
ENDTAB
0
TABLE
2
STYLE
5
3
100
AcDbSymbolTable
70
1
0
STYLE
5
11
100
AcDbSymbolTableRecord
100
AcDbTextStyleTableRecord
2
STANDARD
70
0
0
ENDTAB
0
TABLE
2
VIEW
5
6
100
AcDbSymbolTable
70
0
0
ENDTAB
0
TABLE
2
UCS
5
7
100
AcDbSymbolTable
70
0
0
ENDTAB
0
TABLE
2
APPID
5
9
100
AcDbSymbolTable
70
2
0
APPID
5
12
100
AcDbSymbolTableRecord
100
AcDbRegAppTableRecord
2
ACAD
70
0
0
ENDTAB
0
TABLE
2
DIMSTYLE
5
A
100
AcDbSymbolTable
70
1
0
ENDTAB
0
TABLE
2
BLOCK_RECORD
5
1
100
AcDbSymbolTable
70
1
0
BLOCK_RECORD
5
1F
100
AcDbSymbolTableRecord
100
AcDbBlockTableRecord
2
*MODEL_SPACE
0
BLOCK_RECORD
5
1B
100
AcDbSymbolTableRecord
100
AcDbBlockTableRecord
2
*PAPER_SPACE
0
ENDTAB
0
ENDSEC
0
SECTION
2
BLOCKS
0
BLOCK
5
20
100
AcDbEntity
100
AcDbBlockBegin
2
*MODEL_SPACE
0
ENDBLK
5
21
100
AcDbEntity
100
AcDbBlockEnd
0
BLOCK
5
1C
100
AcDbEntity
100
AcDbBlockBegin
2
*PAPER_SPACE
0
ENDBLK
5
1D
100
AcDbEntity
100
AcDbBlockEnd
0
ENDSEC
0
SECTION
2
ENTITIES
0
CIRCLE
5
100
100
AcDbEntity
8
0
100
AcDbCircle
10
154.58189504671535
20
-207.91924883862697
30
0
40
1.4999999999999856
0
CIRCLE
5
101
100
AcDbEntity
8
0
100
AcDbCircle
10
221.58189504671529
20
-207.91924883862703
30
0
40
1.5000000000000213
0
CIRCLE
5
102
100
AcDbEntity
8
0
100
AcDbCircle
10
221.58189504671529
20
-170.41924883862706
30
0
40
1.5000000000000213
0
CIRCLE
5
103
100
AcDbEntity
8
0
100
AcDbCircle
10
154.58189504671535
20
-155.919248838627
30
0
40
1.4999999999999856
0
CIRCLE
5
104
100
AcDbEntity
8
0
100
AcDbCircle
10
155.91381212381981
20
-195.75122422249589
30
0
40
1.3000000000000074
0
CIRCLE
5
105
100
AcDbEntity
8
0
100
AcDbCircle
10
190.11351904843633
20
-195.92582980902606
30
0
40
1.2999999999999896
0
CIRCLE
5
106
100
AcDbEntity
8
0
100
AcDbCircle
10
217.03602049157806
20
-231.48463990340773
30
0
40
1.2999999999999896
0
CIRCLE
5
107
100
AcDbEntity
8
0
100
AcDbCircle
10
183.03610086924661
20
-231.41047706577027
30
0
40
1.2999999999999896
0
LINE
5
108
100
AcDbEntity
8
0
100
AcDbLine
10
146.98903016156305
20
-252.94948849870269
30
0
11
149.98903016156308
21
-252.94948849870275
31
0
0
LINE
5
109
100
AcDbEntity
8
0
100
AcDbLine
10
149.98903016156308
20
-252.94948849870275
30
0
11
149.98903016156311
21
-258.79293153140071
31
0
0
LINE
5
110
100
AcDbEntity
8
0
100
AcDbLine
10
149.98903016156311
20
-258.79293153140071
30
0
11
146.97628406328721
21
-258.79293153140065
31
-6.8409031624634618e-30
0
LINE
5
111
100
AcDbEntity
8
0
100
AcDbLine
10
146.97628406328721
20
-258.79293153140065
30
-6.8409031624634618e-30
11
146.97292720982293
21
-260.33187949519731
31
0
0
ARC
5
112
100
AcDbEntity
8
0
100
AcDbCircle
10
156.97290342032088
20
-260.3536920941774
30
0
40
9.9999999999999787
100
AcDbArc
50
179.87502291472055
51
269.87502291471816
0
LINE
5
113
100
AcDbEntity
8
0
100
AcDbLine
10
156.95109082134078
20
-270.35366830467535
30
-1.0947644252537631e-46
11
216.9509480843287
21
-270.48454389855601
31
0
0
ARC
5
114
100
AcDbEntity
8
0
100
AcDbCircle
10
216.97276068330882
20
-260.48456768805801
30
0
40
10.000000000000016
100
AcDbArc
50
269.87502291471804
51
359.87502291472055
0
LINE
5
115
100
AcDbEntity
8
0
100
AcDbLine
10
226.9727368938068
20
-260.5063802870381
30
-1.2325951644078307e-31
11
226.97609374727111
21
-258.96743232324144
31
0
0
LINE
5
116
100
AcDbEntity
8
0
100
AcDbLine
10
226.97609374727111
20
-258.96743232324144
30
0
11
223.96337631765283
21
-258.95428919001426
31
1.8365667949676681e-29
0
LINE
5
117
100
AcDbEntity
8
0
100
AcDbLine
10
223.96337631765283
20
-258.95428919001426
30
1.8365667949676681e-29
11
223.98886839291535
21
-253.11090176229013
31
0
0
LINE
5
118
100
AcDbEntity
8
0
100
AcDbLine
10
223.98886839291535
20
-253.11090176229013
30
0
11
226.98883984554701
21
-253.12398929054348
31
0
0
LINE
5
119
100
AcDbEntity
8
0
100
AcDbLine
10
226.98883984554701
20
-253.12398929054348
30
0
11
227.15890743461699
21
-175.15657942671533
31
0
0
LINE
5
120
100
AcDbEntity
8
0
100
AcDbLine
10
227.15891078737033
20
-175.15657943402863
30
0
11
225.6589181399174
21
-175.15003563970811
31
0
0
LINE
5
121
100
AcDbEntity
8
0
100
AcDbLine
10
225.6589181399174
20
-175.15003563970811
30
0
11
224.15892170834266
21
-175.14676374986109
31
0
0
LINE
5
122
100
AcDbEntity
8
0
100
AcDbLine
10
224.15892170834266
20
-175.14676374986109
30
0
11
224.18007992935338
21
-165.44678682567806
31
0
0
LINE
5
123
100
AcDbEntity
8
0
100
AcDbLine
10
224.18007992935338
20
-165.44678682567806
30
0
11
225.68007636092804
21
-165.45005871552507
31
0
0
LINE
5
124
100
AcDbEntity
8
0
100
AcDbLine
10
225.68007636092804
20
-165.45005871552507
30
0
11
227.18005868034777
21
-165.45980031648125
31
0
0
LINE
5
125
100
AcDbEntity
8
0
100
AcDbLine
10
227.18005868034777
20
-165.45980031648125
30
0
11
227.19086288360779
21
-160.50661818205825
31
0
0
ARC
5
126
100
AcDbEntity
8
0
100
AcDbCircle
10
217.19088667310982
20
-160.48480558307818
30
0
40
9.9999999999999787
100
AcDbArc
50
-0.12497708527947785
51
89.875022914718173
0
LINE
5
127
100
AcDbEntity
8
0
100
AcDbLine
10
217.21269927208991
20
-150.48482937258018
30
-3.2842932757613013e-46
11
157.21284200910202
21
-150.35395377869955
31
0
0
ARC
5
128
100
AcDbEntity
8
0
100
AcDbCircle
10
157.1910294101219
20
-160.35392998919752
30
0
40
9.9999999999999964
100
AcDbArc
50
89.875022914718002
51
179.87502291472055
0
LINE
5
129
100
AcDbEntity
8
0
100
AcDbLine
10
147.19105319962392
20
-160.33211739021743
30
1.2325951644078307e-31
11
147.1802489963639
21
-165.28529952464044
31
0
0
LINE
5
130
100
AcDbEntity
8
0
100
AcDbLine
10
147.1802489963639
20
-165.28529952464044
30
0
11
148.68025954009357
21
-165.28210170337829
31
0
0
LINE
5
131
100
AcDbEntity
8
0
100
AcDbLine
10
148.68025954009357
20
-165.28210170337829
30
0
11
150.18025597166826
21
-165.2853735932253
31
0
0
LINE
5
132
100
AcDbEntity
8
0
100
AcDbLine
10
150.18025597166826
20
-165.2853735932253
30
0
11
150.15909775065757
21
-174.98535051740834
31
0
0
LINE
5
133
100
AcDbEntity
8
0
100
AcDbLine
10
150.15909775065757
20
-174.98535051740834
30
0
11
148.65910131908288
21
-174.98207862756132
31
0
0
LINE
5
134
100
AcDbEntity
8
0
100
AcDbLine
10
148.65910131908288
20
-174.98207862756132
30
0
11
147.15909439787981
21
-174.98207862756132
31
0
0
LINE
5
135
100
AcDbEntity
8
0
100
AcDbLine
10
147.15909775063312
20
-174.9820786348746
30
0
11
146.98903016156305
21
-252.94948849870269
31
0
0
ENDSEC
0
SECTION
2
OBJECTS
0
DICTIONARY
5
C
100
AcDbDictionary
3
ACAD_GROUP
350
D
3
ACAD_MLINESTYLE
350
17
0
DICTIONARY
5
D
100
AcDbDictionary
0
DICTIONARY
5
1A
330
C
100
AcDbDictionary
0
DICTIONARY
5
17
100
AcDbDictionary
0
ENDSEC
0
EOF
