  0
SECTION
  2
HEADER
  9
$ACADVER
  1
AC1014
  9
$HANDSEED
  5
FFFF
  9
$MEASUREMENT
 70
     1
  0
ENDSEC
  0
SECTION
  2
TABLES
  0
TABLE
  2
VPORT
  5
8
330
0
100
AcDbSymbolTable
 70
     4
  0
VPORT
  5
2E
330
8
100
AcDbSymbolTableRecord
100
AcDbViewportTableRecord
  2
*ACTIVE
 70
     0
 10
0.0
 20
0.0
 11
1.0
 21
1.0
 12
210.0
 22
148.5
 13
0.0
 23
0.0
 14
10.0
 24
10.0
 15
10.0
 25
10.0
 16
0.0
 26
0.0
 36
1.0
 17
0.0
 27
0.0
 37
0.0
 40
341.0
 41
1.24
 42
50.0
 43
0.0
 44
0.0
 50
0.0
 51
0.0
 71
     0
 72
   100
 73
     1
 74
     3
 75
     0
 76
     0
 77
     0
 78
     0
  0
ENDTAB
  0
TABLE
  2
LTYPE
  5
5
330
0
100
AcDbSymbolTable
 70
     1
  0
LTYPE
  5
14
330
5
100
AcDbSymbolTableRecord
100
AcDbLinetypeTableRecord
  2
BYBLOCK
 70
     0
  3

 72
    65
 73
     0
 40
0.0
  0
LTYPE
  5
15
330
5
100
AcDbSymbolTableRecord
100
AcDbLinetypeTableRecord
  2
BYLAYER
 70
     0
  3

 72
    65
 73
     0
 40
0.0
  0
LTYPE
  5
16
330
5
100
AcDbSymbolTableRecord
100
AcDbLinetypeTableRecord
  2
CONTINUOUS
 70
     0
  3
Solid line
 72
    65
 73
     0
 40
0.0
  0
ENDTAB
  0
TABLE
  2
LAYER
  5
2
100
AcDbSymbolTable
 70
1
  0
LAYER
  5
50
100
AcDbSymbolTableRecord
100
AcDbLayerTableRecord
  2
0
 70
0
  6
CONTINUOUS
  0
ENDTAB
  0
TABLE
  2
STYLE
  5
3
330
0
100
AcDbSymbolTable
 70
     1
  0
STYLE
  5
11
330
3
100
AcDbSymbolTableRecord
100
AcDbTextStyleTableRecord
  2
STANDARD
 70
     0
 40
0.0
 41
1.0
 50
0.0
 71
     0
 42
2.5
  3
txt
  4

  0
ENDTAB
  0
TABLE
  2
VIEW
  5
6
330
0
100
AcDbSymbolTable
 70
     0
  0
ENDTAB
  0
TABLE
  2
UCS
  5
7
330
0
100
AcDbSymbolTable
 70
     0
  0
ENDTAB
  0
TABLE
  2
APPID
  5
9
330
0
100
AcDbSymbolTable
 70
     2
  0
APPID
  5
12
330
9
100
AcDbSymbolTableRecord
100
AcDbRegAppTableRecord
  2
ACAD
 70
     0
  0
ENDTAB
  0
TABLE
  2
DIMSTYLE
  5
A
330
0
100
AcDbSymbolTable
 70
     1
  0
DIMSTYLE
105
27
330
A
100
AcDbSymbolTableRecord
100
AcDbDimStyleTableRecord
  2
ISO-25
 70
     0
  3

  4

  5

  6

  7

 40
1.0
 41
2.5
 42
0.625
 43
3.75
 44
1.25
 45
0.0
 46
0.0
 47
0.0
 48
0.0
140
2.5
141
2.5
142
0.0
143
0.03937007874016
144
1.0
145
0.0
146
1.0
147
0.625
 71
     0
 72
     0
 73
     0
 74
     0
 75
     0
 76
     0
 77
     1
 78
     8
170
     0
171
     3
172
     1
173
     0
174
     0
175
     0
176
     0
177
     0
178
     0
270
     2
271
     2
272
     2
273
     2
274
     3
340
11
275
     0
280
     0
281
     0
282
     0
283
     0
284
     8
285
     0
286
     0
287
     3
288
     0
  0
ENDTAB
  0
TABLE
  2
BLOCK_RECORD
  5
1
330
0
100
AcDbSymbolTable
 70
     1
  0
BLOCK_RECORD
  5
1F
330
1
100
AcDbSymbolTableRecord
100
AcDbBlockTableRecord
  2
*MODEL_SPACE
  0
BLOCK_RECORD
  5
1B
330
1
100
AcDbSymbolTableRecord
100
AcDbBlockTableRecord
  2
*PAPER_SPACE
  0
ENDTAB
  0
ENDSEC
  0
SECTION
  2
BLOCKS
  0
BLOCK
  5
20
330
1F
100
AcDbEntity
  8
0
100
AcDbBlockBegin
  2
*MODEL_SPACE
 70
     0
 10
0.0
 20
0.0
 30
0.0
  3
*MODEL_SPACE
  1

  0
ENDBLK
  5
21
330
1F
100
AcDbEntity
  8
0
100
AcDbBlockEnd
  0
BLOCK
  5
1C
330
1B
100
AcDbEntity
 67
     1
  8
0
100
AcDbBlockBegin
  2
*PAPER_SPACE
  1

  0
ENDBLK
  5
1D
330
1B
100
AcDbEntity
 67
     1
  8
0
100
AcDbBlockEnd
  0
ENDSEC
  0
SECTION
  2
ENTITIES
  0
SPLINE
  5
100
100
AcDbEntity
  8
0
 62
7
100
AcDbSpline
 70
8
 71
3
 72
8
 73
4
 74
0
 40
0
 40
0
 40
0
 40
0
 40
1
 40
1
 40
1
 40
1
 10
423.500002
 20
23.612392
 30
0.0
 10
378.459750
 20
26.002133
 30
0.0
 10
320.163810
 20
39.971130
 30
0.0
 10
278.000002
 20
58.477417
 30
0.0
  0
SPLINE
  5
101
100
AcDbEntity
  8
0
 62
7
100
AcDbSpline
 70
8
 71
3
 72
8
 73
4
 74
0
 40
0
 40
0
 40
0
 40
0
 40
1
 40
1
 40
1
 40
1
 10
278.000002
 20
58.477417
 30
0.0
 10
247.861372
 20
71.705700
 30
0.0
 10
232.987132
 20
75.492840
 30
0.0
 10
170.079697
 20
85.955077
 30
0.0
  0
SPLINE
  5
102
100
AcDbEntity
  8
0
 62
7
100
AcDbSpline
 70
8
 71
3
 72
8
 73
4
 74
0
 40
0
 40
0
 40
0
 40
0
 40
1
 40
1
 40
1
 40
1
 10
170.079697
 20
85.955077
 30
0.0
 10
128.671627
 20
92.841720
 30
0.0
 10
122.954730
 20
93.370267
 30
0.0
 10
66.500000
 20
95.531280
 30
0.0
  0
SPLINE
  5
103
100
AcDbEntity
  8
0
 62
7
100
AcDbSpline
 70
8
 71
3
 72
8
 73
4
 74
0
 40
0
 40
0
 40
0
 40
0
 40
1
 40
1
 40
1
 40
1
 10
66.500000
 20
95.531280
 30
0.0
 10
45.050000
 20
96.352357
 30
0.0
 10
25.113700
 20
97.405267
 30
0.0
 10
22.197112
 20
97.871092
 30
0.0
  0
SPLINE
  5
104
100
AcDbEntity
  8
0
 62
7
100
AcDbSpline
 70
8
 71
3
 72
8
 73
4
 74
0
 40
0
 40
0
 40
0
 40
0
 40
1
 40
1
 40
1
 40
1
 10
22.197112
 20
97.871092
 30
0.0
 10
17.530516
 20
98.616412
 30
0.0
 10
16.968646
 20
98.524972
 30
0.0
 10
17.514464
 20
97.109017
 30
0.0
  0
SPLINE
  5
105
100
AcDbEntity
  8
0
 62
7
100
AcDbSpline
 70
8
 71
3
 72
8
 73
4
 74
0
 40
0
 40
0
 40
0
 40
0
 40
1
 40
1
 40
1
 40
1
 10
17.514464
 20
97.109017
 30
0.0
 10
21.642265
 20
86.400750
 30
0.0
 10
23.189405
 20
60.053640
 30
0.0
 10
20.574381
 20
45.000000
 30
0.0
  0
SPLINE
  5
106
100
AcDbEntity
  8
0
 62
7
100
AcDbSpline
 70
8
 71
3
 72
8
 73
4
 74
0
 40
0
 40
0
 40
0
 40
0
 40
1
 40
1
 40
1
 40
1
 10
20.574381
 20
45.000000
 30
0.0
 10
14.547468
 20
10.305480
 30
0.0
 10
0.069776
 20
24.073853
 30
0.0
 10
0.069776
 20
64.500000
 30
0.0
  0
SPLINE
  5
107
100
AcDbEntity
  8
0
 62
7
100
AcDbSpline
 70
8
 71
3
 72
8
 73
4
 74
0
 40
0
 40
0
 40
0
 40
0
 40
1
 40
1
 40
1
 40
1
 10
0.069776
 20
64.500000
 30
0.0
 10
0.069776
 20
79.653570
 30
0.0
 10
1.881585
 20
91.254877
 30
0.0
 10
5.339310
 20
98.241668
 30
0.0
  0
SPLINE
  5
108
100
AcDbEntity
  8
0
 62
7
100
AcDbSpline
 70
8
 71
3
 72
8
 73
4
 74
0
 40
0
 40
0
 40
0
 40
0
 40
1
 40
1
 40
1
 40
1
 10
5.413152
 20
106.723118
 30
0.0
 10
1.207381
 20
112.920660
 30
0.0
 10
0.660134
 20
116.486317
 30
0.0
 10
0.252930
 20
140.345197
 30
0.0
  0
SPLINE
  5
109
100
AcDbEntity
  8
0
 62
7
100
AcDbSpline
 70
8
 71
3
 72
8
 73
4
 74
0
 40
0
 40
0
 40
0
 40
0
 40
1
 40
1
 40
1
 40
1
 10
0.252930
 20
140.345197
 30
0.0
 10
-0.101873
 20
161.133840
 30
0.0
 10
0.046052
 20
163.789463
 30
0.0
 10
1.896158
 20
169.845195
 30
0.0
  0
SPLINE
  5
10a
100
AcDbEntity
  8
0
 62
7
100
AcDbSpline
 70
8
 71
3
 72
8
 73
4
 74
0
 40
0
 40
0
 40
0
 40
0
 40
1
 40
1
 40
1
 40
1
 10
1.896158
 20
169.845195
 30
0.0
 10
4.386130
 20
177.995324
 30
0.0
 10
6.407839
 20
181.000000
 30
0.0
 10
9.401716
 20
181.000000
 30
0.0
  0
SPLINE
  5
10b
100
AcDbEntity
  8
0
 62
7
100
AcDbSpline
 70
8
 71
3
 72
8
 73
4
 74
0
 40
0
 40
0
 40
0
 40
0
 40
1
 40
1
 40
1
 40
1
 10
9.401716
 20
181.000000
 30
0.0
 10
16.876592
 20
181.000000
 30
0.0
 10
21.801878
 20
161.585055
 30
0.0
 10
20.690711
 20
136.500000
 30
0.0
  0
SPLINE
  5
10c
100
AcDbEntity
  8
0
 62
7
100
AcDbSpline
 70
8
 71
3
 72
8
 73
4
 74
0
 40
0
 40
0
 40
0
 40
0
 40
1
 40
1
 40
1
 40
1
 10
20.690711
 20
136.500000
 30
0.0
 10
20.342188
 20
128.631960
 30
0.0
 10
19.343374
 20
120.539257
 30
0.0
 10
18.160567
 20
116.000003
 30
0.0
  0
SPLINE
  5
10d
100
AcDbEntity
  8
0
 62
7
100
AcDbSpline
 70
8
 71
3
 72
8
 73
4
 74
0
 40
0
 40
0
 40
0
 40
0
 40
1
 40
1
 40
1
 40
1
 10
18.160567
 20
116.000003
 30
0.0
 10
17.085703
 20
111.875002
 30
0.0
 10
16.287688
 20
108.409672
 30
0.0
 10
16.387200
 20
108.299273
 30
0.0
  0
SPLINE
  5
10e
100
AcDbEntity
  8
0
 62
7
100
AcDbSpline
 70
8
 71
3
 72
8
 73
4
 74
0
 40
0
 40
0
 40
0
 40
0
 40
1
 40
1
 40
1
 40
1
 10
16.387200
 20
108.299273
 30
0.0
 10
16.486710
 20
108.188873
 30
0.0
 10
21.502800
 20
110.366250
 30
0.0
 10
27.534065
 20
113.137912
 30
0.0
  0
SPLINE
  5
10f
100
AcDbEntity
  8
0
 62
7
100
AcDbSpline
 70
8
 71
3
 72
8
 73
4
 74
0
 40
0
 40
0
 40
0
 40
0
 40
1
 40
1
 40
1
 40
1
 10
27.534065
 20
113.137912
 30
0.0
 10
111.510953
 20
151.729298
 30
0.0
 10
199.045912
 20
173.838368
 30
0.0
 10
300.999998
 20
182.208340
 30
0.0
  0
SPLINE
  5
110
100
AcDbEntity
  8
0
 62
7
100
AcDbSpline
 70
8
 71
3
 72
8
 73
4
 74
0
 40
0
 40
0
 40
0
 40
0
 40
1
 40
1
 40
1
 40
1
 10
300.999998
 20
182.208340
 30
0.0
 10
318.418770
 20
183.638343
 30
0.0
 10
413.286142
 20
183.995351
 30
0.0
 10
441.750000
 20
182.738014
 30
0.0
  0
LWPOLYLINE
  5
111
100
AcDbEntity
  8
0
 62
7
100
AcDbPolyline
 90
3
 70
0
 10
5.339310
 20
98.241668
 30
0.0
 10
7.797732
 20
103.209240
 30
0.0
 10
5.413152
 20
106.723118
 30
0.0
  0
SPLINE
  5
112
100
AcDbEntity
  8
0
 62
7
100
AcDbSpline
 70
8
 71
3
 72
8
 73
4
 74
0
 40
0
 40
0
 40
0
 40
0
 40
1
 40
1
 40
1
 40
1
 10
459.000000
 20
190.265508
 30
0.0
 10
459.000000
 20
196.310740
 30
0.0
 10
459.441480
 20
199.185295
 30
0.0
 10
460.630688
 20
200.883127
 30
0.0
  0
SPLINE
  5
113
100
AcDbEntity
  8
0
 62
7
100
AcDbSpline
 70
8
 71
3
 72
8
 73
4
 74
0
 40
0
 40
0
 40
0
 40
0
 40
1
 40
1
 40
1
 40
1
 10
460.630688
 20
200.883127
 30
0.0
 10
464.193248
 20
205.969384
 30
0.0
 10
464.592458
 20
206.000000
 30
0.0
 10
527.351520
 20
206.000000
 30
0.0
  0
LWPOLYLINE
  5
114
100
AcDbEntity
  8
0
 62
7
100
AcDbPolyline
 90
3
 70
0
 10
441.750000
 20
182.738014
 30
0.0
 10
459.000000
 20
181.976029
 30
0.0
 10
459.000000
 20
190.265508
 30
0.0
  0
SPLINE
  5
115
100
AcDbEntity
  8
0
 62
7
100
AcDbSpline
 70
8
 71
3
 72
8
 73
4
 74
0
 40
0
 40
0
 40
0
 40
0
 40
1
 40
1
 40
1
 40
1
 10
589.241467
 20
209.845518
 30
0.0
 10
591.152280
 20
211.960553
 30
0.0
 10
594.582990
 20
216.440790
 30
0.0
 10
596.865270
 20
219.801600
 30
0.0
  0
SPLINE
  5
116
100
AcDbEntity
  8
0
 62
7
100
AcDbSpline
 70
8
 71
3
 72
8
 73
4
 74
0
 40
0
 40
0
 40
0
 40
0
 40
1
 40
1
 40
1
 40
1
 10
596.865270
 20
219.801600
 30
0.0
 10
602.006618
 20
227.372580
 30
0.0
 10
602.478322
 20
227.486302
 30
0.0
 10
624.677903
 20
226.507069
 30
0.0
  0
LWPOLYLINE
  5
117
100
AcDbEntity
  8
0
 62
7
100
AcDbPolyline
 90
3
 70
0
 10
527.351520
 20
206.000000
 30
0.0
 10
585.767280
 20
206.000000
 30
0.0
 10
589.241467
 20
209.845518
 30
0.0
  0
SPLINE
  5
118
100
AcDbEntity
  8
0
 62
7
100
AcDbSpline
 70
8
 71
3
 72
8
 73
4
 74
0
 40
0
 40
0
 40
0
 40
0
 40
1
 40
1
 40
1
 40
1
 10
640.593713
 20
217.680260
 30
0.0
 10
640.222410
 20
213.228023
 30
0.0
 10
639.736943
 20
209.403611
 30
0.0
 10
639.514898
 20
209.181567
 30
0.0
  0
SPLINE
  5
119
100
AcDbEntity
  8
0
 62
7
100
AcDbSpline
 70
8
 71
3
 72
8
 73
4
 74
0
 40
0
 40
0
 40
0
 40
0
 40
1
 40
1
 40
1
 40
1
 10
639.514898
 20
209.181567
 30
0.0
 10
639.292860
 20
208.959522
 30
0.0
 10
633.651480
 20
209.328793
 30
0.0
 10
626.978513
 20
210.002168
 30
0.0
  0
LWPOLYLINE
  5
11a
100
AcDbEntity
  8
0
 62
7
100
AcDbPolyline
 90
3
 70
0
 10
624.677903
 20
226.507069
 30
0.0
 10
641.268810
 20
225.775236
 30
0.0
 10
640.593713
 20
217.680260
 30
0.0
  0
SPLINE
  5
11b
100
AcDbEntity
  8
0
 62
7
100
AcDbSpline
 70
8
 71
3
 72
8
 73
4
 74
0
 40
0
 40
0
 40
0
 40
0
 40
1
 40
1
 40
1
 40
1
 10
611.907623
 20
203.909987
 30
0.0
 10
613.488413
 20
202.948652
 30
0.0
 10
615.168383
 20
201.563131
 30
0.0
 10
615.640890
 20
200.831052
 30
0.0
  0
SPLINE
  5
11c
100
AcDbEntity
  8
0
 62
7
100
AcDbSpline
 70
8
 71
3
 72
8
 73
4
 74
0
 40
0
 40
0
 40
0
 40
0
 40
1
 40
1
 40
1
 40
1
 10
615.640890
 20
200.831052
 30
0.0
 10
616.113398
 20
200.098973
 30
0.0
 10
616.725000
 20
191.008378
 30
0.0
 10
617.000003
 20
180.629730
 30
0.0
  0
LWPOLYLINE
  5
11d
100
AcDbEntity
  8
0
 62
7
100
AcDbPolyline
 90
5
 70
0
 10
626.978513
 20
210.002168
 30
0.0
 10
614.845838
 20
211.226487
 30
0.0
 10
611.939648
 20
208.442178
 30
0.0
 10
609.033450
 20
205.657870
 30
0.0
 10
611.907623
 20
203.909987
 30
0.0
  0
SPLINE
  5
11e
100
AcDbEntity
  8
0
 62
7
100
AcDbSpline
 70
8
 71
3
 72
8
 73
4
 74
0
 40
0
 40
0
 40
0
 40
0
 40
1
 40
1
 40
1
 40
1
 10
632.560200
 20
157.948905
 30
0.0
 10
664.393988
 20
149.894280
 30
0.0
 10
691.802753
 20
138.596700
 30
0.0
 10
704.499998
 20
128.296140
 30
0.0
  0
SPLINE
  5
11f
100
AcDbEntity
  8
0
 62
7
100
AcDbSpline
 70
8
 71
3
 72
8
 73
4
 74
0
 40
0
 40
0
 40
0
 40
0
 40
1
 40
1
 40
1
 40
1
 10
704.499998
 20
128.296140
 30
0.0
 10
712.067587
 20
122.156993
 30
0.0
 10
717.000000
 20
114.248662
 30
0.0
 10
717.000000
 20
108.254400
 30
0.0
  0
SPLINE
  5
120
100
AcDbEntity
  8
0
 62
7
100
AcDbSpline
 70
8
 71
3
 72
8
 73
4
 74
0
 40
0
 40
0
 40
0
 40
0
 40
1
 40
1
 40
1
 40
1
 10
717.000000
 20
108.254400
 30
0.0
 10
717.000000
 20
96.470483
 30
0.0
 10
703.608457
 20
84.403650
 30
0.0
 10
675.605063
 20
70.954320
 30
0.0
  0
SPLINE
  5
121
100
AcDbEntity
  8
0
 62
7
100
AcDbSpline
 70
8
 71
3
 72
8
 73
4
 74
0
 40
0
 40
0
 40
0
 40
0
 40
1
 40
1
 40
1
 40
1
 10
675.605063
 20
70.954320
 30
0.0
 10
629.413612
 20
48.769718
 30
0.0
 10
559.658977
 20
31.588867
 30
0.0
 10
491.000002
 20
25.485353
 30
0.0
  0
SPLINE
  5
122
100
AcDbEntity
  8
0
 62
7
100
AcDbSpline
 70
8
 71
3
 72
8
 73
4
 74
0
 40
0
 40
0
 40
0
 40
0
 40
1
 40
1
 40
1
 40
1
 10
491.000002
 20
25.485353
 30
0.0
 10
474.214200
 20
23.993160
 30
0.0
 10
436.202497
 20
22.938428
 30
0.0
 10
423.500002
 20
23.612393
 30
0.0
  0
LWPOLYLINE
  5
123
100
AcDbEntity
  8
0
 62
7
100
AcDbPolyline
 90
3
 70
0
 10
617.000003
 20
180.629730
 30
0.0
 10
617.499998
 20
161.759460
 30
0.0
 10
632.560200
 20
157.948905
 30
0.0
  0
SPLINE
  5
124
100
AcDbEntity
  8
0
 62
7
100
AcDbSpline
 70
8
 71
3
 72
8
 73
4
 74
0
 40
0
 40
0
 40
0
 40
0
 40
1
 40
1
 40
1
 40
1
 10
299.229727
 20
90.449242
 30
0.0
 10
301.714267
 20
92.346330
 30
0.0
 10
303.990300
 20
94.532340
 30
0.0
 10
304.287592
 20
95.307052
 30
0.0
  0
SPLINE
  5
125
100
AcDbEntity
  8
0
 62
7
100
AcDbSpline
 70
8
 71
3
 72
8
 73
4
 74
0
 40
0
 40
0
 40
0
 40
0
 40
1
 40
1
 40
1
 40
1
 10
304.287592
 20
95.307052
 30
0.0
 10
304.584870
 20
96.081772
 30
0.0
 10
306.111840
 20
96.972367
 30
0.0
 10
307.680840
 20
97.286167
 30
0.0
  0
SPLINE
  5
126
100
AcDbEntity
  8
0
 62
7
100
AcDbSpline
 70
8
 71
3
 72
8
 73
4
 74
0
 40
0
 40
0
 40
0
 40
0
 40
1
 40
1
 40
1
 40
1
 10
307.680840
 20
97.286167
 30
0.0
 10
309.526282
 20
97.655257
 30
0.0
 10
314.141633
 20
101.437132
 30
0.0
 10
320.751780
 20
107.996647
 30
0.0
  0
SPLINE
  5
127
100
AcDbEntity
  8
0
 62
7
100
AcDbSpline
 70
8
 71
3
 72
8
 73
4
 74
0
 40
0
 40
0
 40
0
 40
0
 40
1
 40
1
 40
1
 40
1
 10
320.751780
 20
107.996647
 30
0.0
 10
326.371793
 20
113.573617
 30
0.0
 10
331.426740
 20
117.854302
 30
0.0
 10
331.984987
 20
117.509280
 30
0.0
  0
SPLINE
  5
128
100
AcDbEntity
  8
0
 62
7
100
AcDbSpline
 70
8
 71
3
 72
8
 73
4
 74
0
 40
0
 40
0
 40
0
 40
0
 40
1
 40
1
 40
1
 40
1
 10
331.984987
 20
117.509280
 30
0.0
 10
333.722168
 20
116.435640
 30
0.0
 10
333.105983
 20
110.168340
 30
0.0
 10
330.500002
 20
102.405262
 30
0.0
  0
SPLINE
  5
129
100
AcDbEntity
  8
0
 62
7
100
AcDbSpline
 70
8
 71
3
 72
8
 73
4
 74
0
 40
0
 40
0
 40
0
 40
0
 40
1
 40
1
 40
1
 40
1
 10
330.500002
 20
102.405262
 30
0.0
 10
327.540247
 20
93.588323
 30
0.0
 10
327.627758
 20
94.515097
 30
0.0
 10
329.571428
 20
92.571427
 30
0.0
  0
SPLINE
  5
12a
100
AcDbEntity
  8
0
 62
7
100
AcDbSpline
 70
8
 71
3
 72
8
 73
4
 74
0
 40
0
 40
0
 40
0
 40
0
 40
1
 40
1
 40
1
 40
1
 10
329.571428
 20
92.571427
 30
0.0
 10
331.982918
 20
90.159937
 30
0.0
 10
335.080350
 20
90.673612
 30
0.0
 10
341.046337
 20
94.474402
 30
0.0
  0
SPLINE
  5
12b
100
AcDbEntity
  8
0
 62
7
100
AcDbSpline
 70
8
 71
3
 72
8
 73
4
 74
0
 40
0
 40
0
 40
0
 40
0
 40
1
 40
1
 40
1
 40
1
 10
341.046337
 20
94.474402
 30
0.0
 10
344.045850
 20
96.385327
 30
0.0
 10
346.807613
 20
97.960327
 30
0.0
 10
347.183580
 20
97.974397
 30
0.0
  0
SPLINE
  5
12c
100
AcDbEntity
  8
0
 62
7
100
AcDbSpline
 70
8
 71
3
 72
8
 73
4
 74
0
 40
0
 40
0
 40
0
 40
0
 40
1
 40
1
 40
1
 40
1
 10
347.183580
 20
97.974397
 30
0.0
 10
347.559548
 20
97.988497
 30
0.0
 10
348.009548
 20
96.765817
 30
0.0
 10
348.183578
 20
95.257387
 30
0.0
  0
SPLINE
  5
12d
100
AcDbEntity
  8
0
 62
7
100
AcDbSpline
 70
8
 71
3
 72
8
 73
4
 74
0
 40
0
 40
0
 40
0
 40
0
 40
1
 40
1
 40
1
 40
1
 10
348.183578
 20
95.257387
 30
0.0
 10
348.393548
 20
93.437400
 30
0.0
 10
349.413473
 20
92.079007
 30
0.0
 10
351.215393
 20
91.219410
 30
0.0
  0
SPLINE
  5
12e
100
AcDbEntity
  8
0
 62
7
100
AcDbSpline
 70
8
 71
3
 72
8
 73
4
 74
0
 40
0
 40
0
 40
0
 40
0
 40
1
 40
1
 40
1
 40
1
 10
351.215393
 20
91.219410
 30
0.0
 10
353.588377
 20
90.087382
 30
0.0
 10
354.461813
 20
90.194947
 30
0.0
 10
358.142018
 20
92.072452
 30
0.0
  0
SPLINE
  5
12f
100
AcDbEntity
  8
0
 62
7
100
AcDbSpline
 70
8
 71
3
 72
8
 73
4
 74
0
 40
0
 40
0
 40
0
 40
0
 40
1
 40
1
 40
1
 40
1
 10
358.142018
 20
92.072452
 30
0.0
 10
360.458197
 20
93.254077
 30
0.0
 10
364.724888
 20
96.463860
 30
0.0
 10
367.623563
 20
99.205312
 30
0.0
  0
LWPOLYLINE
  5
130
100
AcDbEntity
  8
0
 62
7
100
AcDbPolyline
 90
1
 70
1
 10
423.500002
 20
23.612393
 30
0.0
  0
SPLINE
  5
131
100
AcDbEntity
  8
0
 62
7
100
AcDbSpline
 70
8
 71
3
 72
8
 73
4
 74
0
 40
0
 40
0
 40
0
 40
0
 40
1
 40
1
 40
1
 40
1
 10
374.362282
 20
100.675372
 30
0.0
 10
376.924028
 20
94.544227
 30
0.0
 10
382.251563
 20
93.324262
 30
0.0
 10
388.360448
 20
97.469857
 30
0.0
  0
SPLINE
  5
132
100
AcDbEntity
  8
0
 62
7
100
AcDbSpline
 70
8
 71
3
 72
8
 73
4
 74
0
 40
0
 40
0
 40
0
 40
0
 40
1
 40
1
 40
1
 40
1
 10
388.360448
 20
97.469857
 30
0.0
 10
390.956280
 20
99.231442
 30
0.0
 10
392.000003
 20
99.540210
 30
0.0
 10
392.000003
 20
98.546587
 30
0.0
  0
SPLINE
  5
133
100
AcDbEntity
  8
0
 62
7
100
AcDbSpline
 70
8
 71
3
 72
8
 73
4
 74
0
 40
0
 40
0
 40
0
 40
0
 40
1
 40
1
 40
1
 40
1
 10
392.000003
 20
98.546587
 30
0.0
 10
392.000003
 20
97.780357
 30
0.0
 10
393.115890
 20
95.827290
 30
0.0
 10
394.479750
 20
94.206427
 30
0.0
  0
SPLINE
  5
134
100
AcDbEntity
  8
0
 62
7
100
AcDbSpline
 70
8
 71
3
 72
8
 73
4
 74
0
 40
0
 40
0
 40
0
 40
0
 40
1
 40
1
 40
1
 40
1
 10
394.479750
 20
94.206427
 30
0.0
 10
400.251653
 20
87.346920
 30
0.0
 10
408.184133
 20
87.502207
 30
0.0
 10
418.783658
 20
94.682220
 30
0.0
  0
SPLINE
  5
135
100
AcDbEntity
  8
0
 62
7
100
AcDbSpline
 70
8
 71
3
 72
8
 73
4
 74
0
 40
0
 40
0
 40
0
 40
0
 40
1
 40
1
 40
1
 40
1
 10
418.783658
 20
94.682220
 30
0.0
 10
422.477648
 20
97.184490
 30
0.0
 10
426.722197
 20
100.374172
 30
0.0
 10
428.216003
 20
101.770417
 30
0.0
  0
LWPOLYLINE
  5
136
100
AcDbEntity
  8
0
 62
7
100
AcDbPolyline
 90
3
 70
0
 10
367.623563
 20
99.205312
 30
0.0
 10
372.893880
 20
104.189752
 30
0.0
 10
374.362282
 20
100.675372
 30
0.0
  0
SPLINE
  5
137
100
AcDbEntity
  8
0
 62
7
100
AcDbSpline
 70
8
 71
3
 72
8
 73
4
 74
0
 40
0
 40
0
 40
0
 40
0
 40
1
 40
1
 40
1
 40
1
 10
431.891318
 20
101.785837
 30
0.0
 10
433.164503
 20
98.437140
 30
0.0
 10
437.661098
 20
95.000002
 30
0.0
 10
440.768843
 20
95.000002
 30
0.0
  0
SPLINE
  5
138
100
AcDbEntity
  8
0
 62
7
100
AcDbSpline
 70
8
 71
3
 72
8
 73
4
 74
0
 40
0
 40
0
 40
0
 40
0
 40
1
 40
1
 40
1
 40
1
 10
440.768843
 20
95.000002
 30
0.0
 10
445.210613
 20
95.000002
 30
0.0
 10
450.964313
 20
97.256370
 30
0.0
 10
454.579170
 20
100.415850
 30
0.0
  0
SPLINE
  5
139
100
AcDbEntity
  8
0
 62
7
100
AcDbSpline
 70
8
 71
3
 72
8
 73
4
 74
0
 40
0
 40
0
 40
0
 40
0
 40
1
 40
1
 40
1
 40
1
 10
454.579170
 20
100.415850
 30
0.0
 10
457.945470
 20
103.358092
 30
0.0
 10
458.053500
 20
103.653382
 30
0.0
 10
456.927000
 20
106.833442
 30
0.0
  0
SPLINE
  5
13a
100
AcDbEntity
  8
0
 62
7
100
AcDbSpline
 70
8
 71
3
 72
8
 73
4
 74
0
 40
0
 40
0
 40
0
 40
0
 40
1
 40
1
 40
1
 40
1
 10
456.927000
 20
106.833442
 30
0.0
 10
456.081143
 20
109.221277
 30
0.0
 10
455.285753
 20
110.013727
 30
0.0
 10
454.123088
 20
109.626990
 30
0.0
  0
SPLINE
  5
13b
100
AcDbEntity
  8
0
 62
7
100
AcDbSpline
 70
8
 71
3
 72
8
 73
4
 74
0
 40
0
 40
0
 40
0
 40
0
 40
1
 40
1
 40
1
 40
1
 10
454.123088
 20
109.626990
 30
0.0
 10
445.482690
 20
106.752922
 30
0.0
 10
443.996093
 20
106.575337
 30
0.0
 10
442.350653
 20
108.220777
 30
0.0
  0
SPLINE
  5
13c
100
AcDbEntity
  8
0
 62
7
100
AcDbSpline
 70
8
 71
3
 72
8
 73
4
 74
0
 40
0
 40
0
 40
0
 40
0
 40
1
 40
1
 40
1
 40
1
 10
442.350653
 20
108.220777
 30
0.0
 10
440.834378
 20
109.737052
 30
0.0
 10
441.092520
 20
110.283292
 30
0.0
 10
445.845398
 20
115.615897
 30
0.0
  0
SPLINE
  5
13d
100
AcDbEntity
  8
0
 62
7
100
AcDbSpline
 70
8
 71
3
 72
8
 73
4
 74
0
 40
0
 40
0
 40
0
 40
0
 40
1
 40
1
 40
1
 40
1
 10
445.845398
 20
115.615897
 30
0.0
 10
451.939410
 20
122.453227
 30
0.0
 10
454.521330
 20
128.407537
 30
0.0
 10
453.576353
 20
133.444710
 30
0.0
  0
SPLINE
  5
13e
100
AcDbEntity
  8
0
 62
7
100
AcDbSpline
 70
8
 71
3
 72
8
 73
4
 74
0
 40
0
 40
0
 40
0
 40
0
 40
1
 40
1
 40
1
 40
1
 10
453.576353
 20
133.444710
 30
0.0
 10
452.347418
 20
139.995472
 30
0.0
 10
446.112773
 20
140.903557
 30
0.0
 10
440.039160
 20
135.416422
 30
0.0
  0
SPLINE
  5
13f
100
AcDbEntity
  8
0
 62
7
100
AcDbSpline
 70
8
 71
3
 72
8
 73
4
 74
0
 40
0
 40
0
 40
0
 40
0
 40
1
 40
1
 40
1
 40
1
 10
440.039160
 20
135.416422
 30
0.0
 10
435.907403
 20
131.683612
 30
0.0
 10
430.004723
 20
121.209210
 30
0.0
 10
429.993540
 20
117.590280
 30
0.0
  0
SPLINE
  5
140
100
AcDbEntity
  8
0
 62
7
100
AcDbSpline
 70
8
 71
3
 72
8
 73
4
 74
0
 40
0
 40
0
 40
0
 40
0
 40
1
 40
1
 40
1
 40
1
 10
429.993540
 20
117.590280
 30
0.0
 10
429.976740
 20
112.155172
 30
0.0
 10
414.914063
 20
99.999997
 30
0.0
 10
408.195660
 20
99.999997
 30
0.0
  0
SPLINE
  5
141
100
AcDbEntity
  8
0
 62
7
100
AcDbSpline
 70
8
 71
3
 72
8
 73
4
 74
0
 40
0
 40
0
 40
0
 40
0
 40
1
 40
1
 40
1
 40
1
 10
408.195660
 20
99.999997
 30
0.0
 10
404.870633
 20
99.999997
 30
0.0
 10
403.357920
 20
102.401640
 30
0.0
 10
404.472008
 20
105.911820
 30
0.0
  0
SPLINE
  5
142
100
AcDbEntity
  8
0
 62
7
100
AcDbSpline
 70
8
 71
3
 72
8
 73
4
 74
0
 40
0
 40
0
 40
0
 40
0
 40
1
 40
1
 40
1
 40
1
 10
404.472008
 20
105.911820
 30
0.0
 10
405.162540
 20
108.087487
 30
0.0
 10
411.358417
 20
113.373382
 30
0.0
 10
417.999998
 20
117.452962
 30
0.0
  0
SPLINE
  5
143
100
AcDbEntity
  8
0
 62
7
100
AcDbSpline
 70
8
 71
3
 72
8
 73
4
 74
0
 40
0
 40
0
 40
0
 40
0
 40
1
 40
1
 40
1
 40
1
 10
417.999998
 20
117.452962
 30
0.0
 10
423.731438
 20
120.973492
 30
0.0
 10
425.000003
 20
122.625457
 30
0.0
 10
425.000003
 20
126.568680
 30
0.0
  0
SPLINE
  5
144
100
AcDbEntity
  8
0
 62
7
100
AcDbSpline
 70
8
 71
3
 72
8
 73
4
 74
0
 40
0
 40
0
 40
0
 40
0
 40
1
 40
1
 40
1
 40
1
 10
425.000003
 20
126.568680
 30
0.0
 10
425.000003
 20
135.286312
 30
0.0
 10
417.276203
 20
132.574507
 30
0.0
 10
399.000000
 20
117.440197
 30
0.0
  0
SPLINE
  5
145
100
AcDbEntity
  8
0
 62
7
100
AcDbSpline
 70
8
 71
3
 72
8
 73
4
 74
0
 40
0
 40
0
 40
0
 40
0
 40
1
 40
1
 40
1
 40
1
 10
399.000000
 20
117.440197
 30
0.0
 10
394.875000
 20
114.024330
 30
0.0
 10
390.642758
 20
110.277892
 30
0.0
 10
389.595008
 20
109.114762
 30
0.0
  0
SPLINE
  5
146
100
AcDbEntity
  8
0
 62
7
100
AcDbSpline
 70
8
 71
3
 72
8
 73
4
 74
0
 40
0
 40
0
 40
0
 40
0
 40
1
 40
1
 40
1
 40
1
 10
389.595008
 20
109.114762
 30
0.0
 10
386.467860
 20
105.643252
 30
0.0
 10
384.999998
 20
106.426207
 30
0.0
 10
384.999998
 20
111.565740
 30
0.0
  0
SPLINE
  5
147
100
AcDbEntity
  8
0
 62
7
100
AcDbSpline
 70
8
 71
3
 72
8
 73
4
 74
0
 40
0
 40
0
 40
0
 40
0
 40
1
 40
1
 40
1
 40
1
 10
384.999998
 20
111.565740
 30
0.0
 10
384.999998
 20
118.211092
 30
0.0
 10
383.573123
 20
120.364620
 30
0.0
 10
379.685273
 20
119.587050
 30
0.0
  0
SPLINE
  5
148
100
AcDbEntity
  8
0
 62
7
100
AcDbSpline
 70
8
 71
3
 72
8
 73
4
 74
0
 40
0
 40
0
 40
0
 40
0
 40
1
 40
1
 40
1
 40
1
 10
379.685273
 20
119.587050
 30
0.0
 10
377.963610
 20
119.242717
 30
0.0
 10
374.967600
 20
117.514440
 30
0.0
 10
373.027493
 20
115.746420
 30
0.0
  0
SPLINE
  5
149
100
AcDbEntity
  8
0
 62
7
100
AcDbSpline
 70
8
 71
3
 72
8
 73
4
 74
0
 40
0
 40
0
 40
0
 40
0
 40
1
 40
1
 40
1
 40
1
 10
373.027493
 20
115.746420
 30
0.0
 10
371.087370
 20
113.978400
 30
0.0
 10
373.212503
 20
116.359080
 30
0.0
 10
377.750003
 20
121.036807
 30
0.0
  0
SPLINE
  5
14a
100
AcDbEntity
  8
0
 62
7
100
AcDbSpline
 70
8
 71
3
 72
8
 73
4
 74
0
 40
0
 40
0
 40
0
 40
0
 40
1
 40
1
 40
1
 40
1
 10
377.750003
 20
121.036807
 30
0.0
 10
386.087460
 20
129.631927
 30
0.0
 10
387.482618
 20
132.524640
 30
0.0
 10
384.488933
 20
135.009187
 30
0.0
  0
SPLINE
  5
14b
100
AcDbEntity
  8
0
 62
7
100
AcDbSpline
 70
8
 71
3
 72
8
 73
4
 74
0
 40
0
 40
0
 40
0
 40
0
 40
1
 40
1
 40
1
 40
1
 10
384.488933
 20
135.009187
 30
0.0
 10
383.266680
 20
136.023570
 30
0.0
 10
382.140593
 20
135.943507
 30
0.0
 10
378.597300
 20
134.590312
 30
0.0
  0
SPLINE
  5
14c
100
AcDbEntity
  8
0
 62
7
100
AcDbSpline
 70
8
 71
3
 72
8
 73
4
 74
0
 40
0
 40
0
 40
0
 40
0
 40
1
 40
1
 40
1
 40
1
 10
378.597300
 20
134.590312
 30
0.0
 10
373.992203
 20
132.831600
 30
0.0
 10
369.219510
 20
128.982607
 30
0.0
 10
347.537348
 20
109.541647
 30
0.0
  0
SPLINE
  5
14d
100
AcDbEntity
  8
0
 62
7
100
AcDbSpline
 70
8
 71
3
 72
8
 73
4
 74
0
 40
0
 40
0
 40
0
 40
0
 40
1
 40
1
 40
1
 40
1
 10
347.537348
 20
109.541647
 30
0.0
 10
344.807888
 20
107.094322
 30
0.0
 10
342.413063
 20
105.253612
 30
0.0
 10
342.215498
 20
105.451162
 30
0.0
  0
SPLINE
  5
14e
100
AcDbEntity
  8
0
 62
7
100
AcDbSpline
 70
8
 71
3
 72
8
 73
4
 74
0
 40
0
 40
0
 40
0
 40
0
 40
1
 40
1
 40
1
 40
1
 10
342.215498
 20
105.451162
 30
0.0
 10
342.017940
 20
105.648720
 30
0.0
 10
342.574868
 20
107.926837
 30
0.0
 10
343.453118
 20
110.513647
 30
0.0
  0
SPLINE
  5
14f
100
AcDbEntity
  8
0
 62
7
100
AcDbSpline
 70
8
 71
3
 72
8
 73
4
 74
0
 40
0
 40
0
 40
0
 40
0
 40
1
 40
1
 40
1
 40
1
 10
343.453118
 20
110.513647
 30
0.0
 10
346.100483
 20
118.311277
 30
0.0
 10
344.170410
 20
124.724227
 30
0.0
 10
337.612500
 20
129.919980
 30
0.0
  0
SPLINE
  5
150
100
AcDbEntity
  8
0
 62
7
100
AcDbSpline
 70
8
 71
3
 72
8
 73
4
 74
0
 40
0
 40
0
 40
0
 40
0
 40
1
 40
1
 40
1
 40
1
 10
337.612500
 20
129.919980
 30
0.0
 10
332.986148
 20
133.585380
 30
0.0
 10
332.642603
 20
133.612177
 30
0.0
 10
327.500003
 20
130.708830
 30
0.0
  0
SPLINE
  5
151
100
AcDbEntity
  8
0
 62
7
100
AcDbSpline
 70
8
 71
3
 72
8
 73
4
 74
0
 40
0
 40
0
 40
0
 40
0
 40
1
 40
1
 40
1
 40
1
 10
327.500003
 20
130.708830
 30
0.0
 10
324.404033
 20
128.960947
 30
0.0
 10
323.432588
 20
127.767420
 30
0.0
 10
323.201753
 20
125.427870
 30
0.0
  0
SPLINE
  5
152
100
AcDbEntity
  8
0
 62
7
100
AcDbSpline
 70
8
 71
3
 72
8
 73
4
 74
0
 40
0
 40
0
 40
0
 40
0
 40
1
 40
1
 40
1
 40
1
 10
323.201753
 20
125.427870
 30
0.0
 10
323.025570
 20
123.642262
 30
0.0
 10
321.303638
 20
120.582892
 30
0.0
 10
318.994388
 20
117.952590
 30
0.0
  0
SPLINE
  5
153
100
AcDbEntity
  8
0
 62
7
100
AcDbSpline
 70
8
 71
3
 72
8
 73
4
 74
0
 40
0
 40
0
 40
0
 40
0
 40
1
 40
1
 40
1
 40
1
 10
318.994388
 20
117.952590
 30
0.0
 10
315.221333
 20
113.654970
 30
0.0
 10
315.083790
 20
113.591452
 30
0.0
 10
315.042638
 20
116.127562
 30
0.0
  0
SPLINE
  5
154
100
AcDbEntity
  8
0
 62
7
100
AcDbSpline
 70
8
 71
3
 72
8
 73
4
 74
0
 40
0
 40
0
 40
0
 40
0
 40
1
 40
1
 40
1
 40
1
 10
315.042638
 20
116.127562
 30
0.0
 10
315.019163
 20
117.572707
 30
0.0
 10
314.437500
 20
119.210647
 30
0.0
 10
313.749998
 20
119.767417
 30
0.0
  0
SPLINE
  5
155
100
AcDbEntity
  8
0
 62
7
100
AcDbSpline
 70
8
 71
3
 72
8
 73
4
 74
0
 40
0
 40
0
 40
0
 40
0
 40
1
 40
1
 40
1
 40
1
 10
313.749998
 20
119.767417
 30
0.0
 10
311.929500
 20
121.241737
 30
0.0
 10
306.850238
 20
121.035247
 30
0.0
 10
304.246583
 20
119.381070
 30
0.0
  0
SPLINE
  5
156
100
AcDbEntity
  8
0
 62
7
100
AcDbSpline
 70
8
 71
3
 72
8
 73
4
 74
0
 40
0
 40
0
 40
0
 40
0
 40
1
 40
1
 40
1
 40
1
 10
304.246583
 20
119.381070
 30
0.0
 10
299.652278
 20
116.462190
 30
0.0
 10
294.413258
 20
105.098692
 30
0.0
 10
296.941448
 20
103.536180
 30
0.0
  0
SPLINE
  5
157
100
AcDbEntity
  8
0
 62
7
100
AcDbSpline
 70
8
 71
3
 72
8
 73
4
 74
0
 40
0
 40
0
 40
0
 40
0
 40
1
 40
1
 40
1
 40
1
 10
296.941448
 20
103.536180
 30
0.0
 10
298.971360
 20
102.281632
 30
0.0
 10
298.106513
 20
99.845767
 30
0.0
 10
295.749998
 20
100.180447
 30
0.0
  0
SPLINE
  5
158
100
AcDbEntity
  8
0
 62
7
100
AcDbSpline
 70
8
 71
3
 72
8
 73
4
 74
0
 40
0
 40
0
 40
0
 40
0
 40
1
 40
1
 40
1
 40
1
 10
295.749998
 20
100.180447
 30
0.0
 10
293.852603
 20
100.449922
 30
0.0
 10
293.360363
 20
101.379517
 30
0.0
 10
292.608908
 20
106.112460
 30
0.0
  0
LWPOLYLINE
  5
159
100
AcDbEntity
  8
0
 62
7
100
AcDbPolyline
 90
3
 70
0
 10
428.216003
 20
101.770417
 30
0.0
 10
430.932008
 20
104.309040
 30
0.0
 10
431.891318
 20
101.785837
 30
0.0
  0
SPLINE
  5
15a
100
AcDbEntity
  8
0
 62
7
100
AcDbSpline
 70
8
 71
3
 72
8
 73
4
 74
0
 40
0
 40
0
 40
0
 40
0
 40
1
 40
1
 40
1
 40
1
 10
298.233023
 20
123.112462
 30
0.0
 10
307.209060
 20
138.801142
 30
0.0
 10
308.871638
 20
142.245232
 30
0.0
 10
312.147893
 20
151.937587
 30
0.0
  0
SPLINE
  5
15b
100
AcDbEntity
  8
0
 62
7
100
AcDbSpline
 70
8
 71
3
 72
8
 73
4
 74
0
 40
0
 40
0
 40
0
 40
0
 40
1
 40
1
 40
1
 40
1
 10
312.147893
 20
151.937587
 30
0.0
 10
315.781860
 20
162.688215
 30
0.0
 10
315.917978
 20
168.352413
 30
0.0
 10
312.594668
 20
170.529924
 30
0.0
  0
SPLINE
  5
15c
100
AcDbEntity
  8
0
 62
7
100
AcDbSpline
 70
8
 71
3
 72
8
 73
4
 74
0
 40
0
 40
0
 40
0
 40
0
 40
1
 40
1
 40
1
 40
1
 10
312.594668
 20
170.529924
 30
0.0
 10
310.403738
 20
171.965480
 30
0.0
 10
309.849930
 20
171.964135
 30
0.0
 10
306.381270
 20
170.514841
 30
0.0
  0
SPLINE
  5
15d
100
AcDbEntity
  8
0
 62
7
100
AcDbSpline
 70
8
 71
3
 72
8
 73
4
 74
0
 40
0
 40
0
 40
0
 40
0
 40
1
 40
1
 40
1
 40
1
 10
306.381270
 20
170.514841
 30
0.0
 10
304.286828
 20
169.639729
 30
0.0
 10
301.719578
 20
168.153388
 30
0.0
 10
300.676283
 20
167.211865
 30
0.0
  0
SPLINE
  5
15e
100
AcDbEntity
  8
0
 62
7
100
AcDbSpline
 70
8
 71
3
 72
8
 73
4
 74
0
 40
0
 40
0
 40
0
 40
0
 40
1
 40
1
 40
1
 40
1
 10
300.676283
 20
167.211865
 30
0.0
 10
295.692548
 20
162.714322
 30
0.0
 10
285.931913
 20
136.725817
 30
0.0
 10
283.982400
 20
122.763045
 30
0.0
  0
SPLINE
  5
15f
100
AcDbEntity
  8
0
 62
7
100
AcDbSpline
 70
8
 71
3
 72
8
 73
4
 74
0
 40
0
 40
0
 40
0
 40
0
 40
1
 40
1
 40
1
 40
1
 10
283.982400
 20
122.763045
 30
0.0
 10
282.960143
 20
115.441417
 30
0.0
 10
280.631498
 20
110.764492
 30
0.0
 10
277.723230
 20
110.191935
 30
0.0
  0
SPLINE
  5
160
100
AcDbEntity
  8
0
 62
7
100
AcDbSpline
 70
8
 71
3
 72
8
 73
4
 74
0
 40
0
 40
0
 40
0
 40
0
 40
1
 40
1
 40
1
 40
1
 10
277.723230
 20
110.191935
 30
0.0
 10
276.514020
 20
109.953877
 30
0.0
 10
275.998568
 20
111.163267
 30
0.0
 10
275.454998
 20
115.513912
 30
0.0
  0
SPLINE
  5
161
100
AcDbEntity
  8
0
 62
7
100
AcDbSpline
 70
8
 71
3
 72
8
 73
4
 74
0
 40
0
 40
0
 40
0
 40
0
 40
1
 40
1
 40
1
 40
1
 10
275.454998
 20
115.513912
 30
0.0
 10
274.858380
 20
120.289065
 30
0.0
 10
274.370318
 20
121.288912
 30
0.0
 10
272.240798
 20
122.098552
 30
0.0
  0
SPLINE
  5
162
100
AcDbEntity
  8
0
 62
7
100
AcDbSpline
 70
8
 71
3
 72
8
 73
4
 74
0
 40
0
 40
0
 40
0
 40
0
 40
1
 40
1
 40
1
 40
1
 10
272.240798
 20
122.098552
 30
0.0
 10
269.315993
 20
123.210562
 30
0.0
 10
265.801358
 20
121.382422
 30
0.0
 10
263.880623
 20
117.750007
 30
0.0
  0
SPLINE
  5
163
100
AcDbEntity
  8
0
 62
7
100
AcDbSpline
 70
8
 71
3
 72
8
 73
4
 74
0
 40
0
 40
0
 40
0
 40
0
 40
1
 40
1
 40
1
 40
1
 10
263.880623
 20
117.750007
 30
0.0
 10
262.118513
 20
114.417577
 30
0.0
 10
254.645430
 20
105.000007
 30
0.0
 10
253.763168
 20
105.000007
 30
0.0
  0
SPLINE
  5
164
100
AcDbEntity
  8
0
 62
7
100
AcDbSpline
 70
8
 71
3
 72
8
 73
4
 74
0
 40
0
 40
0
 40
0
 40
0
 40
1
 40
1
 40
1
 40
1
 10
253.763168
 20
105.000007
 30
0.0
 10
252.317490
 20
105.000007
 30
0.0
 10
253.019490
 20
113.513805
 30
0.0
 10
255.000000
 20
120.000007
 30
0.0
  0
SPLINE
  5
165
100
AcDbEntity
  8
0
 62
7
100
AcDbSpline
 70
8
 71
3
 72
8
 73
4
 74
0
 40
0
 40
0
 40
0
 40
0
 40
1
 40
1
 40
1
 40
1
 10
255.000000
 20
120.000007
 30
0.0
 10
257.384198
 20
127.808317
 30
0.0
 10
257.510798
 20
130.866765
 30
0.0
 10
255.482040
 20
131.645272
 30
0.0
  0
SPLINE
  5
166
100
AcDbEntity
  8
0
 62
7
100
AcDbSpline
 70
8
 71
3
 72
8
 73
4
 74
0
 40
0
 40
0
 40
0
 40
0
 40
1
 40
1
 40
1
 40
1
 10
255.482040
 20
131.645272
 30
0.0
 10
252.540263
 20
132.774135
 30
0.0
 10
248.247098
 20
129.811185
 30
0.0
 10
243.544410
 20
123.406447
 30
0.0
  0
SPLINE
  5
167
100
AcDbEntity
  8
0
 62
7
100
AcDbSpline
 70
8
 71
3
 72
8
 73
4
 74
0
 40
0
 40
0
 40
0
 40
0
 40
1
 40
1
 40
1
 40
1
 10
243.544410
 20
123.406447
 30
0.0
 10
238.297163
 20
116.260057
 30
0.0
 10
228.945998
 20
105.720667
 30
0.0
 10
228.366623
 20
106.300057
 30
0.0
  0
SPLINE
  5
168
100
AcDbEntity
  8
0
 62
7
100
AcDbSpline
 70
8
 71
3
 72
8
 73
4
 74
0
 40
0
 40
0
 40
0
 40
0
 40
1
 40
1
 40
1
 40
1
 10
228.366623
 20
106.300057
 30
0.0
 10
228.163478
 20
106.503195
 30
0.0
 10
228.897878
 20
110.190772
 30
0.0
 10
229.998630
 20
114.494662
 30
0.0
  0
SPLINE
  5
169
100
AcDbEntity
  8
0
 62
7
100
AcDbSpline
 70
8
 71
3
 72
8
 73
4
 74
0
 40
0
 40
0
 40
0
 40
0
 40
1
 40
1
 40
1
 40
1
 10
229.998630
 20
114.494662
 30
0.0
 10
232.253213
 20
123.309975
 30
0.0
 10
232.590293
 20
131.009715
 30
0.0
 10
230.799998
 20
132.800002
 30
0.0
  0
SPLINE
  5
16a
100
AcDbEntity
  8
0
 62
7
100
AcDbSpline
 70
8
 71
3
 72
8
 73
4
 74
0
 40
0
 40
0
 40
0
 40
0
 40
1
 40
1
 40
1
 40
1
 10
230.799998
 20
132.800002
 30
0.0
 10
230.139998
 20
133.460002
 30
0.0
 10
228.182850
 20
134.000002
 30
0.0
 10
226.450778
 20
134.000002
 30
0.0
  0
SPLINE
  5
16b
100
AcDbEntity
  8
0
 62
7
100
AcDbSpline
 70
8
 71
3
 72
8
 73
4
 74
0
 40
0
 40
0
 40
0
 40
0
 40
1
 40
1
 40
1
 40
1
 10
226.450778
 20
134.000002
 30
0.0
 10
223.838400
 20
134.000002
 30
0.0
 10
221.780198
 20
132.508417
 30
0.0
 10
214.376918
 20
125.250007
 30
0.0
  0
SPLINE
  5
16c
100
AcDbEntity
  8
0
 62
7
100
AcDbSpline
 70
8
 71
3
 72
8
 73
4
 74
0
 40
0
 40
0
 40
0
 40
0
 40
1
 40
1
 40
1
 40
1
 10
214.376918
 20
125.250007
 30
0.0
 10
209.468370
 20
120.437505
 30
0.0
 10
203.775518
 20
115.239607
 30
0.0
 10
201.726143
 20
113.699115
 30
0.0
  0
SPLINE
  5
16d
100
AcDbEntity
  8
0
 62
7
100
AcDbSpline
 70
8
 71
3
 72
8
 73
4
 74
0
 40
0
 40
0
 40
0
 40
0
 40
1
 40
1
 40
1
 40
1
 10
201.726143
 20
113.699115
 30
0.0
 10
197.590980
 20
110.590762
 30
0.0
 10
197.275118
 20
109.302442
 30
0.0
 10
199.563360
 20
104.877487
 30
0.0
  0
LWPOLYLINE
  5
16e
100
AcDbEntity
  8
0
 62
7
100
AcDbPolyline
 90
3
 70
0
 10
292.608908
 20
106.112460
 30
0.0
 10
291.717818
 20
111.724920
 30
0.0
 10
298.233023
 20
123.112462
 30
0.0
  0
SPLINE
  5
16f
100
AcDbEntity
  8
0
 62
7
100
AcDbSpline
 70
8
 71
3
 72
8
 73
4
 74
0
 40
0
 40
0
 40
0
 40
0
 40
1
 40
1
 40
1
 40
1
 10
207.364403
 20
107.943637
 30
0.0
 10
210.795120
 20
111.292785
 30
0.0
 10
214.591613
 20
114.726082
 30
0.0
 10
215.801040
 20
115.573207
 30
0.0
  0
SPLINE
  5
170
100
AcDbEntity
  8
0
 62
7
100
AcDbSpline
 70
8
 71
3
 72
8
 73
4
 74
0
 40
0
 40
0
 40
0
 40
0
 40
1
 40
1
 40
1
 40
1
 10
215.801040
 20
115.573207
 30
0.0
 10
217.969943
 20
117.092355
 30
0.0
 10
218.000003
 20
117.051127
 30
0.0
 10
218.000003
 20
112.556707
 30
0.0
  0
SPLINE
  5
171
100
AcDbEntity
  8
0
 62
7
100
AcDbSpline
 70
8
 71
3
 72
8
 73
4
 74
0
 40
0
 40
0
 40
0
 40
0
 40
1
 40
1
 40
1
 40
1
 10
218.000003
 20
112.556707
 30
0.0
 10
218.000003
 20
108.666675
 30
0.0
 10
217.707390
 20
108.000007
 30
0.0
 10
216.000000
 20
108.000007
 30
0.0
  0
SPLINE
  5
172
100
AcDbEntity
  8
0
 62
7
100
AcDbSpline
 70
8
 71
3
 72
8
 73
4
 74
0
 40
0
 40
0
 40
0
 40
0
 40
1
 40
1
 40
1
 40
1
 10
216.000000
 20
108.000007
 30
0.0
 10
214.899998
 20
108.000007
 30
0.0
 10
213.085133
 20
107.085135
 30
0.0
 10
211.966950
 20
105.966952
 30
0.0
  0
SPLINE
  5
173
100
AcDbEntity
  8
0
 62
7
100
AcDbSpline
 70
8
 71
3
 72
8
 73
4
 74
0
 40
0
 40
0
 40
0
 40
0
 40
1
 40
1
 40
1
 40
1
 10
211.966950
 20
105.966952
 30
0.0
 10
210.297443
 20
104.297445
 30
0.0
 10
210.032753
 20
103.090477
 30
0.0
 10
210.486653
 20
99.216952
 30
0.0
  0
SPLINE
  5
174
100
AcDbEntity
  8
0
 62
7
100
AcDbSpline
 70
8
 71
3
 72
8
 73
4
 74
0
 40
0
 40
0
 40
0
 40
0
 40
1
 40
1
 40
1
 40
1
 10
210.486653
 20
99.216952
 30
0.0
 10
210.790658
 20
96.622635
 30
0.0
 10
211.530683
 20
92.991285
 30
0.0
 10
212.131140
 20
91.147297
 30
0.0
  0
SPLINE
  5
175
100
AcDbEntity
  8
0
 62
7
100
AcDbSpline
 70
8
 71
3
 72
8
 73
4
 74
0
 40
0
 40
0
 40
0
 40
0
 40
1
 40
1
 40
1
 40
1
 10
212.131140
 20
91.147297
 30
0.0
 10
213.130898
 20
88.077112
 30
0.0
 10
213.483540
 20
87.846712
 30
0.0
 10
216.315953
 20
88.413195
 30
0.0
  0
SPLINE
  5
176
100
AcDbEntity
  8
0
 62
7
100
AcDbSpline
 70
8
 71
3
 72
8
 73
4
 74
0
 40
0
 40
0
 40
0
 40
0
 40
1
 40
1
 40
1
 40
1
 10
216.315953
 20
88.413195
 30
0.0
 10
218.017133
 20
88.753433
 30
0.0
 10
221.454473
 20
90.725302
 30
0.0
 10
223.954500
 20
92.795137
 30
0.0
  0
SPLINE
  5
177
100
AcDbEntity
  8
0
 62
7
100
AcDbSpline
 70
8
 71
3
 72
8
 73
4
 74
0
 40
0
 40
0
 40
0
 40
0
 40
1
 40
1
 40
1
 40
1
 10
223.954500
 20
92.795137
 30
0.0
 10
226.454520
 20
94.864972
 30
0.0
 10
229.667190
 20
97.297125
 30
0.0
 10
231.093750
 20
98.199915
 30
0.0
  0
SPLINE
  5
178
100
AcDbEntity
  8
0
 62
7
100
AcDbSpline
 70
8
 71
3
 72
8
 73
4
 74
0
 40
0
 40
0
 40
0
 40
0
 40
1
 40
1
 40
1
 40
1
 10
231.093750
 20
98.199915
 30
0.0
 10
232.520318
 20
99.102705
 30
0.0
 10
235.063418
 20
101.217277
 30
0.0
 10
236.745098
 20
102.898957
 30
0.0
  0
SPLINE
  5
179
100
AcDbEntity
  8
0
 62
7
100
AcDbSpline
 70
8
 71
3
 72
8
 73
4
 74
0
 40
0
 40
0
 40
0
 40
0
 40
1
 40
1
 40
1
 40
1
 10
236.745098
 20
102.898957
 30
0.0
 10
240.014520
 20
106.168372
 30
0.0
 10
240.999998
 20
105.606727
 30
0.0
 10
240.999998
 20
100.473982
 30
0.0
  0
SPLINE
  5
17a
100
AcDbEntity
  8
0
 62
7
100
AcDbSpline
 70
8
 71
3
 72
8
 73
4
 74
0
 40
0
 40
0
 40
0
 40
0
 40
1
 40
1
 40
1
 40
1
 10
240.999998
 20
100.473982
 30
0.0
 10
240.999998
 20
97.833877
 30
0.0
 10
244.691423
 20
93.194325
 30
0.0
 10
246.999998
 20
92.932905
 30
0.0
  0
SPLINE
  5
17b
100
AcDbEntity
  8
0
 62
7
100
AcDbSpline
 70
8
 71
3
 72
8
 73
4
 74
0
 40
0
 40
0
 40
0
 40
0
 40
1
 40
1
 40
1
 40
1
 10
246.999998
 20
92.932905
 30
0.0
 10
251.546888
 20
92.418007
 30
0.0
 10
253.411590
 20
93.391222
 30
0.0
 10
258.905220
 20
99.146422
 30
0.0
  0
SPLINE
  5
17c
100
AcDbEntity
  8
0
 62
7
100
AcDbSpline
 70
8
 71
3
 72
8
 73
4
 74
0
 40
0
 40
0
 40
0
 40
0
 40
1
 40
1
 40
1
 40
1
 10
258.905220
 20
99.146422
 30
0.0
 10
264.341603
 20
104.841645
 30
0.0
 10
264.823620
 20
105.131092
 30
0.0
 10
265.471598
 20
103.089495
 30
0.0
  0
SPLINE
  5
17d
100
AcDbEntity
  8
0
 62
7
100
AcDbSpline
 70
8
 71
3
 72
8
 73
4
 74
0
 40
0
 40
0
 40
0
 40
0
 40
1
 40
1
 40
1
 40
1
 10
265.471598
 20
103.089495
 30
0.0
 10
265.856220
 20
101.877653
 30
0.0
 10
267.639698
 20
100.185735
 30
0.0
 10
269.434868
 20
99.329678
 30
0.0
  0
SPLINE
  5
17e
100
AcDbEntity
  8
0
 62
7
100
AcDbSpline
 70
8
 71
3
 72
8
 73
4
 74
0
 40
0
 40
0
 40
0
 40
0
 40
1
 40
1
 40
1
 40
1
 10
269.434868
 20
99.329678
 30
0.0
 10
272.466608
 20
97.883933
 30
0.0
 10
273.020228
 20
97.915365
 30
0.0
 10
277.216072
 20
99.771383
 30
0.0
  0
LWPOLYLINE
  5
17f
100
AcDbEntity
  8
0
 62
7
100
AcDbPolyline
 90
3
 70
0
 10
199.563360
 20
104.877487
 30
0.0
 10
201.126720
 20
101.854282
 30
0.0
 10
207.364403
 20
107.943637
 30
0.0
  0
SPLINE
  5
180
100
AcDbEntity
  8
0
 62
7
100
AcDbSpline
 70
8
 71
3
 72
8
 73
4
 74
0
 40
0
 40
0
 40
0
 40
0
 40
1
 40
1
 40
1
 40
1
 10
282.933983
 20
96.404415
 30
0.0
 10
285.101363
 20
86.719523
 30
0.0
 10
291.353003
 20
84.434918
 30
0.0
 10
299.229728
 20
90.449243
 30
0.0
  0
LWPOLYLINE
  5
181
100
AcDbEntity
  8
0
 62
7
100
AcDbPolyline
 90
3
 70
0
 10
277.216072
 20
99.771383
 30
0.0
 10
281.733308
 20
101.769578
 30
0.0
 10
282.933983
 20
96.404415
 30
0.0
  0
SPLINE
  5
182
100
AcDbEntity
  8
0
 62
7
100
AcDbSpline
 70
8
 71
3
 72
8
 73
4
 74
0
 40
0
 40
0
 40
0
 40
0
 40
1
 40
1
 40
1
 40
1
 10
471.983940
 20
92.706720
 30
0.0
 10
474.349822
 20
95.714437
 30
0.0
 10
474.100072
 20
98.856337
 30
0.0
 10
471.173932
 20
102.896887
 30
0.0
  0
SPLINE
  5
183
100
AcDbEntity
  8
0
 62
7
100
AcDbSpline
 70
8
 71
3
 72
8
 73
4
 74
0
 40
0
 40
0
 40
0
 40
0
 40
1
 40
1
 40
1
 40
1
 10
471.173932
 20
102.896887
 30
0.0
 10
467.122807
 20
108.490867
 30
0.0
 10
462.237097
 20
107.186572
 30
0.0
 10
461.308470
 20
100.263187
 30
0.0
  0
SPLINE
  5
184
100
AcDbEntity
  8
0
 62
7
100
AcDbSpline
 70
8
 71
3
 72
8
 73
4
 74
0
 40
0
 40
0
 40
0
 40
0
 40
1
 40
1
 40
1
 40
1
 10
461.308470
 20
100.263187
 30
0.0
 10
460.814332
 20
96.579030
 30
0.0
 10
461.102587
 20
95.743560
 30
0.0
 10
463.797877
 20
93.048270
 30
0.0
  0
SPLINE
  5
185
100
AcDbEntity
  8
0
 62
7
100
AcDbSpline
 70
8
 71
3
 72
8
 73
4
 74
0
 40
0
 40
0
 40
0
 40
0
 40
1
 40
1
 40
1
 40
1
 10
463.797877
 20
93.048270
 30
0.0
 10
467.551327
 20
89.294827
 30
0.0
 10
469.244580
 20
89.224177
 30
0.0
 10
471.983940
 20
92.706720
 30
0.0
  0
LWPOLYLINE
  5
186
100
AcDbEntity
  8
0
 62
7
100
AcDbPolyline
 90
1
 70
1
 10
299.229728
 20
90.449243
 30
0.0
  0
SPLINE
  5
187
100
AcDbEntity
  8
0
 62
7
100
AcDbSpline
 70
8
 71
3
 72
8
 73
4
 74
0
 40
0
 40
0
 40
0
 40
0
 40
1
 40
1
 40
1
 40
1
 10
524.796802
 20
93.079012
 30
0.0
 10
526.499190
 20
93.672472
 30
0.0
 10
530.012287
 20
96.639780
 30
0.0
 10
532.603680
 20
99.673042
 30
0.0
  0
LWPOLYLINE
  5
188
100
AcDbEntity
  8
0
 62
7
100
AcDbPolyline
 90
1
 70
1
 10
471.983940
 20
92.706720
 30
0.0
  0
SPLINE
  5
189
100
AcDbEntity
  8
0
 62
7
100
AcDbSpline
 70
8
 71
3
 72
8
 73
4
 74
0
 40
0
 40
0
 40
0
 40
0
 40
1
 40
1
 40
1
 40
1
 10
538.868700
 20
102.627930
 30
0.0
 10
539.723070
 20
101.219857
 30
0.0
 10
541.702417
 20
99.537480
 30
0.0
 10
543.267262
 20
98.889300
 30
0.0
  0
SPLINE
  5
18a
100
AcDbEntity
  8
0
 62
7
100
AcDbSpline
 70
8
 71
3
 72
8
 73
4
 74
0
 40
0
 40
0
 40
0
 40
0
 40
1
 40
1
 40
1
 40
1
 10
543.267262
 20
98.889300
 30
0.0
 10
545.697037
 20
97.882853
 30
0.0
 10
546.834240
 20
98.048857
 30
0.0
 10
551.056222
 20
100.026330
 30
0.0
  0
SPLINE
  5
18b
100
AcDbEntity
  8
0
 62
7
100
AcDbSpline
 70
8
 71
3
 72
8
 73
4
 74
0
 40
0
 40
0
 40
0
 40
0
 40
1
 40
1
 40
1
 40
1
 10
551.056222
 20
100.026330
 30
0.0
 10
553.775302
 20
101.299882
 30
0.0
 10
555.999997
 20
102.918780
 30
0.0
 10
555.999997
 20
103.623877
 30
0.0
  0
SPLINE
  5
18c
100
AcDbEntity
  8
0
 62
7
100
AcDbSpline
 70
8
 71
3
 72
8
 73
4
 74
0
 40
0
 40
0
 40
0
 40
0
 40
1
 40
1
 40
1
 40
1
 10
555.999997
 20
103.623877
 30
0.0
 10
555.999997
 20
106.616497
 30
0.0
 10
553.600800
 20
110.000002
 30
0.0
 10
551.478780
 20
110.000002
 30
0.0
  0
SPLINE
  5
18d
100
AcDbEntity
  8
0
 62
7
100
AcDbSpline
 70
8
 71
3
 72
8
 73
4
 74
0
 40
0
 40
0
 40
0
 40
0
 40
1
 40
1
 40
1
 40
1
 10
551.478780
 20
110.000002
 30
0.0
 10
549.574327
 20
110.000002
 30
0.0
 10
549.196222
 20
110.695410
 30
0.0
 10
548.665867
 20
115.173420
 30
0.0
  0
SPLINE
  5
18e
100
AcDbEntity
  8
0
 62
7
100
AcDbSpline
 70
8
 71
3
 72
8
 73
4
 74
0
 40
0
 40
0
 40
0
 40
0
 40
1
 40
1
 40
1
 40
1
 10
548.665867
 20
115.173420
 30
0.0
 10
548.328870
 20
118.018807
 30
0.0
 10
547.624942
 20
120.775057
 30
0.0
 10
547.101577
 20
121.298422
 30
0.0
  0
SPLINE
  5
18f
100
AcDbEntity
  8
0
 62
7
100
AcDbSpline
 70
8
 71
3
 72
8
 73
4
 74
0
 40
0
 40
0
 40
0
 40
0
 40
1
 40
1
 40
1
 40
1
 10
547.101577
 20
121.298422
 30
0.0
 10
545.472307
 20
122.927692
 30
0.0
 10
540.653392
 20
122.360790
 30
0.0
 10
539.252002
 20
120.375000
 30
0.0
  0
SPLINE
  5
190
100
AcDbEntity
  8
0
 62
7
100
AcDbSpline
 70
8
 71
3
 72
8
 73
4
 74
0
 40
0
 40
0
 40
0
 40
0
 40
1
 40
1
 40
1
 40
1
 10
539.252002
 20
120.375000
 30
0.0
 10
534.012682
 20
112.950832
 30
0.0
 10
527.614942
 20
105.000000
 30
0.0
 10
526.880280
 20
105.000000
 30
0.0
  0
SPLINE
  5
191
100
AcDbEntity
  8
0
 62
7
100
AcDbSpline
 70
8
 71
3
 72
8
 73
4
 74
0
 40
0
 40
0
 40
0
 40
0
 40
1
 40
1
 40
1
 40
1
 10
526.880280
 20
105.000000
 30
0.0
 10
525.243420
 20
105.000000
 30
0.0
 10
525.986737
 20
112.557150
 30
0.0
 10
528.459082
 20
121.051357
 30
0.0
  0
SPLINE
  5
192
100
AcDbEntity
  8
0
 62
7
100
AcDbSpline
 70
8
 71
3
 72
8
 73
4
 74
0
 40
0
 40
0
 40
0
 40
0
 40
1
 40
1
 40
1
 40
1
 10
528.459082
 20
121.051357
 30
0.0
 10
530.545552
 20
128.219797
 30
0.0
 10
530.709900
 20
129.709057
 30
0.0
 10
529.543717
 20
130.879650
 30
0.0
  0
SPLINE
  5
193
100
AcDbEntity
  8
0
 62
7
100
AcDbSpline
 70
8
 71
3
 72
8
 73
4
 74
0
 40
0
 40
0
 40
0
 40
0
 40
1
 40
1
 40
1
 40
1
 10
529.543717
 20
130.879650
 30
0.0
 10
527.732197
 20
132.698032
 30
0.0
 10
523.325992
 20
131.582797
 30
0.0
 10
520.935982
 20
128.700997
 30
0.0
  0
SPLINE
  5
194
100
AcDbEntity
  8
0
 62
7
100
AcDbSpline
 70
8
 71
3
 72
8
 73
4
 74
0
 40
0
 40
0
 40
0
 40
0
 40
1
 40
1
 40
1
 40
1
 10
520.935982
 20
128.700997
 30
0.0
 10
519.932017
 20
127.490453
 30
0.0
 10
516.264652
 20
122.900002
 30
0.0
 10
512.786280
 20
118.500000
 30
0.0
  0
SPLINE
  5
195
100
AcDbEntity
  8
0
 62
7
100
AcDbSpline
 70
8
 71
3
 72
8
 73
4
 74
0
 40
0
 40
0
 40
0
 40
0
 40
1
 40
1
 40
1
 40
1
 10
512.786280
 20
118.500000
 30
0.0
 10
505.793527
 20
109.654440
 30
0.0
 10
500.940000
 20
106.296270
 30
0.0
 10
496.690012
 20
107.362950
 30
0.0
  0
SPLINE
  5
196
100
AcDbEntity
  8
0
 62
7
100
AcDbSpline
 70
8
 71
3
 72
8
 73
4
 74
0
 40
0
 40
0
 40
0
 40
0
 40
1
 40
1
 40
1
 40
1
 10
496.690012
 20
107.362950
 30
0.0
 10
495.210502
 20
107.734290
 30
0.0
 10
494.000002
 20
108.491528
 30
0.0
 10
494.000002
 20
109.045717
 30
0.0
  0
SPLINE
  5
197
100
AcDbEntity
  8
0
 62
7
100
AcDbSpline
 70
8
 71
3
 72
8
 73
4
 74
0
 40
0
 40
0
 40
0
 40
0
 40
1
 40
1
 40
1
 40
1
 10
494.000002
 20
109.045717
 30
0.0
 10
494.000002
 20
109.599900
 30
0.0
 10
496.404337
 20
112.968217
 30
0.0
 10
499.342972
 20
116.530860
 30
0.0
  0
SPLINE
  5
198
100
AcDbEntity
  8
0
 62
7
100
AcDbSpline
 70
8
 71
3
 72
8
 73
4
 74
0
 40
0
 40
0
 40
0
 40
0
 40
1
 40
1
 40
1
 40
1
 10
499.342972
 20
116.530860
 30
0.0
 10
504.929137
 20
123.303232
 30
0.0
 10
507.573817
 20
129.554340
 30
0.0
 10
506.435092
 20
133.294162
 30
0.0
  0
SPLINE
  5
199
100
AcDbEntity
  8
0
 62
7
100
AcDbSpline
 70
8
 71
3
 72
8
 73
4
 74
0
 40
0
 40
0
 40
0
 40
0
 40
1
 40
1
 40
1
 40
1
 10
506.435092
 20
133.294162
 30
0.0
 10
504.747682
 20
138.835950
 30
0.0
 10
500.290417
 20
140.466052
 30
0.0
 10
495.141427
 20
137.424472
 30
0.0
  0
SPLINE
  5
19a
100
AcDbEntity
  8
0
 62
7
100
AcDbSpline
 70
8
 71
3
 72
8
 73
4
 74
0
 40
0
 40
0
 40
0
 40
0
 40
1
 40
1
 40
1
 40
1
 10
495.141427
 20
137.424472
 30
0.0
 10
491.041447
 20
135.002550
 30
0.0
 10
485.148360
 20
126.329767
 30
0.0
 10
483.372157
 20
120.103762
 30
0.0
  0
SPLINE
  5
19b
100
AcDbEntity
  8
0
 62
7
100
AcDbSpline
 70
8
 71
3
 72
8
 73
4
 74
0
 40
0
 40
0
 40
0
 40
0
 40
1
 40
1
 40
1
 40
1
 10
483.372157
 20
120.103762
 30
0.0
 10
482.492880
 20
117.021690
 30
0.0
 10
480.924442
 20
113.571000
 30
0.0
 10
479.886727
 20
112.435552
 30
0.0
  0
SPLINE
  5
19c
100
AcDbEntity
  8
0
 62
7
100
AcDbSpline
 70
8
 71
3
 72
8
 73
4
 74
0
 40
0
 40
0
 40
0
 40
0
 40
1
 40
1
 40
1
 40
1
 10
479.886727
 20
112.435552
 30
0.0
 10
477.593872
 20
109.926720
 30
0.0
 10
477.544680
 20
108.781170
 30
0.0
 10
479.562270
 20
104.879580
 30
0.0
  0
SPLINE
  5
19d
100
AcDbEntity
  8
0
 62
7
100
AcDbSpline
 70
8
 71
3
 72
8
 73
4
 74
0
 40
0
 40
0
 40
0
 40
0
 40
1
 40
1
 40
1
 40
1
 10
479.562270
 20
104.879580
 30
0.0
 10
480.729030
 20
102.623310
 30
0.0
 10
481.444342
 20
102.123877
 30
0.0
 10
482.387737
 20
102.906840
 30
0.0
  0
SPLINE
  5
19e
100
AcDbEntity
  8
0
 62
7
100
AcDbSpline
 70
8
 71
3
 72
8
 73
4
 74
0
 40
0
 40
0
 40
0
 40
0
 40
1
 40
1
 40
1
 40
1
 10
482.387737
 20
102.906840
 30
0.0
 10
483.337290
 20
103.694887
 30
0.0
 10
484.065397
 20
103.086060
 30
0.0
 10
485.320132
 20
100.454880
 30
0.0
  0
SPLINE
  5
19f
100
AcDbEntity
  8
0
 62
7
100
AcDbSpline
 70
8
 71
3
 72
8
 73
4
 74
0
 40
0
 40
0
 40
0
 40
0
 40
1
 40
1
 40
1
 40
1
 10
485.320132
 20
100.454880
 30
0.0
 10
487.061182
 20
96.803850
 30
0.0
 10
490.218780
 20
95.000002
 30
0.0
 10
494.868757
 20
95.000002
 30
0.0
  0
SPLINE
  5
1a0
100
AcDbEntity
  8
0
 62
7
100
AcDbSpline
 70
8
 71
3
 72
8
 73
4
 74
0
 40
0
 40
0
 40
0
 40
0
 40
1
 40
1
 40
1
 40
1
 10
494.868757
 20
95.000002
 30
0.0
 10
498.782842
 20
95.000002
 30
0.0
 10
507.739477
 20
99.728610
 30
0.0
 10
510.245370
 20
103.118010
 30
0.0
  0
SPLINE
  5
1a1
100
AcDbEntity
  8
0
 62
7
100
AcDbSpline
 70
8
 71
3
 72
8
 73
4
 74
0
 40
0
 40
0
 40
0
 40
0
 40
1
 40
1
 40
1
 40
1
 10
510.245370
 20
103.118010
 30
0.0
 10
513.008212
 20
106.854960
 30
0.0
 10
513.996562
 20
106.758457
 30
0.0
 10
514.014742
 20
102.750000
 30
0.0
  0
SPLINE
  5
1a2
100
AcDbEntity
  8
0
 62
7
100
AcDbSpline
 70
8
 71
3
 72
8
 73
4
 74
0
 40
0
 40
0
 40
0
 40
0
 40
1
 40
1
 40
1
 40
1
 10
514.014742
 20
102.750000
 30
0.0
 10
514.034167
 20
98.468332
 30
0.0
 10
515.955337
 20
94.834950
 30
0.0
 10
519.019710
 20
93.284452
 30
0.0
  0
SPLINE
  5
1a3
100
AcDbEntity
  8
0
 62
7
100
AcDbSpline
 70
8
 71
3
 72
8
 73
4
 74
0
 40
0
 40
0
 40
0
 40
0
 40
1
 40
1
 40
1
 40
1
 10
519.019710
 20
93.284452
 30
0.0
 10
520.383870
 20
92.594220
 30
0.0
 10
521.545350
 20
92.022847
 30
0.0
 10
521.600782
 20
92.014740
 30
0.0
  0
SPLINE
  5
1a4
100
AcDbEntity
  8
0
 62
7
100
AcDbSpline
 70
8
 71
3
 72
8
 73
4
 74
0
 40
0
 40
0
 40
0
 40
0
 40
1
 40
1
 40
1
 40
1
 10
521.600782
 20
92.014740
 30
0.0
 10
521.656207
 20
92.006715
 30
0.0
 10
523.094422
 20
92.485552
 30
0.0
 10
524.796802
 20
93.079012
 30
0.0
  0
LWPOLYLINE
  5
1a5
100
AcDbEntity
  8
0
 62
7
100
AcDbPolyline
 90
3
 70
0
 10
532.603680
 20
99.673042
 30
0.0
 10
537.315307
 20
105.188063
 30
0.0
 10
538.868700
 20
102.627930
 30
0.0
  0
SPLINE
  5
1a6
100
AcDbEntity
  8
0
 62
7
100
AcDbSpline
 70
8
 71
3
 72
8
 73
4
 74
0
 40
0
 40
0
 40
0
 40
0
 40
1
 40
1
 40
1
 40
1
 10
605.125050
 20
125.250000
 30
0.0
 10
609.455190
 20
127.587502
 30
0.0
 10
612.991680
 20
129.725002
 30
0.0
 10
612.983933
 20
129.999998
 30
0.0
  0
SPLINE
  5
1a7
100
AcDbEntity
  8
0
 62
7
100
AcDbSpline
 70
8
 71
3
 72
8
 73
4
 74
0
 40
0
 40
0
 40
0
 40
0
 40
1
 40
1
 40
1
 40
1
 10
612.983933
 20
129.999998
 30
0.0
 10
612.966757
 20
130.609598
 30
0.0
 10
589.930320
 20
139.287450
 30
0.0
 10
589.551788
 20
138.826912
 30
0.0
  0
SPLINE
  5
1a8
100
AcDbEntity
  8
0
 62
7
100
AcDbSpline
 70
8
 71
3
 72
8
 73
4
 74
0
 40
0
 40
0
 40
0
 40
0
 40
1
 40
1
 40
1
 40
1
 10
589.551788
 20
138.826912
 30
0.0
 10
589.404000
 20
138.647107
 30
0.0
 10
589.025813
 20
136.831770
 30
0.0
 10
588.711360
 20
134.792812
 30
0.0
  0
SPLINE
  5
1a9
100
AcDbEntity
  8
0
 62
7
100
AcDbSpline
 70
8
 71
3
 72
8
 73
4
 74
0
 40
0
 40
0
 40
0
 40
0
 40
1
 40
1
 40
1
 40
1
 10
588.711360
 20
134.792812
 30
0.0
 10
588.160102
 20
131.218320
 30
0.0
 10
588.317182
 20
130.976377
 30
0.0
 10
593.100008
 20
128.033482
 30
0.0
  0
SPLINE
  5
1aa
100
AcDbEntity
  8
0
 62
7
100
AcDbSpline
 70
8
 71
3
 72
8
 73
4
 74
0
 40
0
 40
0
 40
0
 40
0
 40
1
 40
1
 40
1
 40
1
 10
593.100008
 20
128.033482
 30
0.0
 10
597.462098
 20
125.349457
 30
0.0
 10
597.931883
 20
124.741237
 30
0.0
 10
596.995013
 20
122.990670
 30
0.0
  0
SPLINE
  5
1ab
100
AcDbEntity
  8
0
 62
7
100
AcDbSpline
 70
8
 71
3
 72
8
 73
4
 74
0
 40
0
 40
0
 40
0
 40
0
 40
1
 40
1
 40
1
 40
1
 10
596.995013
 20
122.990670
 30
0.0
 10
595.520318
 20
120.235200
 30
0.0
 10
596.169488
 20
120.415597
 30
0.0
 10
605.125050
 20
125.250000
 30
0.0
  0
LWPOLYLINE
  5
1ac
100
AcDbEntity
  8
0
 62
7
100
AcDbPolyline
 90
1
 70
1
 10
524.796802
 20
93.079012
 30
0.0
  0
LWPOLYLINE
  5
1ad
100
AcDbEntity
  8
0
 62
7
100
AcDbPolyline
 90
1
 70
1
 10
605.125050
 20
125.250000
 30
0.0
  0
ENDSEC
  0
SECTION
  2
OBJECTS
  0
DICTIONARY
  5
C
330
0
100
AcDbDictionary
  3
ACAD_GROUP
350
D
  3
ACAD_MLINESTYLE
350
17
  0
DICTIONARY
  5
D
330
C
100
AcDbDictionary
  0
DICTIONARY
  5
1A
330
C
100
AcDbDictionary
  0
DICTIONARY
  5
17
330
C
100
AcDbDictionary
  3
STANDARD
350
18
  0
DICTIONARY
  5
19
330
C
100
AcDbDictionary
  0
ENDSEC
  0
EOF
