0
SECTION
2
HEADER
9
$INSUNITS
70
4
9
$ACADVER
1
AC1014
9
$HANDSEED
5
FFFF
0
ENDSEC
0
SECTION
2
TABLES
0
TABLE
2
VPORT
5
8
100
AcDbSymbolTable
0
ENDTAB
0
TABLE
2
LTYPE
5
5
100
AcDbSymbolTable
0
LTYPE
5
14
100
AcDbSymbolTableRecord
100
AcDbLinetypeTableRecord
2
BYBLOCK
70
0
0
LTYPE
5
15
100
AcDbSymbolTableRecord
100
AcDbLinetypeTableRecord
2
BYLAYER
70
0
0
ENDTAB
0
TABLE
2
LAYER
5
2
100
AcDbSymbolTable
70
2
0
LAYER
5
50
100
AcDbSymbolTableRecord
100
AcDbLayerTableRecord
2
0
70
0
6
CONTINUOUS
0
ENDTAB
0
TABLE
2
STYLE
5
3
100
AcDbSymbolTable
70
1
0
STYLE
5
11
100
AcDbSymbolTableRecord
100
AcDbTextStyleTableRecord
2
STANDARD
70
0
0
ENDTAB
0
TABLE
2
VIEW
5
6
100
AcDbSymbolTable
70
0
0
ENDTAB
0
TABLE
2
UCS
5
7
100
AcDbSymbolTable
70
0
0
ENDTAB
0
TABLE
2
APPID
5
9
100
AcDbSymbolTable
70
2
0
APPID
5
12
100
AcDbSymbolTableRecord
100
AcDbRegAppTableRecord
2
ACAD
70
0
0
ENDTAB
0
TABLE
2
DIMSTYLE
5
A
100
AcDbSymbolTable
70
1
0
ENDTAB
0
TABLE
2
BLOCK_RECORD
5
1
100
AcDbSymbolTable
70
1
0
BLOCK_RECORD
5
1F
100
AcDbSymbolTableRecord
100
AcDbBlockTableRecord
2
*MODEL_SPACE
0
BLOCK_RECORD
5
1B
100
AcDbSymbolTableRecord
100
AcDbBlockTableRecord
2
*PAPER_SPACE
0
ENDTAB
0
ENDSEC
0
SECTION
2
BLOCKS
0
BLOCK
5
20
100
AcDbEntity
100
AcDbBlockBegin
2
*MODEL_SPACE
0
ENDBLK
5
21
100
AcDbEntity
100
AcDbBlockEnd
0
BLOCK
5
1C
100
AcDbEntity
100
AcDbBlockBegin
2
*PAPER_SPACE
0
ENDBLK
5
1D
100
AcDbEntity
100
AcDbBlockEnd
0
ENDSEC
0
SECTION
2
ENTITIES
0
LWPOLYLINE
5
100
100
AcDbEntity
8
0
100
AcDbPolyline
90
4
70
1
43
0.0
10
-374.77517040127259
20
392.96168538355226
10
-359.77517040127259
20
392.96168538355226
10
-359.77517040127259
20
408.96168538355226
10
-374.77517040127259
20
408.96168538355226
0
LWPOLYLINE
5
101
100
AcDbEntity
8
0
100
AcDbPolyline
90
4
70
1
43
0.0
10
-84.775170401272504
20
392.96168538355204
10
-84.775170401272504
20
408.96168538355204
10
-99.775170401272462
20
408.96168538355204
10
-99.775170401272462
20
392.96168538355204
0
LWPOLYLINE
5
102
100
AcDbEntity
8
0
100
AcDbPolyline
90
8
70
1
43
0.0
10
-79.775170401272533
20
377.96168538355226
10
-379.77517040127253
20
377.96168538355232
42
-0.41421356237309293
10
-389.77517040127253
20
387.96168538355226
10
-389.77517040127259
20
413.96168538355221
42
-0.41421356237309293
10
-379.77517040127253
20
423.96168538355221
10
-79.775170401272533
20
423.96168538355209
42
-0.41421356237309193
10
-69.775170401272547
20
413.96168538355221
10
-69.775170401272504
20
387.96168538355232
42
-0.41421356237309193
0
LINE
5
103
100
AcDbEntity
8
0
100
AcDbLine
10
80
20
210
30
0
11
80
21
200
31
0
0
LINE
5
104
100
AcDbEntity
8
0
100
AcDbLine
10
80
20
200
30
0
11
5
21
200
31
0
0
ARC
5
105
100
AcDbEntity
8
0
100
AcDbCircle
10
5.0000000000000107
20
195
30
0
40
5
100
AcDbArc
50
90.000000000000128
51
180
0
LINE
5
106
100
AcDbEntity
8
0
100
AcDbLine
10
1.110223024625154e-14
20
195
30
0
11
0
21
183
31
0
0
LINE
5
107
100
AcDbEntity
8
0
100
AcDbLine
10
0
20
183
30
0
11
-12.000000000000011
21
183
31
0
0
LINE
5
108
100
AcDbEntity
8
0
100
AcDbLine
10
-12.000000000000011
20
183
30
0
11
-12.000000000000011
21
167
31
0
0
LINE
5
109
100
AcDbEntity
8
0
100
AcDbLine
10
-12.000000000000011
20
167
30
0
11
0
21
167
31
0
0
LINE
5
110
100
AcDbEntity
8
0
100
AcDbLine
10
0
20
167
30
0
11
0
21
155
31
0
0
ARC
5
111
100
AcDbEntity
8
0
100
AcDbCircle
10
5.0000000000000107
20
155.00000000000003
30
0
40
5.0000000000000107
100
AcDbArc
50
180
51
269.99999999999989
0
LINE
5
112
100
AcDbEntity
8
0
100
AcDbLine
10
5
20
150
30
0
11
80
21
150
31
0
0
LINE
5
113
100
AcDbEntity
8
0
100
AcDbLine
10
80
20
150
30
0
11
80
21
140
31
0
0
LINE
5
114
100
AcDbEntity
8
0
100
AcDbLine
10
80
20
140
30
0
11
5
21
140
31
0
0
ARC
5
115
100
AcDbEntity
8
0
100
AcDbCircle
10
5.0000000000000107
20
134.99999999999997
30
0
40
5.0000000000000178
100
AcDbArc
50
90.000000000000128
51
180
0
LINE
5
116
100
AcDbEntity
8
0
100
AcDbLine
10
-6.6613381477510063e-15
20
135
30
0
11
0
21
123
31
0
0
LINE
5
117
100
AcDbEntity
8
0
100
AcDbLine
10
0
20
123
30
0
11
-12.000000000000011
21
123
31
0
0
LINE
5
118
100
AcDbEntity
8
0
100
AcDbLine
10
-12.000000000000011
20
123
30
0
11
-12.000000000000011
21
107
31
0
0
LINE
5
119
100
AcDbEntity
8
0
100
AcDbLine
10
-12.000000000000011
20
107
30
0
11
0
21
107
31
0
0
LINE
5
120
100
AcDbEntity
8
0
100
AcDbLine
10
0
20
107
30
0
11
0
21
95
31
0
0
ARC
5
121
100
AcDbEntity
8
0
100
AcDbCircle
10
5.0000000000000107
20
95.000000000000014
30
0
40
5.0000000000000107
100
AcDbArc
50
180
51
269.99999999999989
0
LINE
5
122
100
AcDbEntity
8
0
100
AcDbLine
10
5
20
90
30
0
11
80
21
90
31
0
0
LINE
5
123
100
AcDbEntity
8
0
100
AcDbLine
10
80
20
90
30
0
11
80
21
80
31
0
0
LINE
5
124
100
AcDbEntity
8
0
100
AcDbLine
10
80
20
80
30
0
11
5
21
80
31
0
0
ARC
5
125
100
AcDbEntity
8
0
100
AcDbCircle
10
4.9999999999999956
20
75
30
0
40
5
100
AcDbArc
50
89.999999999999943
51
180
0
LINE
5
126
100
AcDbEntity
8
0
100
AcDbLine
10
-4.4408920985006301e-15
20
75
30
0
11
0
21
63.000000000000007
31
0
0
LINE
5
127
100
AcDbEntity
8
0
100
AcDbLine
10
0
20
63.000000000000007
30
0
11
-12.000000000000011
21
63.000000000000007
31
0
0
LINE
5
128
100
AcDbEntity
8
0
100
AcDbLine
10
-12.000000000000011
20
63.000000000000007
30
0
11
-12.000000000000011
21
46.999999999999993
31
0
0
LINE
5
129
100
AcDbEntity
8
0
100
AcDbLine
10
-12.000000000000011
20
46.999999999999993
30
0
11
0
21
46.999999999999993
31
0
0
LINE
5
130
100
AcDbEntity
8
0
100
AcDbLine
10
0
20
46.999999999999993
30
0
11
0
21
35
31
0
0
ARC
5
131
100
AcDbEntity
8
0
100
AcDbCircle
10
4.9999999999999964
20
34.999999999999993
30
0
40
4.9999999999999964
100
AcDbArc
50
180
51
270.00000000000006
0
LINE
5
132
100
AcDbEntity
8
0
100
AcDbLine
10
5
20
30
30
0
11
80
21
30
31
0
0
LINE
5
133
100
AcDbEntity
8
0
100
AcDbLine
10
80
20
30
30
0
11
80
21
20
31
0
0
LINE
5
134
100
AcDbEntity
8
0
100
AcDbLine
10
80
20
20
30
0
11
5
21
20
31
0
0
ARC
5
135
100
AcDbEntity
8
0
100
AcDbCircle
10
4.9999999999999982
20
15.000000000000002
30
0
40
4.9999999999999982
100
AcDbArc
50
89.999999999999986
51
180
0
LINE
5
136
100
AcDbEntity
8
0
100
AcDbLine
10
5.5511151231257679e-16
20
15
30
0
11
0
21
0
31
0
0
LINE
5
137
100
AcDbEntity
8
0
100
AcDbLine
10
0
20
0
30
0
11
-55.038961038961034
21
0
31
0
0
LINE
5
138
100
AcDbEntity
8
0
100
AcDbLine
10
-55.038961038961034
20
0
30
0
11
-55.038961038961034
21
11.999999999999993
31
0
0
LINE
5
139
100
AcDbEntity
8
0
100
AcDbLine
10
-55.038961038961034
20
11.999999999999993
30
0
11
-71.038961038961034
21
11.999999999999993
31
0
0
LINE
5
140
100
AcDbEntity
8
0
100
AcDbLine
10
-71.038961038961034
20
11.999999999999993
30
0
11
-71.038961038961034
21
0
31
0
0
LINE
5
141
100
AcDbEntity
8
0
100
AcDbLine
10
-71.038961038961034
20
0
30
0
11
-135.03896103896102
21
0
31
0
0
LINE
5
142
100
AcDbEntity
8
0
100
AcDbLine
10
-135.03896103896102
20
0
30
0
11
-135.03896103896102
21
11.999999999999993
31
0
0
LINE
5
143
100
AcDbEntity
8
0
100
AcDbLine
10
-135.03896103896102
20
11.999999999999993
30
0
11
-151.03896103896105
21
11.999999999999993
31
0
0
LINE
5
144
100
AcDbEntity
8
0
100
AcDbLine
10
-151.03896103896105
20
11.999999999999993
30
0
11
-151.03896103896105
21
0
31
0
0
LINE
5
145
100
AcDbEntity
8
0
100
AcDbLine
10
-151.03896103896105
20
0
30
0
11
-215.03896103896102
21
0
31
0
0
LINE
5
146
100
AcDbEntity
8
0
100
AcDbLine
10
-215.03896103896102
20
0
30
0
11
-215.03896103896102
21
11.999999999999993
31
0
0
LINE
5
147
100
AcDbEntity
8
0
100
AcDbLine
10
-215.03896103896102
20
11.999999999999993
30
0
11
-231.03896103896105
21
11.999999999999993
31
0
0
LINE
5
148
100
AcDbEntity
8
0
100
AcDbLine
10
-231.03896103896105
20
11.999999999999993
30
0
11
-231.03896103896105
21
0
31
0
0
LINE
5
149
100
AcDbEntity
8
0
100
AcDbLine
10
-231.03896103896105
20
0
30
0
11
-270
21
0
31
0
0
ARC
5
150
100
AcDbEntity
8
0
100
AcDbCircle
10
-270
20
-30
30
0
40
30
100
AcDbArc
50
90
51
180
0
LINE
5
151
100
AcDbEntity
8
0
100
AcDbLine
10
-300
20
-30
30
0
11
-300
21
-47.000000000000028
31
0
0
ARC
5
152
100
AcDbEntity
8
0
100
AcDbCircle
10
-295
20
-80.000000000000014
30
0
40
5
100
AcDbArc
50
180
51
270
0
LINE
5
153
100
AcDbEntity
8
0
100
AcDbLine
10
-295
20
-85.000000000000014
30
0
11
-265
21
-85
31
0
0
ARC
5
154
100
AcDbEntity
8
0
100
AcDbCircle
10
-265
20
-80
30
0
40
5
100
AcDbArc
50
-90
51
0
0
LINE
5
155
100
AcDbEntity
8
0
100
AcDbLine
10
-260
20
-80
30
0
11
-260
21
-65
31
0
0
LINE
5
156
100
AcDbEntity
8
0
100
AcDbLine
10
-260
20
-65
30
0
11
60
21
-65
31
0
0
LINE
5
157
100
AcDbEntity
8
0
100
AcDbLine
10
60
20
-65
30
0
11
60
21
-79.999999999999972
31
0
0
ARC
5
158
100
AcDbEntity
8
0
100
AcDbCircle
10
65
20
-79.999999999999972
30
0
40
5
100
AcDbArc
50
180
51
270
0
LINE
5
159
100
AcDbEntity
8
0
100
AcDbLine
10
65
20
-84.999999999999972
30
0
11
94.999999999999986
21
-84.999999999999972
31
0
0
ARC
5
160
100
AcDbEntity
8
0
100
AcDbCircle
10
94.999999999999986
20
-79.999999999999943
30
0
40
5.0000000000000266
100
AcDbArc
50
-90
51
0
0
LINE
5
161
100
AcDbEntity
8
0
100
AcDbLine
10
100
20
-31.999999999999957
30
0
11
100
21
45
31
0
0
ARC
5
162
100
AcDbEntity
8
0
100
AcDbCircle
10
95
20
44.999999999999993
30
0
40
5
100
AcDbArc
50
0
51
90
0
LINE
5
163
100
AcDbEntity
8
0
100
AcDbLine
10
95
20
49.999999999999993
30
0
11
20
21
50
31
0
0
LINE
5
164
100
AcDbEntity
8
0
100
AcDbLine
10
20
20
50
30
0
11
20
21
60
31
0
0
LINE
5
165
100
AcDbEntity
8
0
100
AcDbLine
10
20
20
60
30
0
11
95
21
60
31
0
0
ARC
5
166
100
AcDbEntity
8
0
100
AcDbCircle
10
95
20
65.000000000000014
30
0
40
5.0000000000000089
100
AcDbArc
50
270
51
360
0
LINE
5
167
100
AcDbEntity
8
0
100
AcDbLine
10
100
20
65
30
0
11
100
21
105
31
0
0
ARC
5
168
100
AcDbEntity
8
0
100
AcDbCircle
10
94.999999999999986
20
104.99999999999999
30
0
40
5.0000000000000178
100
AcDbArc
50
0
51
89.999999999999844
0
LINE
5
169
100
AcDbEntity
8
0
100
AcDbLine
10
95
20
110
30
0
11
20
21
110
31
0
0
LINE
5
170
100
AcDbEntity
8
0
100
AcDbLine
10
20
20
110
30
0
11
20
21
120
31
0
0
LINE
5
171
100
AcDbEntity
8
0
100
AcDbLine
10
20
20
120
30
0
11
95
21
120
31
0
0
ARC
5
172
100
AcDbEntity
8
0
100
AcDbCircle
10
94.999999999999986
20
125.00000000000001
30
0
40
5.0000000000000178
100
AcDbArc
50
270.00000000000017
51
360
0
LINE
5
173
100
AcDbEntity
8
0
100
AcDbLine
10
100
20
125
30
0
11
100
21
165
31
0
0
ARC
5
174
100
AcDbEntity
8
0
100
AcDbCircle
10
94.999999999999986
20
165
30
0
40
5.0000000000000178
100
AcDbArc
50
0
51
89.999999999999844
0
LINE
5
175
100
AcDbEntity
8
0
100
AcDbLine
10
95
20
170
30
0
11
20
21
170
31
0
0
LINE
5
176
100
AcDbEntity
8
0
100
AcDbLine
10
20
20
170
30
0
11
20
21
180
31
0
0
LINE
5
177
100
AcDbEntity
8
0
100
AcDbLine
10
20
20
180
30
0
11
95
21
180
31
0
0
ARC
5
178
100
AcDbEntity
8
0
100
AcDbCircle
10
94.999999999999986
20
185
30
0
40
5
100
AcDbArc
50
-89.999999999999844
51
0
0
LINE
5
179
100
AcDbEntity
8
0
100
AcDbLine
10
99.999999999999986
20
185
30
0
11
100
21
225
31
0
0
ARC
5
180
100
AcDbEntity
8
0
100
AcDbCircle
10
94.999999999999986
20
225
30
0
40
5.0000000000000178
100
AcDbArc
50
0
51
89.999999999999844
0
LINE
5
181
100
AcDbEntity
8
0
100
AcDbLine
10
95
20
230
30
0
11
20
21
230
31
0
0
LINE
5
182
100
AcDbEntity
8
0
100
AcDbLine
10
20
20
230
30
0
11
20
21
240
31
0
0
LINE
5
183
100
AcDbEntity
8
0
100
AcDbLine
10
20
20
240
30
0
11
95
21
240
31
0
0
ARC
5
184
100
AcDbEntity
8
0
100
AcDbCircle
10
94.999999999999986
20
245
30
0
40
5
100
AcDbArc
50
-89.999999999999844
51
0
0
LINE
5
185
100
AcDbEntity
8
0
100
AcDbLine
10
99.999999999999986
20
245
30
0
11
100
21
285
31
0
0
ARC
5
186
100
AcDbEntity
8
0
100
AcDbCircle
10
94.999999999999986
20
285
30
0
40
5.0000000000000178
100
AcDbArc
50
0
51
89.999999999999844
0
LINE
5
187
100
AcDbEntity
8
0
100
AcDbLine
10
95
20
290
30
0
11
20
21
290
31
0
0
LINE
5
188
100
AcDbEntity
8
0
100
AcDbLine
10
20
20
290
30
0
11
20
21
295
31
0
0
ARC
5
189
100
AcDbEntity
8
0
100
AcDbCircle
10
14.999999999999989
20
295
30
0
40
5.0000000000000107
100
AcDbArc
50
0
51
89.999999999999901
0
LINE
5
190
100
AcDbEntity
8
0
100
AcDbLine
10
15
20
300
30
0
11
0
21
300
31
0
0
LINE
5
191
100
AcDbEntity
8
0
100
AcDbLine
10
0
20
300
30
0
11
0
21
303
31
0
0
LINE
5
192
100
AcDbEntity
8
0
100
AcDbLine
10
0
20
303
30
0
11
-12.000000000000011
21
303
31
0
0
LINE
5
193
100
AcDbEntity
8
0
100
AcDbLine
10
-12.000000000000011
20
303
30
0
11
-12.000000000000011
21
287
31
0
0
LINE
5
194
100
AcDbEntity
8
0
100
AcDbLine
10
-12.000000000000011
20
287
30
0
11
0
21
287
31
0
0
LINE
5
195
100
AcDbEntity
8
0
100
AcDbLine
10
0
20
287
30
0
11
0
21
275
31
0
0
ARC
5
196
100
AcDbEntity
8
0
100
AcDbCircle
10
5.0000000000000107
20
275
30
0
40
5.0000000000000107
100
AcDbArc
50
180
51
269.99999999999989
0
LINE
5
197
100
AcDbEntity
8
0
100
AcDbLine
10
5
20
270
30
0
11
80
21
270
31
0
0
LINE
5
198
100
AcDbEntity
8
0
100
AcDbLine
10
80
20
270
30
0
11
80
21
260
31
0
0
LINE
5
199
100
AcDbEntity
8
0
100
AcDbLine
10
80
20
260
30
0
11
5
21
260
31
0
0
ARC
5
200
100
AcDbEntity
8
0
100
AcDbCircle
10
5.0000000000000107
20
255
30
0
40
5
100
AcDbArc
50
90.000000000000128
51
180
0
LINE
5
201
100
AcDbEntity
8
0
100
AcDbLine
10
1.110223024625154e-14
20
255
30
0
11
0
21
243
31
0
0
LINE
5
202
100
AcDbEntity
8
0
100
AcDbLine
10
0
20
243
30
0
11
-12.000000000000011
21
243
31
0
0
LINE
5
203
100
AcDbEntity
8
0
100
AcDbLine
10
-12.000000000000011
20
243
30
0
11
-12.000000000000011
21
227
31
0
0
LINE
5
204
100
AcDbEntity
8
0
100
AcDbLine
10
-12.000000000000011
20
227
30
0
11
0
21
227
31
0
0
LINE
5
205
100
AcDbEntity
8
0
100
AcDbLine
10
0
20
227
30
0
11
0
21
215
31
0
0
ARC
5
206
100
AcDbEntity
8
0
100
AcDbCircle
10
5.0000000000000107
20
215
30
0
40
5.0000000000000107
100
AcDbArc
50
180
51
269.99999999999989
0
LINE
5
207
100
AcDbEntity
8
0
100
AcDbLine
10
5
20
210
30
0
11
80
21
210
31
0
0
LINE
5
208
100
AcDbEntity
8
0
100
AcDbLine
10
-300
20
-47.000000000000028
30
0
11
-312
21
-47.000000000000028
31
0
0
LINE
5
209
100
AcDbEntity
8
0
100
AcDbLine
10
-312
20
-47.000000000000028
30
0
11
-312
21
-62.999999999999972
31
0
0
LINE
5
210
100
AcDbEntity
8
0
100
AcDbLine
10
-312
20
-62.999999999999972
30
0
11
-300
21
-62.999999999999972
31
0
0
LINE
5
211
100
AcDbEntity
8
0
100
AcDbLine
10
-300
20
-62.999999999999972
30
0
11
-300
21
-80.000000000000014
31
0
0
LINE
5
212
100
AcDbEntity
8
0
100
AcDbLine
10
100
20
-79.999999999999943
30
0
11
100
21
-47.999999999999972
31
0
0
LINE
5
213
100
AcDbEntity
8
0
100
AcDbLine
10
100
20
-47.999999999999972
30
0
11
112
21
-47.999999999999972
31
0
0
LINE
5
214
100
AcDbEntity
8
0
100
AcDbLine
10
112
20
-47.999999999999972
30
0
11
112
21
-31.999999999999957
31
0
0
LINE
5
215
100
AcDbEntity
8
0
100
AcDbLine
10
112
20
-31.999999999999957
30
0
11
100
21
-31.999999999999957
31
0
0
ENDSEC
0
SECTION
2
OBJECTS
0
DICTIONARY
5
C
100
AcDbDictionary
3
ACAD_GROUP
350
D
3
ACAD_MLINESTYLE
350
17
0
DICTIONARY
5
D
100
AcDbDictionary
0
DICTIONARY
5
1A
330
C
100
AcDbDictionary
0
DICTIONARY
5
17
100
AcDbDictionary
0
ENDSEC
0
EOF
