  0
SECTION
  2
BLOCKS
  0
ENDSEC
  0
SECTION
  2
ENTITIES
  0
LINE
  8
0
 10
6.18033
 20
30.9789
 11
10
 21
32.6795
  0
LINE
  8
0
 10
10
 20
32.6795
 11
10.8701
 21
33.3117
  0
LINE
  8
0
 10
10.8701
 20
33.3117
 11
4.58936
 21
40.7969
  0
LINE
  8
0
 10
4.58936
 20
40.7969
 11
6.73428
 21
42.5967
  0
LINE
  8
0
 10
6.73428
 20
42.5967
 11
13.1409
 21
34.9615
  0
LINE
  8
0
 10
13.1409
 20
34.9615
 11
13.3826
 21
35.1371
  0
LINE
  8
0
 10
13.3826
 20
35.1371
 11
16.1803
 21
38.2443
  0
LINE
  8
0
 10
16.1803
 20
38.2443
 11
18.2709
 21
41.8653
  0
LINE
  8
0
 10
18.2709
 20
41.8653
 11
19.5629
 21
45.8418
  0
LINE
  8
0
 10
19.5629
 20
45.8418
 11
20
 21
50
  0
LINE
  8
0
 10
20
 20
50
 11
19.5629
 21
54.1582
  0
LINE
  8
0
 10
19.5629
 20
54.1582
 11
18.2709
 21
58.1347
  0
LINE
  8
0
 10
18.2709
 20
58.1347
 11
16.1803
 21
61.7557
  0
LINE
  8
0
 10
16.1803
 20
61.7557
 11
13.3826
 21
64.8629
  0
LINE
  8
0
 10
13.3826
 20
64.8629
 11
10
 21
67.3205
  0
LINE
  8
0
 10
10
 20
67.3205
 11
6.18033
 21
69.0211
  0
LINE
  8
0
 10
6.18033
 20
69.0211
 11
2.09056
 21
69.8904
  0
LINE
  8
0
 10
2.09056
 20
69.8904
 11
-2.09056
 21
69.8904
  0
LINE
  8
0
 10
-2.09056
 20
69.8904
 11
-6.18033
 21
69.0211
  0
LINE
  8
0
 10
-6.18033
 20
69.0211
 11
-9.99998
 21
67.3205
  0
LINE
  8
0
 10
-9.99998
 20
67.3205
 11
-13.3826
 21
64.8629
  0
LINE
  8
0
 10
-13.3826
 20
64.8629
 11
-13.6393
 21
64.5777
  0
LINE
  8
0
 10
-13.6393
 20
64.5777
 11
-1.01079
 21
53.9811
  0
LINE
  8
0
 10
-1.01079
 20
53.9811
 11
-2.81059
 21
51.8362
  0
LINE
  8
0
 10
-2.81059
 20
51.8362
 11
-15.5141
 21
62.4957
  0
LINE
  8
0
 10
-15.5141
 20
62.4957
 11
-16.1803
 21
61.7557
  0
LINE
  8
0
 10
-16.1803
 20
61.7557
 11
-18.2709
 21
58.1347
  0
LINE
  8
0
 10
-18.2709
 20
58.1347
 11
-19.5629
 21
54.1582
  0
LINE
  8
0
 10
-19.5629
 20
54.1582
 11
-20
 21
50
  0
LINE
  8
0
 10
-20
 20
50
 11
-19.8876
 21
48.9303
  0
LINE
  8
0
 10
-19.8876
 20
48.9303
 11
-10.2648
 21
50.627
  0
LINE
  8
0
 10
-10.2648
 20
50.627
 11
-9.77861
 21
47.8696
  0
LINE
  8
0
 10
-9.77861
 20
47.8696
 11
-19.5942
 21
46.1389
  0
LINE
  8
0
 10
-19.5942
 20
46.1389
 11
-19.5629
 21
45.8418
  0
LINE
  8
0
 10
-19.5629
 20
45.8418
 11
-18.2709
 21
41.8653
  0
LINE
  8
0
 10
-18.2709
 20
41.8653
 11
-16.1803
 21
38.2443
  0
LINE
  8
0
 10
-16.1803
 20
38.2443
 11
-13.3826
 21
35.1371
  0
LINE
  8
0
 10
-13.3826
 20
35.1371
 11
-10
 21
32.6795
  0
LINE
  8
0
 10
-10
 20
32.6795
 11
-6.18033
 21
30.9789
  0
LINE
  8
0
 10
-6.18033
 20
30.9789
 11
-2.09056
 21
30.1096
  0
LINE
  8
0
 10
-2.09056
 20
30.1096
 11
2.09056
 21
30.1096
  0
LINE
  8
0
 10
2.09056
 20
30.1096
 11
6.18033
 21
30.9789
  0
LINE
  8
0
 10
-1.39999
 20
-14.2548
 11
1.39999
 21
-14.2548
  0
LINE
  8
0
 10
1.39999
 20
-14.2548
 11
1.39999
 21
-19.8904
  0
LINE
  8
0
 10
1.39999
 20
-19.8904
 11
2.09056
 21
-19.8904
  0
LINE
  8
0
 10
2.09056
 20
-19.8904
 11
6.18033
 21
-19.0211
  0
LINE
  8
0
 10
6.18033
 20
-19.0211
 11
10
 21
-17.3205
  0
LINE
  8
0
 10
10
 20
-17.3205
 11
13.3826
 21
-14.8629
  0
LINE
  8
0
 10
13.3826
 20
-14.8629
 11
16.1803
 21
-11.7557
  0
LINE
  8
0
 10
16.1803
 20
-11.7557
 11
18.2709
 21
-8.13472
  0
LINE
  8
0
 10
18.2709
 20
-8.13472
 11
19.5629
 21
-4.15823
  0
LINE
  8
0
 10
19.5629
 20
-4.15823
 11
19.8528
 21
-1.39999
  0
LINE
  8
0
 10
19.8528
 20
-1.39999
 11
14.1862
 21
-1.39999
  0
LINE
  8
0
 10
14.1862
 20
-1.39999
 11
14.3333
 21
0
  0
LINE
  8
0
 10
14.3333
 20
0
 11
14.1862
 21
1.39999
  0
LINE
  8
0
 10
14.1862
 20
1.39999
 11
19.8528
 21
1.39999
  0
LINE
  8
0
 10
19.8528
 20
1.39999
 11
19.5629
 21
4.15823
  0
LINE
  8
0
 10
19.5629
 20
4.15823
 11
18.2709
 21
8.13472
  0
LINE
  8
0
 10
18.2709
 20
8.13472
 11
16.1803
 21
11.7557
  0
LINE
  8
0
 10
16.1803
 20
11.7557
 11
13.3826
 21
14.8629
  0
LINE
  8
0
 10
13.3826
 20
14.8629
 11
10
 21
17.3205
  0
LINE
  8
0
 10
10
 20
17.3205
 11
6.18033
 21
19.0211
  0
LINE
  8
0
 10
6.18033
 20
19.0211
 11
2.09056
 21
19.8904
  0
LINE
  8
0
 10
2.09056
 20
19.8904
 11
1.39999
 21
19.8904
  0
LINE
  8
0
 10
1.39999
 20
19.8904
 11
1.39999
 21
14.2548
  0
LINE
  8
0
 10
1.39999
 20
14.2548
 11
-1.39999
 21
14.2548
  0
LINE
  8
0
 10
-1.39999
 20
14.2548
 11
-1.39999
 21
19.8904
  0
LINE
  8
0
 10
-1.39999
 20
19.8904
 11
-2.09056
 21
19.8904
  0
LINE
  8
0
 10
-2.09056
 20
19.8904
 11
-6.18033
 21
19.0211
  0
LINE
  8
0
 10
-6.18033
 20
19.0211
 11
-9.99998
 21
17.3205
  0
LINE
  8
0
 10
-9.99998
 20
17.3205
 11
-13.3826
 21
14.8629
  0
LINE
  8
0
 10
-13.3826
 20
14.8629
 11
-16.1803
 21
11.7557
  0
LINE
  8
0
 10
-16.1803
 20
11.7557
 11
-18.2709
 21
8.13472
  0
LINE
  8
0
 10
-18.2709
 20
8.13472
 11
-19.5629
 21
4.15823
  0
LINE
  8
0
 10
-19.5629
 20
4.15823
 11
-19.8528
 21
1.39999
  0
LINE
  8
0
 10
-19.8528
 20
1.39999
 11
-14.1862
 21
1.39999
  0
LINE
  8
0
 10
-14.1862
 20
1.39999
 11
-14.3333
 21
0
  0
LINE
  8
0
 10
-14.3333
 20
0
 11
-14.1862
 21
-1.39999
  0
LINE
  8
0
 10
-14.1862
 20
-1.39999
 11
-19.8528
 21
-1.39999
  0
LINE
  8
0
 10
-19.8528
 20
-1.39999
 11
-19.5629
 21
-4.15823
  0
LINE
  8
0
 10
-19.5629
 20
-4.15823
 11
-18.2709
 21
-8.13472
  0
LINE
  8
0
 10
-18.2709
 20
-8.13472
 11
-16.1803
 21
-11.7557
  0
LINE
  8
0
 10
-16.1803
 20
-11.7557
 11
-13.3826
 21
-14.8629
  0
LINE
  8
0
 10
-13.3826
 20
-14.8629
 11
-10
 21
-17.3205
  0
LINE
  8
0
 10
-10
 20
-17.3205
 11
-6.18033
 21
-19.0211
  0
LINE
  8
0
 10
-6.18033
 20
-19.0211
 11
-2.09056
 21
-19.8904
  0
LINE
  8
0
 10
-2.09056
 20
-19.8904
 11
-1.39999
 21
-19.8904
  0
LINE
  8
0
 10
-1.39999
 20
-19.8904
 11
-1.39999
 21
-14.2548
  0
ENDSEC
  0
SECTION
  2
OBJECTS
  0
DICTIONARY
  0
ENDSEC
  0
EOF
