  0
SECTION
  2
BLOCKS
  0
ENDSEC
  0
SECTION
  2
ENTITIES
  0
LINE
  8
0
 10
20
 20
-5.45
 11
10
 21
-5.45
  0
LINE
  8
0
 10
10
 20
-5.45
 11
10
 21
-2.54999
  0
LINE
  8
0
 10
10
 20
-2.54999
 11
20
 21
-2.54999
  0
LINE
  8
0
 10
20
 20
-2.54999
 11
20
 21
20
  0
LINE
  8
0
 10
20
 20
20
 11
-20
 21
20
  0
LINE
  8
0
 10
-20
 20
20
 11
-20
 21
-20
  0
LINE
  8
0
 10
-20
 20
-20
 11
20
 21
-20
  0
LINE
  8
0
 10
20
 20
-20
 11
20
 21
-5.45
  0
LINE
  8
0
 10
4
 20
6.54999
 11
4
 21
9.45
  0
LINE
  8
0
 10
4
 20
9.45
 11
16
 21
9.45
  0
LINE
  8
0
 10
16
 20
9.45
 11
16
 21
6.54999
  0
LINE
  8
0
 10
16
 20
6.54999
 11
4
 21
6.54999
  0
LINE
  8
0
 10
-3.35713
 20
-3.35713
 11
-3.35713
 21
3.35713
  0
LINE
  8
0
 10
-3.35713
 20
3.35713
 11
3.35713
 21
3.35713
  0
LINE
  8
0
 10
3.35713
 20
3.35713
 11
3.35713
 21
-3.35713
  0
LINE
  8
0
 10
3.35713
 20
-3.35713
 11
-3.35713
 21
-3.35713
  0
ENDSEC
  0
SECTION
  2
OBJECTS
  0
DICTIONARY
  0
ENDSEC
  0
EOF
