  0
SECTION
  2
BLOCKS
  0
ENDSEC
  0
SECTION
  2
ENTITIES
  0
LINE
  8
0
 10
15
 20
1.95
 11
5
 21
1.95
  0
LINE
  8
0
 10
5
 20
1.95
 11
5
 21
4.04999
  0
LINE
  8
0
 10
5
 20
4.04999
 11
15
 21
4.04999
  0
LINE
  8
0
 10
15
 20
4.04999
 11
15
 21
15
  0
LINE
  8
0
 10
15
 20
15
 11
-15
 21
15
  0
LINE
  8
0
 10
-15
 20
15
 11
-15
 21
-15
  0
LINE
  8
0
 10
-15
 20
-15
 11
15
 21
-15
  0
LINE
  8
0
 10
15
 20
-15
 11
15
 21
1.95
  0
LINE
  8
0
 10
-3
 20
-3
 11
-3
 21
3
  0
LINE
  8
0
 10
-3
 20
3
 11
3
 21
3
  0
LINE
  8
0
 10
3
 20
3
 11
3
 21
-3
  0
LINE
  8
0
 10
3
 20
-3
 11
-3
 21
-3
  0
ENDSEC
  0
SECTION
  2
OBJECTS
  0
DICTIONARY
  0
ENDSEC
  0
EOF
