0
SECTION
2
HEADER
9
$ACADVER
1
AC1009
0
ENDSEC
0
SECTION
2
TABLES
0
TABLE
2
VPORT
70
1
0
VPORT
2
ACTIVE
70
0
10
0.0
20
0.0
11
0.0
21
0.0
12
0.0
22
0.0
13
0.0
23
0.0
14
0.0
24
0.0
15
0.0
25
0.0
16
0.0
26
0.0
36
0.0
17
0.0
27
0.0
37
0.0
40
0.0
41
0.0
42
0.0
43
0.0
44
0.0
50
0.0
51
0.0
71
0
72
1000
73
1
74
3
75
0
76
0
77
0
78
0
0
ENDTAB
0
ENDSEC
0
SECTION
2
ENTITIES
0
LINE
8
boundary
62
5
39
2
10
6.667500
20
17.019016
11
6.667500
21
6.667500
0
LINE
8
boundary
62
5
39
2
10
6.667500
20
6.667500
11
38.417500
21
6.667500
0
LINE
8
boundary
62
5
39
2
10
38.417500
20
6.667500
11
44.767500
21
6.667500
0
LINE
8
boundary
62
5
39
2
10
44.767500
20
6.667500
11
44.767500
21
70.167500
0
LINE
8
boundary
62
5
39
2
10
44.767500
20
70.167500
11
44.767500
21
82.867500
0
LINE
8
boundary
62
5
39
2
10
44.767500
20
82.867500
11
40.063801
21
82.867500
0
LINE
8
boundary
62
5
39
2
10
40.063801
20
82.867500
11
39.687505
21
72.515984
0
LINE
8
boundary
62
5
39
2
10
39.687505
20
72.515984
11
42.100503
21
72.290940
0
LINE
8
boundary
62
5
39
2
10
42.100503
20
72.290940
11
42.100503
21
68.044060
0
LINE
8
boundary
62
5
39
2
10
42.100503
20
68.044060
11
39.772849
21
68.044060
0
LINE
8
boundary
62
5
39
2
10
39.772849
20
68.044060
11
39.687505
21
47.115984
0
LINE
8
boundary
62
5
39
2
10
39.687505
20
47.115984
11
42.100503
21
46.890940
0
LINE
8
boundary
62
5
39
2
10
42.100503
20
46.890940
11
42.100503
21
42.644060
0
LINE
8
boundary
62
5
39
2
10
42.100503
20
42.644060
11
39.772849
21
42.644060
0
LINE
8
boundary
62
5
39
2
10
39.772849
20
42.644060
11
39.687505
21
21.715984
0
LINE
8
boundary
62
5
39
2
10
39.687505
20
21.715984
11
42.100503
21
21.490940
0
LINE
8
boundary
62
5
39
2
10
42.100503
20
21.490940
11
42.100503
21
17.244060
0
LINE
8
boundary
62
5
39
2
10
42.100503
20
17.244060
11
39.772849
21
17.244060
0
LINE
8
boundary
62
5
39
2
10
39.772849
20
17.244060
11
39.687505
21
11.747502
0
LINE
8
boundary
62
5
39
2
10
39.687505
20
11.747502
11
14.075834
21
11.747502
0
LINE
8
boundary
62
5
39
2
10
14.075834
20
11.747502
11
11.747501
21
11.747502
0
LINE
8
boundary
62
5
39
2
10
11.747501
20
11.747502
11
11.747501
21
76.940837
0
LINE
8
boundary
62
5
39
2
10
11.747501
20
76.940837
11
11.747502
21
82.867500
0
LINE
8
boundary
62
5
39
2
10
11.747502
20
82.867500
11
7.608241
21
82.867500
0
LINE
8
boundary
62
5
39
2
10
7.608241
20
82.867500
11
6.667500
21
82.867500
0
LINE
8
boundary
62
5
39
2
10
6.667500
20
82.867500
11
6.667500
21
72.515984
0
LINE
8
boundary
62
5
39
2
10
6.667500
20
72.515984
11
9.080501
21
72.290940
0
LINE
8
boundary
62
5
39
2
10
9.080501
20
72.290940
11
9.080501
21
68.044060
0
LINE
8
boundary
62
5
39
2
10
9.080501
20
68.044060
11
6.752844
21
68.044060
0
LINE
8
boundary
62
5
39
2
10
6.752844
20
68.044060
11
6.667500
21
47.115984
0
LINE
8
boundary
62
5
39
2
10
6.667500
20
47.115984
11
9.080501
21
46.890940
0
LINE
8
boundary
62
5
39
2
10
9.080501
20
46.890940
11
9.080501
21
42.644060
0
LINE
8
boundary
62
5
39
2
10
9.080501
20
42.644060
11
6.752844
21
42.644060
0
LINE
8
boundary
62
5
39
2
10
6.752844
20
42.644060
11
6.667500
21
21.715984
0
LINE
8
boundary
62
5
39
2
10
6.667500
20
21.715984
11
9.080501
21
21.490940
0
LINE
8
boundary
62
5
39
2
10
9.080501
20
21.490940
11
9.080501
21
17.244060
0
LINE
8
boundary
62
5
39
2
10
9.080501
20
17.244060
11
6.752844
21
17.244060
0
LINE
8
boundary
62
5
39
2
10
6.752844
20
17.244060
11
6.667500
21
17.019016
0
LINE
8
annotation
62
1
39
211
10
44.597985
20
16.696327
11
44.597985
21
18.437969
0
LINE
8
annotation
62
1
39
211
10
44.597985
20
18.437969
11
44.210796
21
18.050671
0
LINE
8
annotation
62
1
39
211
10
11.577987
20
16.696326
11
11.577987
21
18.437970
0
LINE
8
annotation
62
1
39
211
10
11.577987
20
18.437970
11
11.190797
21
18.050671
0
LINE
8
annotation
62
1
39
211
10
44.558292
20
42.175393
11
43.855028
21
42.175393
0
LINE
8
annotation
62
1
39
211
10
43.855028
20
42.175393
11
44.504867
21
43.221549
0
LINE
8
annotation
62
1
39
211
10
44.504867
20
43.221549
11
44.504867
21
43.221549
0
LINE
8
annotation
62
1
39
211
10
44.504867
20
43.221549
11
44.505644
21
43.222511
0
LINE
8
annotation
62
1
39
211
10
44.505644
20
43.222511
11
44.506389
21
43.223480
0
LINE
8
annotation
62
1
39
211
10
44.506389
20
43.223480
11
44.507107
21
43.224466
0
LINE
8
annotation
62
1
39
211
10
44.507107
20
43.224466
11
44.507803
21
43.225476
0
LINE
8
annotation
62
1
39
211
10
44.507803
20
43.225476
11
44.508481
21
43.226519
0
LINE
8
annotation
62
1
39
211
10
44.508481
20
43.226519
11
44.509148
21
43.227603
0
LINE
8
annotation
62
1
39
211
10
44.509148
20
43.227603
11
44.509807
21
43.228736
0
LINE
8
annotation
62
1
39
211
10
44.509807
20
43.228736
11
44.510464
21
43.229926
0
LINE
8
annotation
62
1
39
211
10
44.510464
20
43.229926
11
44.511123
21
43.231182
0
LINE
8
annotation
62
1
39
211
10
44.511123
20
43.231182
11
44.511123
21
43.231182
0
LINE
8
annotation
62
1
39
211
10
44.511123
20
43.231182
11
44.537955
21
43.288792
0
LINE
8
annotation
62
1
39
211
10
44.537955
20
43.288792
11
44.553629
21
43.348509
0
LINE
8
annotation
62
1
39
211
10
44.553629
20
43.348509
11
44.558531
21
43.408986
0
LINE
8
annotation
62
1
39
211
10
44.558531
20
43.408986
11
44.553044
21
43.468871
0
LINE
8
annotation
62
1
39
211
10
44.553044
20
43.468871
11
44.537552
21
43.526816
0
LINE
8
annotation
62
1
39
211
10
44.537552
20
43.526816
11
44.512440
21
43.581471
0
LINE
8
annotation
62
1
39
211
10
44.512440
20
43.581471
11
44.478091
21
43.631487
0
LINE
8
annotation
62
1
39
211
10
44.478091
20
43.631487
11
44.434890
21
43.675515
0
LINE
8
annotation
62
1
39
211
10
44.434890
20
43.675515
11
44.383221
21
43.712205
0
LINE
8
annotation
62
1
39
211
10
44.383221
20
43.712205
11
44.383221
21
43.712205
0
LINE
8
annotation
62
1
39
211
10
44.383221
20
43.712205
11
44.325451
21
43.738656
0
LINE
8
annotation
62
1
39
211
10
44.325451
20
43.738656
11
44.265641
21
43.754089
0
LINE
8
annotation
62
1
39
211
10
44.265641
20
43.754089
11
44.205130
21
43.758852
0
LINE
8
annotation
62
1
39
211
10
44.205130
20
43.758852
11
44.145254
21
43.753293
0
LINE
8
annotation
62
1
39
211
10
44.145254
20
43.753293
11
44.087350
21
43.737758
0
LINE
8
annotation
62
1
39
211
10
44.087350
20
43.737758
11
44.032755
21
43.712595
0
LINE
8
annotation
62
1
39
211
10
44.032755
20
43.712595
11
43.982806
21
43.678152
0
LINE
8
annotation
62
1
39
211
10
43.982806
20
43.678152
11
43.938842
21
43.634776
0
LINE
8
annotation
62
1
39
211
10
43.938842
20
43.634776
11
43.902197
21
43.582814
0
LINE
8
annotation
62
1
39
211
10
43.902197
20
43.582814
11
43.856021
21
43.494235
0
LINE
8
annotation
62
1
39
211
10
11.538293
20
42.175392
11
10.835029
21
42.175392
0
LINE
8
annotation
62
1
39
211
10
10.835029
20
42.175392
11
11.484868
21
43.221550
0
LINE
8
annotation
62
1
39
211
10
11.484868
20
43.221550
11
11.484868
21
43.221550
0
LINE
8
annotation
62
1
39
211
10
11.484868
20
43.221550
11
11.485645
21
43.222511
0
LINE
8
annotation
62
1
39
211
10
11.485645
20
43.222511
11
11.486390
21
43.223481
0
LINE
8
annotation
62
1
39
211
10
11.486390
20
43.223481
11
11.487108
21
43.224466
0
LINE
8
annotation
62
1
39
211
10
11.487108
20
43.224466
11
11.487804
21
43.225477
0
LINE
8
annotation
62
1
39
211
10
11.487804
20
43.225477
11
11.488482
21
43.226520
0
LINE
8
annotation
62
1
39
211
10
11.488482
20
43.226520
11
11.489149
21
43.227604
0
LINE
8
annotation
62
1
39
211
10
11.489149
20
43.227604
11
11.489808
21
43.228737
0
LINE
8
annotation
62
1
39
211
10
11.489808
20
43.228737
11
11.490465
21
43.229927
0
LINE
8
annotation
62
1
39
211
10
11.490465
20
43.229927
11
11.491124
21
43.231182
0
LINE
8
annotation
62
1
39
211
10
11.491124
20
43.231182
11
11.491124
21
43.231182
0
LINE
8
annotation
62
1
39
211
10
11.491124
20
43.231182
11
11.517956
21
43.288792
0
LINE
8
annotation
62
1
39
211
10
11.517956
20
43.288792
11
11.533630
21
43.348510
0
LINE
8
annotation
62
1
39
211
10
11.533630
20
43.348510
11
11.538532
21
43.408986
0
LINE
8
annotation
62
1
39
211
10
11.538532
20
43.408986
11
11.533045
21
43.468872
0
LINE
8
annotation
62
1
39
211
10
11.533045
20
43.468872
11
11.517553
21
43.526817
0
LINE
8
annotation
62
1
39
211
10
11.517553
20
43.526817
11
11.492441
21
43.581472
0
LINE
8
annotation
62
1
39
211
10
11.492441
20
43.581472
11
11.458092
21
43.631488
0
LINE
8
annotation
62
1
39
211
10
11.458092
20
43.631488
11
11.414891
21
43.675516
0
LINE
8
annotation
62
1
39
211
10
11.414891
20
43.675516
11
11.363222
21
43.712206
0
LINE
8
annotation
62
1
39
211
10
11.363222
20
43.712206
11
11.363222
21
43.712206
0
LINE
8
annotation
62
1
39
211
10
11.363222
20
43.712206
11
11.305451
21
43.738657
0
LINE
8
annotation
62
1
39
211
10
11.305451
20
43.738657
11
11.245642
21
43.754090
0
LINE
8
annotation
62
1
39
211
10
11.245642
20
43.754090
11
11.185131
21
43.758853
0
LINE
8
annotation
62
1
39
211
10
11.185131
20
43.758853
11
11.125254
21
43.753294
0
LINE
8
annotation
62
1
39
211
10
11.125254
20
43.753294
11
11.067350
21
43.737759
0
LINE
8
annotation
62
1
39
211
10
11.067350
20
43.737759
11
11.012755
21
43.712596
0
LINE
8
annotation
62
1
39
211
10
11.012755
20
43.712596
11
10.962807
21
43.678153
0
LINE
8
annotation
62
1
39
211
10
10.962807
20
43.678153
11
10.918842
21
43.634777
0
LINE
8
annotation
62
1
39
211
10
10.918842
20
43.634777
11
10.882197
21
43.582814
0
LINE
8
annotation
62
1
39
211
10
10.882197
20
43.582814
11
10.836022
21
43.494236
0
LINE
8
annotation
62
1
39
211
10
43.855129
20
67.575407
11
44.206782
21
67.575407
0
LINE
8
annotation
62
1
39
211
10
44.206782
20
67.575407
11
44.206782
21
67.575407
0
LINE
8
annotation
62
1
39
211
10
44.206782
20
67.575407
11
44.270028
21
67.581080
0
LINE
8
annotation
62
1
39
211
10
44.270028
20
67.581080
11
44.329540
21
67.597432
0
LINE
8
annotation
62
1
39
211
10
44.329540
20
67.597432
11
44.384329
21
67.623457
0
LINE
8
annotation
62
1
39
211
10
44.384329
20
67.623457
11
44.433404
21
67.658154
0
LINE
8
annotation
62
1
39
211
10
44.433404
20
67.658154
11
44.475776
21
67.700517
0
LINE
8
annotation
62
1
39
211
10
44.475776
20
67.700517
11
44.510455
21
67.749543
0
LINE
8
annotation
62
1
39
211
10
44.510455
20
67.749543
11
44.536451
21
67.804229
0
LINE
8
annotation
62
1
39
211
10
44.536451
20
67.804229
11
44.552775
21
67.863570
0
LINE
8
annotation
62
1
39
211
10
44.552775
20
67.863570
11
44.558436
21
67.926563
0
LINE
8
annotation
62
1
39
211
10
44.558436
20
67.926563
11
44.558436
21
68.102638
0
LINE
8
annotation
62
1
39
211
10
44.558436
20
68.102638
11
44.558436
21
68.102638
0
LINE
8
annotation
62
1
39
211
10
44.558436
20
68.102638
11
44.552775
21
68.165606
0
LINE
8
annotation
62
1
39
211
10
44.552775
20
68.165606
11
44.536451
21
68.224933
0
LINE
8
annotation
62
1
39
211
10
44.536451
20
68.224933
11
44.510455
21
68.279615
0
LINE
8
annotation
62
1
39
211
10
44.510455
20
68.279615
11
44.475776
21
68.328644
0
LINE
8
annotation
62
1
39
211
10
44.475776
20
68.328644
11
44.433404
21
68.371015
0
LINE
8
annotation
62
1
39
211
10
44.433404
20
68.371015
11
44.384329
21
68.405722
0
LINE
8
annotation
62
1
39
211
10
44.384329
20
68.405722
11
44.329540
21
68.431759
0
LINE
8
annotation
62
1
39
211
10
44.329540
20
68.431759
11
44.270028
21
68.448119
0
LINE
8
annotation
62
1
39
211
10
44.270028
20
68.448119
11
44.206782
21
68.453795
0
LINE
8
annotation
62
1
39
211
10
44.206782
20
68.453795
11
44.030707
21
68.453795
0
LINE
8
annotation
62
1
39
211
10
44.030707
20
68.453795
11
44.206782
21
68.453795
0
LINE
8
annotation
62
1
39
211
10
44.206782
20
68.453795
11
44.206782
21
68.453795
0
LINE
8
annotation
62
1
39
211
10
44.206782
20
68.453795
11
44.270028
21
68.459474
0
LINE
8
annotation
62
1
39
211
10
44.270028
20
68.459474
11
44.329540
21
68.475843
0
LINE
8
annotation
62
1
39
211
10
44.329540
20
68.475843
11
44.384329
21
68.501905
0
LINE
8
annotation
62
1
39
211
10
44.384329
20
68.501905
11
44.433404
21
68.536662
0
LINE
8
annotation
62
1
39
211
10
44.433404
20
68.536662
11
44.475776
21
68.579117
0
LINE
8
annotation
62
1
39
211
10
44.475776
20
68.579117
11
44.510455
21
68.628270
0
LINE
8
annotation
62
1
39
211
10
44.510455
20
68.628270
11
44.536451
21
68.683125
0
LINE
8
annotation
62
1
39
211
10
44.536451
20
68.683125
11
44.552775
21
68.742683
0
LINE
8
annotation
62
1
39
211
10
44.552775
20
68.742683
11
44.558436
21
68.805945
0
LINE
8
annotation
62
1
39
211
10
44.558436
20
68.805945
11
44.558436
21
68.805945
0
LINE
8
annotation
62
1
39
211
10
44.558436
20
68.805945
11
44.552775
21
68.868913
0
LINE
8
annotation
62
1
39
211
10
44.552775
20
68.868913
11
44.536451
21
68.928240
0
LINE
8
annotation
62
1
39
211
10
44.536451
20
68.928240
11
44.510455
21
68.982922
0
LINE
8
annotation
62
1
39
211
10
44.510455
20
68.982922
11
44.475776
21
69.031951
0
LINE
8
annotation
62
1
39
211
10
44.475776
20
69.031951
11
44.433404
21
69.074322
0
LINE
8
annotation
62
1
39
211
10
44.433404
20
69.074322
11
44.384329
21
69.109029
0
LINE
8
annotation
62
1
39
211
10
44.384329
20
69.109029
11
44.329540
21
69.135066
0
LINE
8
annotation
62
1
39
211
10
44.329540
20
69.135066
11
44.270028
21
69.151425
0
LINE
8
annotation
62
1
39
211
10
44.270028
20
69.151425
11
44.206782
21
69.157102
0
LINE
8
annotation
62
1
39
211
10
44.206782
20
69.157102
11
43.855129
21
69.157102
0
LINE
8
annotation
62
1
39
211
10
10.835129
20
67.575406
11
11.186783
21
67.575406
0
LINE
8
annotation
62
1
39
211
10
11.186783
20
67.575406
11
11.186783
21
67.575406
0
LINE
8
annotation
62
1
39
211
10
11.186783
20
67.575406
11
11.250029
21
67.581079
0
LINE
8
annotation
62
1
39
211
10
11.250029
20
67.581079
11
11.309541
21
67.597431
0
LINE
8
annotation
62
1
39
211
10
11.309541
20
67.597431
11
11.364329
21
67.623456
0
LINE
8
annotation
62
1
39
211
10
11.364329
20
67.623456
11
11.413405
21
67.658153
0
LINE
8
annotation
62
1
39
211
10
11.413405
20
67.658153
11
11.455777
21
67.700516
0
LINE
8
annotation
62
1
39
211
10
11.455777
20
67.700516
11
11.490456
21
67.749542
0
LINE
8
annotation
62
1
39
211
10
11.490456
20
67.749542
11
11.516452
21
67.804228
0
LINE
8
annotation
62
1
39
211
10
11.516452
20
67.804228
11
11.532776
21
67.863570
0
LINE
8
annotation
62
1
39
211
10
11.532776
20
67.863570
11
11.538437
21
67.926563
0
LINE
8
annotation
62
1
39
211
10
11.538437
20
67.926563
11
11.538437
21
68.102638
0
LINE
8
annotation
62
1
39
211
10
11.538437
20
68.102638
11
11.538437
21
68.102638
0
LINE
8
annotation
62
1
39
211
10
11.538437
20
68.102638
11
11.532776
21
68.165605
0
LINE
8
annotation
62
1
39
211
10
11.532776
20
68.165605
11
11.516452
21
68.224933
0
LINE
8
annotation
62
1
39
211
10
11.516452
20
68.224933
11
11.490456
21
68.279614
0
LINE
8
annotation
62
1
39
211
10
11.490456
20
68.279614
11
11.455777
21
68.328644
0
LINE
8
annotation
62
1
39
211
10
11.455777
20
68.328644
11
11.413405
21
68.371015
0
LINE
8
annotation
62
1
39
211
10
11.413405
20
68.371015
11
11.364329
21
68.405722
0
LINE
8
annotation
62
1
39
211
10
11.364329
20
68.405722
11
11.309541
21
68.431759
0
LINE
8
annotation
62
1
39
211
10
11.309541
20
68.431759
11
11.250029
21
68.448119
0
LINE
8
annotation
62
1
39
211
10
11.250029
20
68.448119
11
11.186783
21
68.453795
0
LINE
8
annotation
62
1
39
211
10
11.186783
20
68.453795
11
11.010708
21
68.453795
0
LINE
8
annotation
62
1
39
211
10
11.010708
20
68.453795
11
11.186783
21
68.453795
0
LINE
8
annotation
62
1
39
211
10
11.186783
20
68.453795
11
11.186783
21
68.453795
0
LINE
8
annotation
62
1
39
211
10
11.186783
20
68.453795
11
11.250029
21
68.459474
0
LINE
8
annotation
62
1
39
211
10
11.250029
20
68.459474
11
11.309541
21
68.475843
0
LINE
8
annotation
62
1
39
211
10
11.309541
20
68.475843
11
11.364329
21
68.501905
0
LINE
8
annotation
62
1
39
211
10
11.364329
20
68.501905
11
11.413405
21
68.536663
0
LINE
8
annotation
62
1
39
211
10
11.413405
20
68.536663
11
11.455777
21
68.579117
0
LINE
8
annotation
62
1
39
211
10
11.455777
20
68.579117
11
11.490456
21
68.628271
0
LINE
8
annotation
62
1
39
211
10
11.490456
20
68.628271
11
11.516452
21
68.683125
0
LINE
8
annotation
62
1
39
211
10
11.516452
20
68.683125
11
11.532776
21
68.742683
0
LINE
8
annotation
62
1
39
211
10
11.532776
20
68.742683
11
11.538437
21
68.805946
0
LINE
8
annotation
62
1
39
211
10
11.538437
20
68.805946
11
11.538437
21
68.805946
0
LINE
8
annotation
62
1
39
211
10
11.538437
20
68.805946
11
11.532776
21
68.868913
0
LINE
8
annotation
62
1
39
211
10
11.532776
20
68.868913
11
11.516452
21
68.928241
0
LINE
8
annotation
62
1
39
211
10
11.516452
20
68.928241
11
11.490456
21
68.982922
0
LINE
8
annotation
62
1
39
211
10
11.490456
20
68.982922
11
11.455777
21
69.031952
0
LINE
8
annotation
62
1
39
211
10
11.455777
20
69.031952
11
11.413405
21
69.074323
0
LINE
8
annotation
62
1
39
211
10
11.413405
20
69.074323
11
11.364329
21
69.109030
0
LINE
8
annotation
62
1
39
211
10
11.364329
20
69.109030
11
11.309541
21
69.135067
0
LINE
8
annotation
62
1
39
211
10
11.309541
20
69.135067
11
11.250029
21
69.151426
0
LINE
8
annotation
62
1
39
211
10
11.250029
20
69.151426
11
11.186783
21
69.157103
0
LINE
8
annotation
62
1
39
211
10
11.186783
20
69.157103
11
10.835129
21
69.157103
0
LINE
8
annotation
62
1
39
211
10
23.495631
20
9.135718
11
23.038156
21
8.474022
0
LINE
8
annotation
62
1
39
211
10
23.038156
20
8.474022
11
22.580595
21
9.135718
0
LINE
8
annotation
62
1
39
211
10
23.038156
20
8.527271
11
23.038156
21
7.763895
0
LINE
8
annotation
62
1
39
211
10
24.760247
20
8.449806
11
24.010205
21
8.449806
0
LINE
8
annotation
62
1
39
211
10
25.579517
20
7.763938
11
25.579517
21
9.135675
0
LINE
8
annotation
62
1
39
211
10
25.579517
20
9.135675
11
25.274562
21
8.830634
0
LINE
8
annotation
62
1
39
211
10
26.844047
20
8.449806
11
26.094005
21
8.449806
0
LINE
8
annotation
62
1
39
211
10
27.663317
20
7.763938
11
27.663317
21
9.135675
0
LINE
8
annotation
62
1
39
211
10
27.663317
20
9.135675
11
27.358363
21
8.830634
0
LINE
8
boundary
62
5
39
2
10
6.667500
20
121.794017
11
6.667500
21
101.090985
0
LINE
8
boundary
62
5
39
2
10
6.667500
20
101.090985
11
9.080501
21
100.865941
0
LINE
8
boundary
62
5
39
2
10
9.080501
20
100.865941
11
9.080501
21
96.619061
0
LINE
8
boundary
62
5
39
2
10
9.080501
20
96.619061
11
6.752844
21
96.619061
0
LINE
8
boundary
62
5
39
2
10
6.752844
20
96.619061
11
6.667500
21
86.042500
0
LINE
8
boundary
62
5
39
2
10
6.667500
20
86.042500
11
25.717500
21
86.042501
0
LINE
8
boundary
62
5
39
2
10
25.717500
20
86.042501
11
44.767500
21
86.042501
0
LINE
8
boundary
62
5
39
2
10
44.767500
20
86.042501
11
44.767500
21
124.142501
0
LINE
8
boundary
62
5
39
2
10
44.767500
20
124.142501
11
44.767500
21
162.242500
0
LINE
8
boundary
62
5
39
2
10
44.767500
20
162.242500
11
41.945280
21
162.242501
0
LINE
8
boundary
62
5
39
2
10
41.945280
20
162.242501
11
39.687505
21
162.242501
0
LINE
8
boundary
62
5
39
2
10
39.687505
20
162.242501
11
39.687505
21
151.890985
0
LINE
8
boundary
62
5
39
2
10
39.687505
20
151.890985
11
42.100502
21
151.665941
0
LINE
8
boundary
62
5
39
2
10
42.100502
20
151.665941
11
42.100503
21
147.419061
0
LINE
8
boundary
62
5
39
2
10
42.100503
20
147.419061
11
39.772849
21
147.419061
0
LINE
8
boundary
62
5
39
2
10
39.772849
20
147.419061
11
39.687505
21
126.682496
0
LINE
8
boundary
62
5
39
2
10
39.687505
20
126.682496
11
42.100503
21
126.265941
0
LINE
8
boundary
62
5
39
2
10
42.100503
20
126.265941
11
42.100502
21
122.019061
0
LINE
8
boundary
62
5
39
2
10
42.100502
20
122.019061
11
39.772849
21
122.019061
0
LINE
8
boundary
62
5
39
2
10
39.772849
20
122.019061
11
39.687505
21
101.090985
0
LINE
8
boundary
62
5
39
2
10
39.687505
20
101.090985
11
42.100503
21
100.865941
0
LINE
8
boundary
62
5
39
2
10
42.100503
20
100.865941
11
42.100503
21
96.619061
0
LINE
8
boundary
62
5
39
2
10
42.100503
20
96.619061
11
39.772849
21
96.619061
0
LINE
8
boundary
62
5
39
2
10
39.772849
20
96.619061
11
39.687505
21
91.122502
0
LINE
8
boundary
62
5
39
2
10
39.687505
20
91.122502
11
25.717501
21
91.122502
0
LINE
8
boundary
62
5
39
2
10
25.717501
20
91.122502
11
11.747501
21
91.122502
0
LINE
8
boundary
62
5
39
2
10
11.747501
20
91.122502
11
11.747501
21
126.682507
0
LINE
8
boundary
62
5
39
2
10
11.747501
20
126.682507
11
11.747502
21
162.242501
0
LINE
8
boundary
62
5
39
2
10
11.747502
20
162.242501
11
9.489723
21
162.242500
0
LINE
8
boundary
62
5
39
2
10
9.489723
20
162.242500
11
6.667500
21
162.242501
0
LINE
8
boundary
62
5
39
2
10
6.667500
20
162.242501
11
6.667500
21
151.890985
0
LINE
8
boundary
62
5
39
2
10
6.667500
20
151.890985
11
9.080501
21
151.665941
0
LINE
8
boundary
62
5
39
2
10
9.080501
20
151.665941
11
9.080501
21
147.419061
0
LINE
8
boundary
62
5
39
2
10
9.080501
20
147.419061
11
6.752844
21
147.419061
0
LINE
8
boundary
62
5
39
2
10
6.752844
20
147.419061
11
6.667500
21
126.490985
0
LINE
8
boundary
62
5
39
2
10
6.667500
20
126.490985
11
9.080501
21
126.265941
0
LINE
8
boundary
62
5
39
2
10
9.080501
20
126.265941
11
9.080501
21
122.019061
0
LINE
8
boundary
62
5
39
2
10
9.080501
20
122.019061
11
6.752844
21
122.019061
0
LINE
8
boundary
62
5
39
2
10
6.752844
20
122.019061
11
6.667500
21
121.794017
0
LINE
8
annotation
62
1
39
211
10
44.597985
20
96.071328
11
44.597985
21
97.812969
0
LINE
8
annotation
62
1
39
211
10
44.597985
20
97.812969
11
44.210796
21
97.425671
0
LINE
8
annotation
62
1
39
211
10
11.577987
20
96.071327
11
11.577987
21
97.812971
0
LINE
8
annotation
62
1
39
211
10
11.577987
20
97.812971
11
11.190797
21
97.425672
0
LINE
8
annotation
62
1
39
211
10
44.558292
20
121.550393
11
43.855028
21
121.550393
0
LINE
8
annotation
62
1
39
211
10
43.855028
20
121.550393
11
44.504867
21
122.596550
0
LINE
8
annotation
62
1
39
211
10
44.504867
20
122.596550
11
44.504867
21
122.596550
0
LINE
8
annotation
62
1
39
211
10
44.504867
20
122.596550
11
44.505644
21
122.597511
0
LINE
8
annotation
62
1
39
211
10
44.505644
20
122.597511
11
44.506389
21
122.598481
0
LINE
8
annotation
62
1
39
211
10
44.506389
20
122.598481
11
44.507107
21
122.599466
0
LINE
8
annotation
62
1
39
211
10
44.507107
20
122.599466
11
44.507803
21
122.600477
0
LINE
8
annotation
62
1
39
211
10
44.507803
20
122.600477
11
44.508481
21
122.601520
0
LINE
8
annotation
62
1
39
211
10
44.508481
20
122.601520
11
44.509148
21
122.602604
0
LINE
8
annotation
62
1
39
211
10
44.509148
20
122.602604
11
44.509807
21
122.603737
0
LINE
8
annotation
62
1
39
211
10
44.509807
20
122.603737
11
44.510464
21
122.604927
0
LINE
8
annotation
62
1
39
211
10
44.510464
20
122.604927
11
44.511123
21
122.606182
0
LINE
8
annotation
62
1
39
211
10
44.511123
20
122.606182
11
44.511123
21
122.606182
0
LINE
8
annotation
62
1
39
211
10
44.511123
20
122.606182
11
44.537955
21
122.663792
0
LINE
8
annotation
62
1
39
211
10
44.537955
20
122.663792
11
44.553629
21
122.723510
0
LINE
8
annotation
62
1
39
211
10
44.553629
20
122.723510
11
44.558531
21
122.783986
0
LINE
8
annotation
62
1
39
211
10
44.558531
20
122.783986
11
44.553044
21
122.843871
0
LINE
8
annotation
62
1
39
211
10
44.553044
20
122.843871
11
44.537552
21
122.901816
0
LINE
8
annotation
62
1
39
211
10
44.537552
20
122.901816
11
44.512440
21
122.956472
0
LINE
8
annotation
62
1
39
211
10
44.512440
20
122.956472
11
44.478091
21
123.006488
0
LINE
8
annotation
62
1
39
211
10
44.478091
20
123.006488
11
44.434890
21
123.050516
0
LINE
8
annotation
62
1
39
211
10
44.434890
20
123.050516
11
44.383221
21
123.087206
0
LINE
8
annotation
62
1
39
211
10
44.383221
20
123.087206
11
44.383221
21
123.087206
0
LINE
8
annotation
62
1
39
211
10
44.383221
20
123.087206
11
44.325451
21
123.113656
0
LINE
8
annotation
62
1
39
211
10
44.325451
20
123.113656
11
44.265641
21
123.129089
0
LINE
8
annotation
62
1
39
211
10
44.265641
20
123.129089
11
44.205130
21
123.133852
0
LINE
8
annotation
62
1
39
211
10
44.205130
20
123.133852
11
44.145254
21
123.128293
0
LINE
8
annotation
62
1
39
211
10
44.145254
20
123.128293
11
44.087350
21
123.112758
0
LINE
8
annotation
62
1
39
211
10
44.087350
20
123.112758
11
44.032755
21
123.087596
0
LINE
8
annotation
62
1
39
211
10
44.032755
20
123.087596
11
43.982806
21
123.053153
0
LINE
8
annotation
62
1
39
211
10
43.982806
20
123.053153
11
43.938841
21
123.009776
0
LINE
8
annotation
62
1
39
211
10
43.938841
20
123.009776
11
43.902197
21
122.957814
0
LINE
8
annotation
62
1
39
211
10
43.902197
20
122.957814
11
43.856021
21
122.869236
0
LINE
8
annotation
62
1
39
211
10
11.538293
20
121.550392
11
10.835028
21
121.550392
0
LINE
8
annotation
62
1
39
211
10
10.835028
20
121.550392
11
11.484868
21
122.596550
0
LINE
8
annotation
62
1
39
211
10
11.484868
20
122.596550
11
11.484868
21
122.596550
0
LINE
8
annotation
62
1
39
211
10
11.484868
20
122.596550
11
11.485645
21
122.597511
0
LINE
8
annotation
62
1
39
211
10
11.485645
20
122.597511
11
11.486390
21
122.598481
0
LINE
8
annotation
62
1
39
211
10
11.486390
20
122.598481
11
11.487108
21
122.599467
0
LINE
8
annotation
62
1
39
211
10
11.487108
20
122.599467
11
11.487804
21
122.600477
0
LINE
8
annotation
62
1
39
211
10
11.487804
20
122.600477
11
11.488482
21
122.601520
0
LINE
8
annotation
62
1
39
211
10
11.488482
20
122.601520
11
11.489149
21
122.602604
0
LINE
8
annotation
62
1
39
211
10
11.489149
20
122.602604
11
11.489808
21
122.603737
0
LINE
8
annotation
62
1
39
211
10
11.489808
20
122.603737
11
11.490465
21
122.604927
0
LINE
8
annotation
62
1
39
211
10
11.490465
20
122.604927
11
11.491124
21
122.606183
0
LINE
8
annotation
62
1
39
211
10
11.491124
20
122.606183
11
11.491124
21
122.606183
0
LINE
8
annotation
62
1
39
211
10
11.491124
20
122.606183
11
11.517956
21
122.663793
0
LINE
8
annotation
62
1
39
211
10
11.517956
20
122.663793
11
11.533630
21
122.723510
0
LINE
8
annotation
62
1
39
211
10
11.533630
20
122.723510
11
11.538532
21
122.783987
0
LINE
8
annotation
62
1
39
211
10
11.538532
20
122.783987
11
11.533045
21
122.843872
0
LINE
8
annotation
62
1
39
211
10
11.533045
20
122.843872
11
11.517553
21
122.901817
0
LINE
8
annotation
62
1
39
211
10
11.517553
20
122.901817
11
11.492441
21
122.956472
0
LINE
8
annotation
62
1
39
211
10
11.492441
20
122.956472
11
11.458092
21
123.006489
0
LINE
8
annotation
62
1
39
211
10
11.458092
20
123.006489
11
11.414891
21
123.050517
0
LINE
8
annotation
62
1
39
211
10
11.414891
20
123.050517
11
11.363221
21
123.087207
0
LINE
8
annotation
62
1
39
211
10
11.363221
20
123.087207
11
11.363221
21
123.087207
0
LINE
8
annotation
62
1
39
211
10
11.363221
20
123.087207
11
11.305451
21
123.113657
0
LINE
8
annotation
62
1
39
211
10
11.305451
20
123.113657
11
11.245642
21
123.129090
0
LINE
8
annotation
62
1
39
211
10
11.245642
20
123.129090
11
11.185131
21
123.133853
0
LINE
8
annotation
62
1
39
211
10
11.185131
20
123.133853
11
11.125254
21
123.128294
0
LINE
8
annotation
62
1
39
211
10
11.125254
20
123.128294
11
11.067350
21
123.112759
0
LINE
8
annotation
62
1
39
211
10
11.067350
20
123.112759
11
11.012755
21
123.087597
0
LINE
8
annotation
62
1
39
211
10
11.012755
20
123.087597
11
10.962807
21
123.053153
0
LINE
8
annotation
62
1
39
211
10
10.962807
20
123.053153
11
10.918842
21
123.009777
0
LINE
8
annotation
62
1
39
211
10
10.918842
20
123.009777
11
10.882197
21
122.957815
0
LINE
8
annotation
62
1
39
211
10
10.882197
20
122.957815
11
10.836021
21
122.869236
0
LINE
8
annotation
62
1
39
211
10
43.855129
20
148.750759
11
44.206782
21
148.750759
0
LINE
8
annotation
62
1
39
211
10
44.206782
20
148.750759
11
44.206782
21
148.750759
0
LINE
8
annotation
62
1
39
211
10
44.206782
20
148.750759
11
44.270028
21
148.756432
0
LINE
8
annotation
62
1
39
211
10
44.270028
20
148.756432
11
44.329540
21
148.772784
0
LINE
8
annotation
62
1
39
211
10
44.329540
20
148.772784
11
44.384329
21
148.798810
0
LINE
8
annotation
62
1
39
211
10
44.384329
20
148.798810
11
44.433404
21
148.833506
0
LINE
8
annotation
62
1
39
211
10
44.433404
20
148.833506
11
44.475776
21
148.875869
0
LINE
8
annotation
62
1
39
211
10
44.475776
20
148.875869
11
44.510455
21
148.924896
0
LINE
8
annotation
62
1
39
211
10
44.510455
20
148.924896
11
44.536451
21
148.979581
0
LINE
8
annotation
62
1
39
211
10
44.536451
20
148.979581
11
44.552775
21
149.038923
0
LINE
8
annotation
62
1
39
211
10
44.552775
20
149.038923
11
44.558436
21
149.101916
0
LINE
8
annotation
62
1
39
211
10
44.558436
20
149.101916
11
44.558436
21
149.277991
0
LINE
8
annotation
62
1
39
211
10
44.558436
20
149.277991
11
44.558436
21
149.277991
0
LINE
8
annotation
62
1
39
211
10
44.558436
20
149.277991
11
44.552775
21
149.340958
0
LINE
8
annotation
62
1
39
211
10
44.552775
20
149.340958
11
44.536451
21
149.400285
0
LINE
8
annotation
62
1
39
211
10
44.536451
20
149.400285
11
44.510455
21
149.454967
0
LINE
8
annotation
62
1
39
211
10
44.510455
20
149.454967
11
44.475776
21
149.503997
0
LINE
8
annotation
62
1
39
211
10
44.475776
20
149.503997
11
44.433404
21
149.546368
0
LINE
8
annotation
62
1
39
211
10
44.433404
20
149.546368
11
44.384329
21
149.581075
0
LINE
8
annotation
62
1
39
211
10
44.384329
20
149.581075
11
44.329540
21
149.607111
0
LINE
8
annotation
62
1
39
211
10
44.329540
20
149.607111
11
44.270028
21
149.623471
0
LINE
8
annotation
62
1
39
211
10
44.270028
20
149.623471
11
44.206782
21
149.629148
0
LINE
8
annotation
62
1
39
211
10
44.206782
20
149.629148
11
44.030707
21
149.629148
0
LINE
8
annotation
62
1
39
211
10
44.030707
20
149.629148
11
44.206782
21
149.629148
0
LINE
8
annotation
62
1
39
211
10
44.206782
20
149.629148
11
44.206782
21
149.629148
0
LINE
8
annotation
62
1
39
211
10
44.206782
20
149.629148
11
44.270028
21
149.634826
0
LINE
8
annotation
62
1
39
211
10
44.270028
20
149.634826
11
44.329540
21
149.651195
0
LINE
8
annotation
62
1
39
211
10
44.329540
20
149.651195
11
44.384329
21
149.677258
0
LINE
8
annotation
62
1
39
211
10
44.384329
20
149.677258
11
44.433404
21
149.712015
0
LINE
8
annotation
62
1
39
211
10
44.433404
20
149.712015
11
44.475776
21
149.754469
0
LINE
8
annotation
62
1
39
211
10
44.475776
20
149.754469
11
44.510455
21
149.803623
0
LINE
8
annotation
62
1
39
211
10
44.510455
20
149.803623
11
44.536451
21
149.858477
0
LINE
8
annotation
62
1
39
211
10
44.536451
20
149.858477
11
44.552775
21
149.918035
0
LINE
8
annotation
62
1
39
211
10
44.552775
20
149.918035
11
44.558436
21
149.981298
0
LINE
8
annotation
62
1
39
211
10
44.558436
20
149.981298
11
44.558436
21
149.981298
0
LINE
8
annotation
62
1
39
211
10
44.558436
20
149.981298
11
44.552775
21
150.044265
0
LINE
8
annotation
62
1
39
211
10
44.552775
20
150.044265
11
44.536451
21
150.103592
0
LINE
8
annotation
62
1
39
211
10
44.536451
20
150.103592
11
44.510455
21
150.158274
0
LINE
8
annotation
62
1
39
211
10
44.510455
20
150.158274
11
44.475776
21
150.207304
0
LINE
8
annotation
62
1
39
211
10
44.475776
20
150.207304
11
44.433404
21
150.249675
0
LINE
8
annotation
62
1
39
211
10
44.433404
20
150.249675
11
44.384329
21
150.284382
0
LINE
8
annotation
62
1
39
211
10
44.384329
20
150.284382
11
44.329540
21
150.310418
0
LINE
8
annotation
62
1
39
211
10
44.329540
20
150.310418
11
44.270028
21
150.326778
0
LINE
8
annotation
62
1
39
211
10
44.270028
20
150.326778
11
44.206782
21
150.332455
0
LINE
8
annotation
62
1
39
211
10
44.206782
20
150.332455
11
43.855129
21
150.332455
0
LINE
8
annotation
62
1
39
211
10
10.835129
20
148.750758
11
11.186783
21
148.750758
0
LINE
8
annotation
62
1
39
211
10
11.186783
20
148.750758
11
11.186783
21
148.750758
0
LINE
8
annotation
62
1
39
211
10
11.186783
20
148.750758
11
11.250029
21
148.756431
0
LINE
8
annotation
62
1
39
211
10
11.250029
20
148.756431
11
11.309541
21
148.772783
0
LINE
8
annotation
62
1
39
211
10
11.309541
20
148.772783
11
11.364329
21
148.798809
0
LINE
8
annotation
62
1
39
211
10
11.364329
20
148.798809
11
11.413405
21
148.833505
0
LINE
8
annotation
62
1
39
211
10
11.413405
20
148.833505
11
11.455777
21
148.875868
0
LINE
8
annotation
62
1
39
211
10
11.455777
20
148.875868
11
11.490456
21
148.924895
0
LINE
8
annotation
62
1
39
211
10
11.490456
20
148.924895
11
11.516452
21
148.979581
0
LINE
8
annotation
62
1
39
211
10
11.516452
20
148.979581
11
11.532776
21
149.038922
0
LINE
8
annotation
62
1
39
211
10
11.532776
20
149.038922
11
11.538437
21
149.101915
0
LINE
8
annotation
62
1
39
211
10
11.538437
20
149.101915
11
11.538437
21
149.277991
0
LINE
8
annotation
62
1
39
211
10
11.538437
20
149.277991
11
11.538437
21
149.277991
0
LINE
8
annotation
62
1
39
211
10
11.538437
20
149.277991
11
11.532776
21
149.340958
0
LINE
8
annotation
62
1
39
211
10
11.532776
20
149.340958
11
11.516452
21
149.400285
0
LINE
8
annotation
62
1
39
211
10
11.516452
20
149.400285
11
11.490456
21
149.454967
0
LINE
8
annotation
62
1
39
211
10
11.490456
20
149.454967
11
11.455777
21
149.503996
0
LINE
8
annotation
62
1
39
211
10
11.455777
20
149.503996
11
11.413405
21
149.546368
0
LINE
8
annotation
62
1
39
211
10
11.413405
20
149.546368
11
11.364329
21
149.581075
0
LINE
8
annotation
62
1
39
211
10
11.364329
20
149.581075
11
11.309541
21
149.607111
0
LINE
8
annotation
62
1
39
211
10
11.309541
20
149.607111
11
11.250029
21
149.623471
0
LINE
8
annotation
62
1
39
211
10
11.250029
20
149.623471
11
11.186783
21
149.629148
0
LINE
8
annotation
62
1
39
211
10
11.186783
20
149.629148
11
11.010708
21
149.629148
0
LINE
8
annotation
62
1
39
211
10
11.010708
20
149.629148
11
11.186783
21
149.629148
0
LINE
8
annotation
62
1
39
211
10
11.186783
20
149.629148
11
11.186783
21
149.629148
0
LINE
8
annotation
62
1
39
211
10
11.186783
20
149.629148
11
11.250029
21
149.634826
0
LINE
8
annotation
62
1
39
211
10
11.250029
20
149.634826
11
11.309541
21
149.651195
0
LINE
8
annotation
62
1
39
211
10
11.309541
20
149.651195
11
11.364329
21
149.677258
0
LINE
8
annotation
62
1
39
211
10
11.364329
20
149.677258
11
11.413405
21
149.712015
0
LINE
8
annotation
62
1
39
211
10
11.413405
20
149.712015
11
11.455777
21
149.754470
0
LINE
8
annotation
62
1
39
211
10
11.455777
20
149.754470
11
11.490456
21
149.803623
0
LINE
8
annotation
62
1
39
211
10
11.490456
20
149.803623
11
11.516452
21
149.858478
0
LINE
8
annotation
62
1
39
211
10
11.516452
20
149.858478
11
11.532776
21
149.918036
0
LINE
8
annotation
62
1
39
211
10
11.532776
20
149.918036
11
11.538437
21
149.981298
0
LINE
8
annotation
62
1
39
211
10
11.538437
20
149.981298
11
11.538437
21
149.981298
0
LINE
8
annotation
62
1
39
211
10
11.538437
20
149.981298
11
11.532776
21
150.044266
0
LINE
8
annotation
62
1
39
211
10
11.532776
20
150.044266
11
11.516452
21
150.103593
0
LINE
8
annotation
62
1
39
211
10
11.516452
20
150.103593
11
11.490456
21
150.158275
0
LINE
8
annotation
62
1
39
211
10
11.490456
20
150.158275
11
11.455777
21
150.207304
0
LINE
8
annotation
62
1
39
211
10
11.455777
20
150.207304
11
11.413405
21
150.249676
0
LINE
8
annotation
62
1
39
211
10
11.413405
20
150.249676
11
11.364329
21
150.284383
0
LINE
8
annotation
62
1
39
211
10
11.364329
20
150.284383
11
11.309541
21
150.310419
0
LINE
8
annotation
62
1
39
211
10
11.309541
20
150.310419
11
11.250029
21
150.326779
0
LINE
8
annotation
62
1
39
211
10
11.250029
20
150.326779
11
11.186783
21
150.332456
0
LINE
8
annotation
62
1
39
211
10
11.186783
20
150.332456
11
10.835129
21
150.332456
0
LINE
8
annotation
62
1
39
211
10
23.343394
20
88.510718
11
22.885919
21
87.849022
0
LINE
8
annotation
62
1
39
211
10
22.885919
20
87.849022
11
22.428358
21
88.510718
0
LINE
8
annotation
62
1
39
211
10
22.885919
20
87.902271
11
22.885919
21
87.138895
0
LINE
8
annotation
62
1
39
211
10
24.608010
20
87.824806
11
23.857968
21
87.824806
0
LINE
8
annotation
62
1
39
211
10
25.731607
20
87.138927
11
25.122386
21
87.138927
0
LINE
8
annotation
62
1
39
211
10
25.122386
20
87.138927
11
25.685327
21
88.045189
0
LINE
8
annotation
62
1
39
211
10
25.685327
20
88.045189
11
25.685327
21
88.045189
0
LINE
8
annotation
62
1
39
211
10
25.685327
20
88.045189
11
25.686000
21
88.046021
0
LINE
8
annotation
62
1
39
211
10
25.686000
20
88.046021
11
25.686645
21
88.046861
0
LINE
8
annotation
62
1
39
211
10
25.686645
20
88.046861
11
25.687267
21
88.047715
0
LINE
8
annotation
62
1
39
211
10
25.687267
20
88.047715
11
25.687870
21
88.048590
0
LINE
8
annotation
62
1
39
211
10
25.687870
20
88.048590
11
25.688458
21
88.049494
0
LINE
8
annotation
62
1
39
211
10
25.688458
20
88.049494
11
25.689035
21
88.050433
0
LINE
8
annotation
62
1
39
211
10
25.689035
20
88.050433
11
25.689606
21
88.051414
0
LINE
8
annotation
62
1
39
211
10
25.689606
20
88.051414
11
25.690175
21
88.052445
0
LINE
8
annotation
62
1
39
211
10
25.690175
20
88.052445
11
25.690746
21
88.053533
0
LINE
8
annotation
62
1
39
211
10
25.690746
20
88.053533
11
25.690746
21
88.053533
0
LINE
8
annotation
62
1
39
211
10
25.690746
20
88.053533
11
25.713990
21
88.103439
0
LINE
8
annotation
62
1
39
211
10
25.713990
20
88.103439
11
25.727568
21
88.155171
0
LINE
8
annotation
62
1
39
211
10
25.727568
20
88.155171
11
25.731815
21
88.207560
0
LINE
8
annotation
62
1
39
211
10
25.731815
20
88.207560
11
25.727061
21
88.259438
0
LINE
8
annotation
62
1
39
211
10
25.727061
20
88.259438
11
25.713641
21
88.309634
0
LINE
8
annotation
62
1
39
211
10
25.713641
20
88.309634
11
25.691887
21
88.356981
0
LINE
8
annotation
62
1
39
211
10
25.691887
20
88.356981
11
25.662131
21
88.400309
0
LINE
8
annotation
62
1
39
211
10
25.662131
20
88.400309
11
25.624707
21
88.438449
0
LINE
8
annotation
62
1
39
211
10
25.624707
20
88.438449
11
25.579947
21
88.470233
0
LINE
8
annotation
62
1
39
211
10
25.579947
20
88.470233
11
25.579947
21
88.470233
0
LINE
8
annotation
62
1
39
211
10
25.579947
20
88.470233
11
25.529902
21
88.493146
0
LINE
8
annotation
62
1
39
211
10
25.529902
20
88.493146
11
25.478091
21
88.506515
0
LINE
8
annotation
62
1
39
211
10
25.478091
20
88.506515
11
25.425671
21
88.510642
0
LINE
8
annotation
62
1
39
211
10
25.425671
20
88.510642
11
25.373802
21
88.505826
0
LINE
8
annotation
62
1
39
211
10
25.373802
20
88.505826
11
25.323641
21
88.492368
0
LINE
8
annotation
62
1
39
211
10
25.323641
20
88.492368
11
25.276347
21
88.470570
0
LINE
8
annotation
62
1
39
211
10
25.276347
20
88.470570
11
25.233077
21
88.440733
0
LINE
8
annotation
62
1
39
211
10
25.233077
20
88.440733
11
25.194992
21
88.403157
0
LINE
8
annotation
62
1
39
211
10
25.194992
20
88.403157
11
25.163248
21
88.358144
0
LINE
8
annotation
62
1
39
211
10
25.163248
20
88.358144
11
25.123246
21
88.281410
0
LINE
8
annotation
62
1
39
211
10
26.996284
20
87.824806
11
26.246242
21
87.824806
0
LINE
8
annotation
62
1
39
211
10
27.815554
20
87.138938
11
27.815554
21
88.510675
0
LINE
8
annotation
62
1
39
211
10
27.815554
20
88.510675
11
27.510599
21
88.205634
0
LINE
8
boundary
62
5
39
2
10
6.667500
20
226.569017
11
6.667500
21
205.865985
0
LINE
8
boundary
62
5
39
2
10
6.667500
20
205.865985
11
9.080501
21
205.640941
0
LINE
8
boundary
62
5
39
2
10
9.080501
20
205.640941
11
9.080501
21
201.394061
0
LINE
8
boundary
62
5
39
2
10
9.080501
20
201.394061
11
6.752844
21
201.394061
0
LINE
8
boundary
62
5
39
2
10
6.752844
20
201.394061
11
6.667500
21
180.465985
0
LINE
8
boundary
62
5
39
2
10
6.667500
20
180.465985
11
9.080501
21
180.240941
0
LINE
8
boundary
62
5
39
2
10
9.080501
20
180.240941
11
9.080501
21
175.994061
0
LINE
8
boundary
62
5
39
2
10
9.080501
20
175.994061
11
6.752844
21
175.994061
0
LINE
8
boundary
62
5
39
2
10
6.752844
20
175.994061
11
6.667500
21
165.417501
0
LINE
8
boundary
62
5
39
2
10
6.667500
20
165.417501
11
13.017500
21
165.417501
0
LINE
8
boundary
62
5
39
2
10
13.017500
20
165.417501
11
44.767500
21
165.417501
0
LINE
8
boundary
62
5
39
2
10
44.767500
20
165.417501
11
44.767500
21
178.117501
0
LINE
8
boundary
62
5
39
2
10
44.767500
20
178.117501
11
44.767500
21
241.617501
0
LINE
8
boundary
62
5
39
2
10
44.767500
20
241.617501
11
43.826760
21
241.617501
0
LINE
8
boundary
62
5
39
2
10
43.826760
20
241.617501
11
39.687505
21
241.617501
0
LINE
8
boundary
62
5
39
2
10
39.687505
20
241.617501
11
39.687505
21
235.690827
0
LINE
8
boundary
62
5
39
2
10
39.687505
20
235.690827
11
39.687505
21
231.265985
0
LINE
8
boundary
62
5
39
2
10
39.687505
20
231.265985
11
42.100503
21
231.040941
0
LINE
8
boundary
62
5
39
2
10
42.100503
20
231.040941
11
42.100503
21
226.794061
0
LINE
8
boundary
62
5
39
2
10
42.100503
20
226.794061
11
39.772849
21
226.794061
0
LINE
8
boundary
62
5
39
2
10
39.772849
20
226.794061
11
39.687505
21
205.865985
0
LINE
8
boundary
62
5
39
2
10
39.687505
20
205.865985
11
42.100503
21
205.640941
0
LINE
8
boundary
62
5
39
2
10
42.100503
20
205.640941
11
42.100503
21
201.394061
0
LINE
8
boundary
62
5
39
2
10
42.100503
20
201.394061
11
39.772849
21
201.394061
0
LINE
8
boundary
62
5
39
2
10
39.772849
20
201.394061
11
39.687505
21
180.465985
0
LINE
8
boundary
62
5
39
2
10
39.687505
20
180.465985
11
42.100503
21
180.240941
0
LINE
8
boundary
62
5
39
2
10
42.100503
20
180.240941
11
42.100503
21
175.994061
0
LINE
8
boundary
62
5
39
2
10
42.100503
20
175.994061
11
39.772849
21
175.994061
0
LINE
8
boundary
62
5
39
2
10
39.772849
20
175.994061
11
39.687505
21
170.497502
0
LINE
8
boundary
62
5
39
2
10
39.687505
20
170.497502
11
37.359169
21
170.497502
0
LINE
8
boundary
62
5
39
2
10
37.359169
20
170.497502
11
11.747501
21
170.497502
0
LINE
8
boundary
62
5
39
2
10
11.747501
20
170.497502
11
11.747501
21
176.424176
0
LINE
8
boundary
62
5
39
2
10
11.747501
20
176.424176
11
11.747502
21
241.617501
0
LINE
8
boundary
62
5
39
2
10
11.747502
20
241.617501
11
6.667500
21
241.617501
0
LINE
8
boundary
62
5
39
2
10
6.667500
20
241.617501
11
6.667500
21
231.265985
0
LINE
8
boundary
62
5
39
2
10
6.667500
20
231.265985
11
9.080501
21
231.040941
0
LINE
8
boundary
62
5
39
2
10
9.080501
20
231.040941
11
9.080501
21
226.794061
0
LINE
8
boundary
62
5
39
2
10
9.080501
20
226.794061
11
6.752844
21
226.794061
0
LINE
8
boundary
62
5
39
2
10
6.752844
20
226.794061
11
6.667500
21
226.569017
0
LINE
8
annotation
62
1
39
211
10
44.597985
20
175.446328
11
44.597985
21
177.187970
0
LINE
8
annotation
62
1
39
211
10
44.597985
20
177.187970
11
44.210796
21
176.800671
0
LINE
8
annotation
62
1
39
211
10
11.577986
20
177.246679
11
11.577986
21
178.988323
0
LINE
8
annotation
62
1
39
211
10
11.577986
20
178.988323
11
11.190797
21
178.601024
0
LINE
8
annotation
62
1
39
211
10
44.558292
20
202.725746
11
43.855028
21
202.725746
0
LINE
8
annotation
62
1
39
211
10
43.855028
20
202.725746
11
44.504867
21
203.771902
0
LINE
8
annotation
62
1
39
211
10
44.504867
20
203.771902
11
44.504867
21
203.771902
0
LINE
8
annotation
62
1
39
211
10
44.504867
20
203.771902
11
44.505644
21
203.772864
0
LINE
8
annotation
62
1
39
211
10
44.505644
20
203.772864
11
44.506389
21
203.773833
0
LINE
8
annotation
62
1
39
211
10
44.506389
20
203.773833
11
44.507107
21
203.774819
0
LINE
8
annotation
62
1
39
211
10
44.507107
20
203.774819
11
44.507803
21
203.775829
0
LINE
8
annotation
62
1
39
211
10
44.507803
20
203.775829
11
44.508481
21
203.776872
0
LINE
8
annotation
62
1
39
211
10
44.508481
20
203.776872
11
44.509148
21
203.777956
0
LINE
8
annotation
62
1
39
211
10
44.509148
20
203.777956
11
44.509807
21
203.779089
0
LINE
8
annotation
62
1
39
211
10
44.509807
20
203.779089
11
44.510464
21
203.780279
0
LINE
8
annotation
62
1
39
211
10
44.510464
20
203.780279
11
44.511123
21
203.781535
0
LINE
8
annotation
62
1
39
211
10
44.511123
20
203.781535
11
44.511123
21
203.781535
0
LINE
8
annotation
62
1
39
211
10
44.511123
20
203.781535
11
44.537955
21
203.839145
0
LINE
8
annotation
62
1
39
211
10
44.537955
20
203.839145
11
44.553629
21
203.898862
0
LINE
8
annotation
62
1
39
211
10
44.553629
20
203.898862
11
44.558531
21
203.959338
0
LINE
8
annotation
62
1
39
211
10
44.558531
20
203.959338
11
44.553044
21
204.019224
0
LINE
8
annotation
62
1
39
211
10
44.553044
20
204.019224
11
44.537552
21
204.077169
0
LINE
8
annotation
62
1
39
211
10
44.537552
20
204.077169
11
44.512440
21
204.131824
0
LINE
8
annotation
62
1
39
211
10
44.512440
20
204.131824
11
44.478091
21
204.181840
0
LINE
8
annotation
62
1
39
211
10
44.478091
20
204.181840
11
44.434890
21
204.225868
0
LINE
8
annotation
62
1
39
211
10
44.434890
20
204.225868
11
44.383221
21
204.262558
0
LINE
8
annotation
62
1
39
211
10
44.383221
20
204.262558
11
44.383221
21
204.262558
0
LINE
8
annotation
62
1
39
211
10
44.383221
20
204.262558
11
44.325451
21
204.289009
0
LINE
8
annotation
62
1
39
211
10
44.325451
20
204.289009
11
44.265641
21
204.304442
0
LINE
8
annotation
62
1
39
211
10
44.265641
20
204.304442
11
44.205130
21
204.309205
0
LINE
8
annotation
62
1
39
211
10
44.205130
20
204.309205
11
44.145254
21
204.303645
0
LINE
8
annotation
62
1
39
211
10
44.145254
20
204.303645
11
44.087350
21
204.288111
0
LINE
8
annotation
62
1
39
211
10
44.087350
20
204.288111
11
44.032755
21
204.262948
0
LINE
8
annotation
62
1
39
211
10
44.032755
20
204.262948
11
43.982806
21
204.228505
0
LINE
8
annotation
62
1
39
211
10
43.982806
20
204.228505
11
43.938842
21
204.185129
0
LINE
8
annotation
62
1
39
211
10
43.938842
20
204.185129
11
43.902197
21
204.133166
0
LINE
8
annotation
62
1
39
211
10
43.902197
20
204.133166
11
43.856021
21
204.044588
0
LINE
8
annotation
62
1
39
211
10
11.538293
20
202.725745
11
10.835028
21
202.725745
0
LINE
8
annotation
62
1
39
211
10
10.835028
20
202.725745
11
11.484868
21
203.771903
0
LINE
8
annotation
62
1
39
211
10
11.484868
20
203.771903
11
11.484868
21
203.771903
0
LINE
8
annotation
62
1
39
211
10
11.484868
20
203.771903
11
11.485645
21
203.772864
0
LINE
8
annotation
62
1
39
211
10
11.485645
20
203.772864
11
11.486390
21
203.773833
0
LINE
8
annotation
62
1
39
211
10
11.486390
20
203.773833
11
11.487108
21
203.774819
0
LINE
8
annotation
62
1
39
211
10
11.487108
20
203.774819
11
11.487804
21
203.775829
0
LINE
8
annotation
62
1
39
211
10
11.487804
20
203.775829
11
11.488482
21
203.776873
0
LINE
8
annotation
62
1
39
211
10
11.488482
20
203.776873
11
11.489149
21
203.777956
0
LINE
8
annotation
62
1
39
211
10
11.489149
20
203.777956
11
11.489808
21
203.779089
0
LINE
8
annotation
62
1
39
211
10
11.489808
20
203.779089
11
11.490465
21
203.780279
0
LINE
8
annotation
62
1
39
211
10
11.490465
20
203.780279
11
11.491124
21
203.781535
0
LINE
8
annotation
62
1
39
211
10
11.491124
20
203.781535
11
11.491124
21
203.781535
0
LINE
8
annotation
62
1
39
211
10
11.491124
20
203.781535
11
11.517956
21
203.839145
0
LINE
8
annotation
62
1
39
211
10
11.517956
20
203.839145
11
11.533630
21
203.898863
0
LINE
8
annotation
62
1
39
211
10
11.533630
20
203.898863
11
11.538532
21
203.959339
0
LINE
8
annotation
62
1
39
211
10
11.538532
20
203.959339
11
11.533045
21
204.019224
0
LINE
8
annotation
62
1
39
211
10
11.533045
20
204.019224
11
11.517553
21
204.077169
0
LINE
8
annotation
62
1
39
211
10
11.517553
20
204.077169
11
11.492441
21
204.131825
0
LINE
8
annotation
62
1
39
211
10
11.492441
20
204.131825
11
11.458092
21
204.181841
0
LINE
8
annotation
62
1
39
211
10
11.458092
20
204.181841
11
11.414891
21
204.225869
0
LINE
8
annotation
62
1
39
211
10
11.414891
20
204.225869
11
11.363222
21
204.262559
0
LINE
8
annotation
62
1
39
211
10
11.363222
20
204.262559
11
11.363222
21
204.262559
0
LINE
8
annotation
62
1
39
211
10
11.363222
20
204.262559
11
11.305451
21
204.289010
0
LINE
8
annotation
62
1
39
211
10
11.305451
20
204.289010
11
11.245642
21
204.304443
0
LINE
8
annotation
62
1
39
211
10
11.245642
20
204.304443
11
11.185131
21
204.309206
0
LINE
8
annotation
62
1
39
211
10
11.185131
20
204.309206
11
11.125254
21
204.303646
0
LINE
8
annotation
62
1
39
211
10
11.125254
20
204.303646
11
11.067350
21
204.288112
0
LINE
8
annotation
62
1
39
211
10
11.067350
20
204.288112
11
11.012755
21
204.262949
0
LINE
8
annotation
62
1
39
211
10
11.012755
20
204.262949
11
10.962807
21
204.228506
0
LINE
8
annotation
62
1
39
211
10
10.962807
20
204.228506
11
10.918842
21
204.185129
0
LINE
8
annotation
62
1
39
211
10
10.918842
20
204.185129
11
10.882197
21
204.133167
0
LINE
8
annotation
62
1
39
211
10
10.882197
20
204.133167
11
10.836022
21
204.044589
0
LINE
8
annotation
62
1
39
211
10
43.855129
20
228.125759
11
44.206782
21
228.125759
0
LINE
8
annotation
62
1
39
211
10
44.206782
20
228.125759
11
44.206782
21
228.125759
0
LINE
8
annotation
62
1
39
211
10
44.206782
20
228.125759
11
44.270028
21
228.131433
0
LINE
8
annotation
62
1
39
211
10
44.270028
20
228.131433
11
44.329540
21
228.147784
0
LINE
8
annotation
62
1
39
211
10
44.329540
20
228.147784
11
44.384329
21
228.173810
0
LINE
8
annotation
62
1
39
211
10
44.384329
20
228.173810
11
44.433404
21
228.208506
0
LINE
8
annotation
62
1
39
211
10
44.433404
20
228.208506
11
44.475776
21
228.250870
0
LINE
8
annotation
62
1
39
211
10
44.475776
20
228.250870
11
44.510455
21
228.299896
0
LINE
8
annotation
62
1
39
211
10
44.510455
20
228.299896
11
44.536451
21
228.354582
0
LINE
8
annotation
62
1
39
211
10
44.536451
20
228.354582
11
44.552775
21
228.413923
0
LINE
8
annotation
62
1
39
211
10
44.552775
20
228.413923
11
44.558436
21
228.476916
0
LINE
8
annotation
62
1
39
211
10
44.558436
20
228.476916
11
44.558436
21
228.652991
0
LINE
8
annotation
62
1
39
211
10
44.558436
20
228.652991
11
44.558436
21
228.652991
0
LINE
8
annotation
62
1
39
211
10
44.558436
20
228.652991
11
44.552775
21
228.715958
0
LINE
8
annotation
62
1
39
211
10
44.552775
20
228.715958
11
44.536451
21
228.775286
0
LINE
8
annotation
62
1
39
211
10
44.536451
20
228.775286
11
44.510455
21
228.829967
0
LINE
8
annotation
62
1
39
211
10
44.510455
20
228.829967
11
44.475776
21
228.878997
0
LINE
8
annotation
62
1
39
211
10
44.475776
20
228.878997
11
44.433404
21
228.921368
0
LINE
8
annotation
62
1
39
211
10
44.433404
20
228.921368
11
44.384329
21
228.956075
0
LINE
8
annotation
62
1
39
211
10
44.384329
20
228.956075
11
44.329540
21
228.982112
0
LINE
8
annotation
62
1
39
211
10
44.329540
20
228.982112
11
44.270028
21
228.998471
0
LINE
8
annotation
62
1
39
211
10
44.270028
20
228.998471
11
44.206782
21
229.004148
0
LINE
8
annotation
62
1
39
211
10
44.206782
20
229.004148
11
44.030707
21
229.004148
0
LINE
8
annotation
62
1
39
211
10
44.030707
20
229.004148
11
44.206782
21
229.004148
0
LINE
8
annotation
62
1
39
211
10
44.206782
20
229.004148
11
44.206782
21
229.004148
0
LINE
8
annotation
62
1
39
211
10
44.206782
20
229.004148
11
44.270028
21
229.009826
0
LINE
8
annotation
62
1
39
211
10
44.270028
20
229.009826
11
44.329540
21
229.026196
0
LINE
8
annotation
62
1
39
211
10
44.329540
20
229.026196
11
44.384329
21
229.052258
0
LINE
8
annotation
62
1
39
211
10
44.384329
20
229.052258
11
44.433404
21
229.087015
0
LINE
8
annotation
62
1
39
211
10
44.433404
20
229.087015
11
44.475776
21
229.129470
0
LINE
8
annotation
62
1
39
211
10
44.475776
20
229.129470
11
44.510455
21
229.178623
0
LINE
8
annotation
62
1
39
211
10
44.510455
20
229.178623
11
44.536451
21
229.233478
0
LINE
8
annotation
62
1
39
211
10
44.536451
20
229.233478
11
44.552775
21
229.293035
0
LINE
8
annotation
62
1
39
211
10
44.552775
20
229.293035
11
44.558436
21
229.356298
0
LINE
8
annotation
62
1
39
211
10
44.558436
20
229.356298
11
44.558436
21
229.356298
0
LINE
8
annotation
62
1
39
211
10
44.558436
20
229.356298
11
44.552775
21
229.419265
0
LINE
8
annotation
62
1
39
211
10
44.552775
20
229.419265
11
44.536451
21
229.478593
0
LINE
8
annotation
62
1
39
211
10
44.536451
20
229.478593
11
44.510455
21
229.533274
0
LINE
8
annotation
62
1
39
211
10
44.510455
20
229.533274
11
44.475776
21
229.582304
0
LINE
8
annotation
62
1
39
211
10
44.475776
20
229.582304
11
44.433404
21
229.624675
0
LINE
8
annotation
62
1
39
211
10
44.433404
20
229.624675
11
44.384329
21
229.659382
0
LINE
8
annotation
62
1
39
211
10
44.384329
20
229.659382
11
44.329540
21
229.685419
0
LINE
8
annotation
62
1
39
211
10
44.329540
20
229.685419
11
44.270028
21
229.701778
0
LINE
8
annotation
62
1
39
211
10
44.270028
20
229.701778
11
44.206782
21
229.707455
0
LINE
8
annotation
62
1
39
211
10
44.206782
20
229.707455
11
43.855129
21
229.707455
0
LINE
8
annotation
62
1
39
211
10
10.835129
20
228.125758
11
11.186783
21
228.125758
0
LINE
8
annotation
62
1
39
211
10
11.186783
20
228.125758
11
11.186783
21
228.125758
0
LINE
8
annotation
62
1
39
211
10
11.186783
20
228.125758
11
11.250029
21
228.131432
0
LINE
8
annotation
62
1
39
211
10
11.250029
20
228.131432
11
11.309541
21
228.147783
0
LINE
8
annotation
62
1
39
211
10
11.309541
20
228.147783
11
11.364330
21
228.173809
0
LINE
8
annotation
62
1
39
211
10
11.364330
20
228.173809
11
11.413405
21
228.208506
0
LINE
8
annotation
62
1
39
211
10
11.413405
20
228.208506
11
11.455777
21
228.250869
0
LINE
8
annotation
62
1
39
211
10
11.455777
20
228.250869
11
11.490456
21
228.299895
0
LINE
8
annotation
62
1
39
211
10
11.490456
20
228.299895
11
11.516452
21
228.354581
0
LINE
8
annotation
62
1
39
211
10
11.516452
20
228.354581
11
11.532776
21
228.413922
0
LINE
8
annotation
62
1
39
211
10
11.532776
20
228.413922
11
11.538437
21
228.476916
0
LINE
8
annotation
62
1
39
211
10
11.538437
20
228.476916
11
11.538437
21
228.652991
0
LINE
8
annotation
62
1
39
211
10
11.538437
20
228.652991
11
11.538437
21
228.652991
0
LINE
8
annotation
62
1
39
211
10
11.538437
20
228.652991
11
11.532776
21
228.715958
0
LINE
8
annotation
62
1
39
211
10
11.532776
20
228.715958
11
11.516452
21
228.775286
0
LINE
8
annotation
62
1
39
211
10
11.516452
20
228.775286
11
11.490456
21
228.829967
0
LINE
8
annotation
62
1
39
211
10
11.490456
20
228.829967
11
11.455777
21
228.878997
0
LINE
8
annotation
62
1
39
211
10
11.455777
20
228.878997
11
11.413405
21
228.921368
0
LINE
8
annotation
62
1
39
211
10
11.413405
20
228.921368
11
11.364330
21
228.956075
0
LINE
8
annotation
62
1
39
211
10
11.364330
20
228.956075
11
11.309541
21
228.982112
0
LINE
8
annotation
62
1
39
211
10
11.309541
20
228.982112
11
11.250029
21
228.998471
0
LINE
8
annotation
62
1
39
211
10
11.250029
20
228.998471
11
11.186783
21
229.004148
0
LINE
8
annotation
62
1
39
211
10
11.186783
20
229.004148
11
11.010708
21
229.004148
0
LINE
8
annotation
62
1
39
211
10
11.010708
20
229.004148
11
11.186783
21
229.004148
0
LINE
8
annotation
62
1
39
211
10
11.186783
20
229.004148
11
11.186783
21
229.004148
0
LINE
8
annotation
62
1
39
211
10
11.186783
20
229.004148
11
11.250029
21
229.009826
0
LINE
8
annotation
62
1
39
211
10
11.250029
20
229.009826
11
11.309541
21
229.026196
0
LINE
8
annotation
62
1
39
211
10
11.309541
20
229.026196
11
11.364330
21
229.052258
0
LINE
8
annotation
62
1
39
211
10
11.364330
20
229.052258
11
11.413405
21
229.087015
0
LINE
8
annotation
62
1
39
211
10
11.413405
20
229.087015
11
11.455777
21
229.129470
0
LINE
8
annotation
62
1
39
211
10
11.455777
20
229.129470
11
11.490456
21
229.178624
0
LINE
8
annotation
62
1
39
211
10
11.490456
20
229.178624
11
11.516452
21
229.233478
0
LINE
8
annotation
62
1
39
211
10
11.516452
20
229.233478
11
11.532776
21
229.293036
0
LINE
8
annotation
62
1
39
211
10
11.532776
20
229.293036
11
11.538437
21
229.356299
0
LINE
8
annotation
62
1
39
211
10
11.538437
20
229.356299
11
11.538437
21
229.356299
0
LINE
8
annotation
62
1
39
211
10
11.538437
20
229.356299
11
11.532776
21
229.419266
0
LINE
8
annotation
62
1
39
211
10
11.532776
20
229.419266
11
11.516452
21
229.478593
0
LINE
8
annotation
62
1
39
211
10
11.516452
20
229.478593
11
11.490456
21
229.533275
0
LINE
8
annotation
62
1
39
211
10
11.490456
20
229.533275
11
11.455777
21
229.582305
0
LINE
8
annotation
62
1
39
211
10
11.455777
20
229.582305
11
11.413405
21
229.624676
0
LINE
8
annotation
62
1
39
211
10
11.413405
20
229.624676
11
11.364330
21
229.659383
0
LINE
8
annotation
62
1
39
211
10
11.364330
20
229.659383
11
11.309541
21
229.685420
0
LINE
8
annotation
62
1
39
211
10
11.309541
20
229.685420
11
11.250029
21
229.701779
0
LINE
8
annotation
62
1
39
211
10
11.250029
20
229.701779
11
11.186783
21
229.707456
0
LINE
8
annotation
62
1
39
211
10
11.186783
20
229.707456
11
10.835129
21
229.707456
0
LINE
8
annotation
62
1
39
211
10
23.343498
20
167.885718
11
22.886023
21
167.224023
0
LINE
8
annotation
62
1
39
211
10
22.886023
20
167.224023
11
22.428462
21
167.885718
0
LINE
8
annotation
62
1
39
211
10
22.886023
20
167.277271
11
22.886023
21
166.513895
0
LINE
8
annotation
62
1
39
211
10
24.608114
20
167.199807
11
23.858071
21
167.199807
0
LINE
8
annotation
62
1
39
211
10
25.122386
20
166.513981
11
25.426997
21
166.513981
0
LINE
8
annotation
62
1
39
211
10
25.426997
20
166.513981
11
25.426997
21
166.513981
0
LINE
8
annotation
62
1
39
211
10
25.426997
20
166.513981
11
25.481782
21
166.518896
0
LINE
8
annotation
62
1
39
211
10
25.481782
20
166.518896
11
25.533333
21
166.533060
0
LINE
8
annotation
62
1
39
211
10
25.533333
20
166.533060
11
25.580792
21
166.555604
0
LINE
8
annotation
62
1
39
211
10
25.580792
20
166.555604
11
25.623302
21
166.585659
0
LINE
8
annotation
62
1
39
211
10
25.623302
20
166.585659
11
25.660005
21
166.622355
0
LINE
8
annotation
62
1
39
211
10
25.660005
20
166.622355
11
25.690045
21
166.664823
0
LINE
8
annotation
62
1
39
211
10
25.690045
20
166.664823
11
25.712564
21
166.712193
0
LINE
8
annotation
62
1
39
211
10
25.712564
20
166.712193
11
25.726704
21
166.763596
0
LINE
8
annotation
62
1
39
211
10
25.726704
20
166.763596
11
25.731607
21
166.818162
0
LINE
8
annotation
62
1
39
211
10
25.731607
20
166.818162
11
25.731607
21
166.970682
0
LINE
8
annotation
62
1
39
211
10
25.731607
20
166.970682
11
25.731607
21
166.970682
0
LINE
8
annotation
62
1
39
211
10
25.731607
20
166.970682
11
25.726704
21
167.025226
0
LINE
8
annotation
62
1
39
211
10
25.726704
20
167.025226
11
25.712564
21
167.076617
0
LINE
8
annotation
62
1
39
211
10
25.712564
20
167.076617
11
25.690045
21
167.123983
0
LINE
8
annotation
62
1
39
211
10
25.690045
20
167.123983
11
25.660005
21
167.166454
0
LINE
8
annotation
62
1
39
211
10
25.660005
20
167.166454
11
25.623302
21
167.203157
0
LINE
8
annotation
62
1
39
211
10
25.623302
20
167.203157
11
25.580792
21
167.233221
0
LINE
8
annotation
62
1
39
211
10
25.580792
20
167.233221
11
25.533333
21
167.255774
0
LINE
8
annotation
62
1
39
211
10
25.533333
20
167.255774
11
25.481782
21
167.269945
0
LINE
8
annotation
62
1
39
211
10
25.481782
20
167.269945
11
25.426997
21
167.274863
0
LINE
8
annotation
62
1
39
211
10
25.426997
20
167.274863
11
25.274476
21
167.274863
0
LINE
8
annotation
62
1
39
211
10
25.274476
20
167.274863
11
25.426997
21
167.274863
0
LINE
8
annotation
62
1
39
211
10
25.426997
20
167.274863
11
25.426997
21
167.274863
0
LINE
8
annotation
62
1
39
211
10
25.426997
20
167.274863
11
25.481782
21
167.279781
0
LINE
8
annotation
62
1
39
211
10
25.481782
20
167.279781
11
25.533333
21
167.293961
0
LINE
8
annotation
62
1
39
211
10
25.533333
20
167.293961
11
25.580792
21
167.316537
0
LINE
8
annotation
62
1
39
211
10
25.580792
20
167.316537
11
25.623302
21
167.346644
0
LINE
8
annotation
62
1
39
211
10
25.623302
20
167.346644
11
25.660005
21
167.383419
0
LINE
8
annotation
62
1
39
211
10
25.660005
20
167.383419
11
25.690045
21
167.425997
0
LINE
8
annotation
62
1
39
211
10
25.690045
20
167.425997
11
25.712564
21
167.473514
0
LINE
8
annotation
62
1
39
211
10
25.712564
20
167.473514
11
25.726704
21
167.525104
0
LINE
8
annotation
62
1
39
211
10
25.726704
20
167.525104
11
25.731607
21
167.579904
0
LINE
8
annotation
62
1
39
211
10
25.731607
20
167.579904
11
25.731607
21
167.579904
0
LINE
8
annotation
62
1
39
211
10
25.731607
20
167.579904
11
25.726704
21
167.634447
0
LINE
8
annotation
62
1
39
211
10
25.726704
20
167.634447
11
25.712564
21
167.685838
0
LINE
8
annotation
62
1
39
211
10
25.712564
20
167.685838
11
25.690045
21
167.733204
0
LINE
8
annotation
62
1
39
211
10
25.690045
20
167.733204
11
25.660005
21
167.775675
0
LINE
8
annotation
62
1
39
211
10
25.660005
20
167.775675
11
25.623302
21
167.812378
0
LINE
8
annotation
62
1
39
211
10
25.623302
20
167.812378
11
25.580792
21
167.842442
0
LINE
8
annotation
62
1
39
211
10
25.580792
20
167.842442
11
25.533333
21
167.864995
0
LINE
8
annotation
62
1
39
211
10
25.533333
20
167.864995
11
25.481782
21
167.879167
0
LINE
8
annotation
62
1
39
211
10
25.481782
20
167.879167
11
25.426997
21
167.884084
0
LINE
8
annotation
62
1
39
211
10
25.426997
20
167.884084
11
25.122386
21
167.884084
0
LINE
8
annotation
62
1
39
211
10
26.996180
20
167.199807
11
26.246138
21
167.199807
0
LINE
8
annotation
62
1
39
211
10
27.815451
20
166.513938
11
27.815451
21
167.885675
0
LINE
8
annotation
62
1
39
211
10
27.815451
20
167.885675
11
27.510496
21
167.580635
0
LINE
8
boundary
62
5
39
2
10
47.942500
20
6.667500
11
79.692500
21
6.667500
0
LINE
8
boundary
62
5
39
2
10
79.692500
20
6.667500
11
86.042500
21
6.667500
0
LINE
8
boundary
62
5
39
2
10
86.042500
20
6.667500
11
86.042500
21
70.167500
0
LINE
8
boundary
62
5
39
2
10
86.042500
20
70.167500
11
86.042500
21
82.867500
0
LINE
8
boundary
62
5
39
2
10
86.042500
20
82.867500
11
81.338801
21
82.867500
0
LINE
8
boundary
62
5
39
2
10
81.338801
20
82.867500
11
80.962505
21
72.515984
0
LINE
8
boundary
62
5
39
2
10
80.962505
20
72.515984
11
83.375503
21
72.290940
0
LINE
8
boundary
62
5
39
2
10
83.375503
20
72.290940
11
83.375503
21
68.044060
0
LINE
8
boundary
62
5
39
2
10
83.375503
20
68.044060
11
81.047849
21
68.044060
0
LINE
8
boundary
62
5
39
2
10
81.047849
20
68.044060
11
80.962505
21
47.115984
0
LINE
8
boundary
62
5
39
2
10
80.962505
20
47.115984
11
83.375503
21
46.890940
0
LINE
8
boundary
62
5
39
2
10
83.375503
20
46.890940
11
83.375503
21
42.644060
0
LINE
8
boundary
62
5
39
2
10
83.375503
20
42.644060
11
81.047849
21
42.644060
0
LINE
8
boundary
62
5
39
2
10
81.047849
20
42.644060
11
80.962505
21
21.715984
0
LINE
8
boundary
62
5
39
2
10
80.962505
20
21.715984
11
83.375503
21
21.490940
0
LINE
8
boundary
62
5
39
2
10
83.375503
20
21.490940
11
83.375503
21
17.244060
0
LINE
8
boundary
62
5
39
2
10
83.375503
20
17.244060
11
81.047849
21
17.244060
0
LINE
8
boundary
62
5
39
2
10
81.047849
20
17.244060
11
80.962505
21
11.747502
0
LINE
8
boundary
62
5
39
2
10
80.962505
20
11.747502
11
55.350839
21
11.747501
0
LINE
8
boundary
62
5
39
2
10
55.350839
20
11.747501
11
53.022508
21
11.747502
0
LINE
8
boundary
62
5
39
2
10
53.022508
20
11.747502
11
53.022508
21
76.940837
0
LINE
8
boundary
62
5
39
2
10
53.022508
20
76.940837
11
53.022507
21
82.867500
0
LINE
8
boundary
62
5
39
2
10
53.022507
20
82.867500
11
48.883242
21
82.867500
0
LINE
8
boundary
62
5
39
2
10
48.883242
20
82.867500
11
47.942500
21
82.867500
0
LINE
8
boundary
62
5
39
2
10
47.942500
20
82.867500
11
47.942500
21
72.515984
0
LINE
8
boundary
62
5
39
2
10
47.942500
20
72.515984
11
50.355504
21
72.290940
0
LINE
8
boundary
62
5
39
2
10
50.355504
20
72.290940
11
50.355504
21
68.044060
0
LINE
8
boundary
62
5
39
2
10
50.355504
20
68.044060
11
48.027844
21
68.044060
0
LINE
8
boundary
62
5
39
2
10
48.027844
20
68.044060
11
47.942500
21
47.115984
0
LINE
8
boundary
62
5
39
2
10
47.942500
20
47.115984
11
50.355504
21
46.890940
0
LINE
8
boundary
62
5
39
2
10
50.355504
20
46.890940
11
50.355504
21
42.644060
0
LINE
8
boundary
62
5
39
2
10
50.355504
20
42.644060
11
48.027844
21
42.644060
0
LINE
8
boundary
62
5
39
2
10
48.027844
20
42.644060
11
47.942500
21
21.715984
0
LINE
8
boundary
62
5
39
2
10
47.942500
20
21.715984
11
50.355504
21
21.490940
0
LINE
8
boundary
62
5
39
2
10
50.355504
20
21.490940
11
50.355504
21
17.244060
0
LINE
8
boundary
62
5
39
2
10
50.355504
20
17.244060
11
48.027844
21
17.244060
0
LINE
8
boundary
62
5
39
2
10
48.027844
20
17.244060
11
47.942500
21
6.667500
0
LINE
8
annotation
62
1
39
211
10
85.872985
20
18.496679
11
85.872985
21
20.238321
0
LINE
8
annotation
62
1
39
211
10
85.872985
20
20.238321
11
85.485796
21
19.851022
0
LINE
8
annotation
62
1
39
211
10
52.852992
20
16.696325
11
52.852992
21
18.437971
0
LINE
8
annotation
62
1
39
211
10
52.852992
20
18.437971
11
52.465802
21
18.050672
0
LINE
8
annotation
62
1
39
211
10
85.833292
20
43.975745
11
85.130028
21
43.975745
0
LINE
8
annotation
62
1
39
211
10
85.130028
20
43.975745
11
85.779867
21
45.021901
0
LINE
8
annotation
62
1
39
211
10
85.779867
20
45.021901
11
85.779867
21
45.021901
0
LINE
8
annotation
62
1
39
211
10
85.779867
20
45.021901
11
85.780644
21
45.022863
0
LINE
8
annotation
62
1
39
211
10
85.780644
20
45.022863
11
85.781389
21
45.023832
0
LINE
8
annotation
62
1
39
211
10
85.781389
20
45.023832
11
85.782107
21
45.024818
0
LINE
8
annotation
62
1
39
211
10
85.782107
20
45.024818
11
85.782803
21
45.025828
0
LINE
8
annotation
62
1
39
211
10
85.782803
20
45.025828
11
85.783481
21
45.026871
0
LINE
8
annotation
62
1
39
211
10
85.783481
20
45.026871
11
85.784148
21
45.027955
0
LINE
8
annotation
62
1
39
211
10
85.784148
20
45.027955
11
85.784807
21
45.029088
0
LINE
8
annotation
62
1
39
211
10
85.784807
20
45.029088
11
85.785464
21
45.030278
0
LINE
8
annotation
62
1
39
211
10
85.785464
20
45.030278
11
85.786123
21
45.031534
0
LINE
8
annotation
62
1
39
211
10
85.786123
20
45.031534
11
85.786123
21
45.031534
0
LINE
8
annotation
62
1
39
211
10
85.786123
20
45.031534
11
85.812955
21
45.089144
0
LINE
8
annotation
62
1
39
211
10
85.812955
20
45.089144
11
85.828629
21
45.148861
0
LINE
8
annotation
62
1
39
211
10
85.828629
20
45.148861
11
85.833531
21
45.209338
0
LINE
8
annotation
62
1
39
211
10
85.833531
20
45.209338
11
85.828044
21
45.269223
0
LINE
8
annotation
62
1
39
211
10
85.828044
20
45.269223
11
85.812552
21
45.327168
0
LINE
8
annotation
62
1
39
211
10
85.812552
20
45.327168
11
85.787440
21
45.381823
0
LINE
8
annotation
62
1
39
211
10
85.787440
20
45.381823
11
85.753091
21
45.431839
0
LINE
8
annotation
62
1
39
211
10
85.753091
20
45.431839
11
85.709890
21
45.475867
0
LINE
8
annotation
62
1
39
211
10
85.709890
20
45.475867
11
85.658221
21
45.512557
0
LINE
8
annotation
62
1
39
211
10
85.658221
20
45.512557
11
85.658221
21
45.512557
0
LINE
8
annotation
62
1
39
211
10
85.658221
20
45.512557
11
85.600451
21
45.539008
0
LINE
8
annotation
62
1
39
211
10
85.600451
20
45.539008
11
85.540641
21
45.554441
0
LINE
8
annotation
62
1
39
211
10
85.540641
20
45.554441
11
85.480130
21
45.559204
0
LINE
8
annotation
62
1
39
211
10
85.480130
20
45.559204
11
85.420254
21
45.553645
0
LINE
8
annotation
62
1
39
211
10
85.420254
20
45.553645
11
85.362350
21
45.538110
0
LINE
8
annotation
62
1
39
211
10
85.362350
20
45.538110
11
85.307755
21
45.512947
0
LINE
8
annotation
62
1
39
211
10
85.307755
20
45.512947
11
85.257807
21
45.478504
0
LINE
8
annotation
62
1
39
211
10
85.257807
20
45.478504
11
85.213842
21
45.435128
0
LINE
8
annotation
62
1
39
211
10
85.213842
20
45.435128
11
85.177197
21
45.383166
0
LINE
8
annotation
62
1
39
211
10
85.177197
20
45.383166
11
85.131021
21
45.294587
0
LINE
8
annotation
62
1
39
211
10
52.813299
20
42.175391
11
52.110034
21
42.175391
0
LINE
8
annotation
62
1
39
211
10
52.110034
20
42.175391
11
52.759874
21
43.221550
0
LINE
8
annotation
62
1
39
211
10
52.759874
20
43.221550
11
52.759874
21
43.221550
0
LINE
8
annotation
62
1
39
211
10
52.759874
20
43.221550
11
52.760651
21
43.222511
0
LINE
8
annotation
62
1
39
211
10
52.760651
20
43.222511
11
52.761396
21
43.223481
0
LINE
8
annotation
62
1
39
211
10
52.761396
20
43.223481
11
52.762114
21
43.224467
0
LINE
8
annotation
62
1
39
211
10
52.762114
20
43.224467
11
52.762810
21
43.225477
0
LINE
8
annotation
62
1
39
211
10
52.762810
20
43.225477
11
52.763488
21
43.226520
0
LINE
8
annotation
62
1
39
211
10
52.763488
20
43.226520
11
52.764155
21
43.227604
0
LINE
8
annotation
62
1
39
211
10
52.764155
20
43.227604
11
52.764814
21
43.228737
0
LINE
8
annotation
62
1
39
211
10
52.764814
20
43.228737
11
52.765471
21
43.229927
0
LINE
8
annotation
62
1
39
211
10
52.765471
20
43.229927
11
52.766130
21
43.231182
0
LINE
8
annotation
62
1
39
211
10
52.766130
20
43.231182
11
52.766130
21
43.231182
0
LINE
8
annotation
62
1
39
211
10
52.766130
20
43.231182
11
52.792962
21
43.288792
0
LINE
8
annotation
62
1
39
211
10
52.792962
20
43.288792
11
52.808636
21
43.348510
0
LINE
8
annotation
62
1
39
211
10
52.808636
20
43.348510
11
52.813538
21
43.408987
0
LINE
8
annotation
62
1
39
211
10
52.813538
20
43.408987
11
52.808051
21
43.468872
0
LINE
8
annotation
62
1
39
211
10
52.808051
20
43.468872
11
52.792559
21
43.526817
0
LINE
8
annotation
62
1
39
211
10
52.792559
20
43.526817
11
52.767447
21
43.581473
0
LINE
8
annotation
62
1
39
211
10
52.767447
20
43.581473
11
52.733098
21
43.631489
0
LINE
8
annotation
62
1
39
211
10
52.733098
20
43.631489
11
52.689897
21
43.675517
0
LINE
8
annotation
62
1
39
211
10
52.689897
20
43.675517
11
52.638227
21
43.712207
0
LINE
8
annotation
62
1
39
211
10
52.638227
20
43.712207
11
52.638227
21
43.712207
0
LINE
8
annotation
62
1
39
211
10
52.638227
20
43.712207
11
52.580457
21
43.738658
0
LINE
8
annotation
62
1
39
211
10
52.580457
20
43.738658
11
52.520648
21
43.754091
0
LINE
8
annotation
62
1
39
211
10
52.520648
20
43.754091
11
52.460136
21
43.758854
0
LINE
8
annotation
62
1
39
211
10
52.460136
20
43.758854
11
52.400260
21
43.753294
0
LINE
8
annotation
62
1
39
211
10
52.400260
20
43.753294
11
52.342356
21
43.737760
0
LINE
8
annotation
62
1
39
211
10
52.342356
20
43.737760
11
52.287761
21
43.712597
0
LINE
8
annotation
62
1
39
211
10
52.287761
20
43.712597
11
52.237812
21
43.678154
0
LINE
8
annotation
62
1
39
211
10
52.237812
20
43.678154
11
52.193847
21
43.634777
0
LINE
8
annotation
62
1
39
211
10
52.193847
20
43.634777
11
52.157203
21
43.582815
0
LINE
8
annotation
62
1
39
211
10
52.157203
20
43.582815
11
52.111027
21
43.494237
0
LINE
8
annotation
62
1
39
211
10
85.130129
20
67.575406
11
85.481783
21
67.575406
0
LINE
8
annotation
62
1
39
211
10
85.481783
20
67.575406
11
85.481783
21
67.575406
0
LINE
8
annotation
62
1
39
211
10
85.481783
20
67.575406
11
85.545028
21
67.581080
0
LINE
8
annotation
62
1
39
211
10
85.545028
20
67.581080
11
85.604540
21
67.597432
0
LINE
8
annotation
62
1
39
211
10
85.604540
20
67.597432
11
85.659329
21
67.623457
0
LINE
8
annotation
62
1
39
211
10
85.659329
20
67.623457
11
85.708404
21
67.658154
0
LINE
8
annotation
62
1
39
211
10
85.708404
20
67.658154
11
85.750776
21
67.700517
0
LINE
8
annotation
62
1
39
211
10
85.750776
20
67.700517
11
85.785455
21
67.749543
0
LINE
8
annotation
62
1
39
211
10
85.785455
20
67.749543
11
85.811451
21
67.804229
0
LINE
8
annotation
62
1
39
211
10
85.811451
20
67.804229
11
85.827775
21
67.863570
0
LINE
8
annotation
62
1
39
211
10
85.827775
20
67.863570
11
85.833436
21
67.926563
0
LINE
8
annotation
62
1
39
211
10
85.833436
20
67.926563
11
85.833436
21
68.102638
0
LINE
8
annotation
62
1
39
211
10
85.833436
20
68.102638
11
85.833436
21
68.102638
0
LINE
8
annotation
62
1
39
211
10
85.833436
20
68.102638
11
85.827775
21
68.165606
0
LINE
8
annotation
62
1
39
211
10
85.827775
20
68.165606
11
85.811451
21
68.224933
0
LINE
8
annotation
62
1
39
211
10
85.811451
20
68.224933
11
85.785455
21
68.279615
0
LINE
8
annotation
62
1
39
211
10
85.785455
20
68.279615
11
85.750776
21
68.328644
0
LINE
8
annotation
62
1
39
211
10
85.750776
20
68.328644
11
85.708404
21
68.371015
0
LINE
8
annotation
62
1
39
211
10
85.708404
20
68.371015
11
85.659329
21
68.405722
0
LINE
8
annotation
62
1
39
211
10
85.659329
20
68.405722
11
85.604540
21
68.431759
0
LINE
8
annotation
62
1
39
211
10
85.604540
20
68.431759
11
85.545028
21
68.448119
0
LINE
8
annotation
62
1
39
211
10
85.545028
20
68.448119
11
85.481783
21
68.453795
0
LINE
8
annotation
62
1
39
211
10
85.481783
20
68.453795
11
85.305707
21
68.453795
0
LINE
8
annotation
62
1
39
211
10
85.305707
20
68.453795
11
85.481783
21
68.453795
0
LINE
8
annotation
62
1
39
211
10
85.481783
20
68.453795
11
85.481783
21
68.453795
0
LINE
8
annotation
62
1
39
211
10
85.481783
20
68.453795
11
85.545028
21
68.459474
0
LINE
8
annotation
62
1
39
211
10
85.545028
20
68.459474
11
85.604540
21
68.475843
0
LINE
8
annotation
62
1
39
211
10
85.604540
20
68.475843
11
85.659329
21
68.501905
0
LINE
8
annotation
62
1
39
211
10
85.659329
20
68.501905
11
85.708404
21
68.536662
0
LINE
8
annotation
62
1
39
211
10
85.708404
20
68.536662
11
85.750776
21
68.579117
0
LINE
8
annotation
62
1
39
211
10
85.750776
20
68.579117
11
85.785455
21
68.628270
0
LINE
8
annotation
62
1
39
211
10
85.785455
20
68.628270
11
85.811451
21
68.683125
0
LINE
8
annotation
62
1
39
211
10
85.811451
20
68.683125
11
85.827775
21
68.742683
0
LINE
8
annotation
62
1
39
211
10
85.827775
20
68.742683
11
85.833436
21
68.805945
0
LINE
8
annotation
62
1
39
211
10
85.833436
20
68.805945
11
85.833436
21
68.805945
0
LINE
8
annotation
62
1
39
211
10
85.833436
20
68.805945
11
85.827775
21
68.868913
0
LINE
8
annotation
62
1
39
211
10
85.827775
20
68.868913
11
85.811451
21
68.928240
0
LINE
8
annotation
62
1
39
211
10
85.811451
20
68.928240
11
85.785455
21
68.982922
0
LINE
8
annotation
62
1
39
211
10
85.785455
20
68.982922
11
85.750776
21
69.031951
0
LINE
8
annotation
62
1
39
211
10
85.750776
20
69.031951
11
85.708404
21
69.074322
0
LINE
8
annotation
62
1
39
211
10
85.708404
20
69.074322
11
85.659329
21
69.109029
0
LINE
8
annotation
62
1
39
211
10
85.659329
20
69.109029
11
85.604540
21
69.135066
0
LINE
8
annotation
62
1
39
211
10
85.604540
20
69.135066
11
85.545028
21
69.151426
0
LINE
8
annotation
62
1
39
211
10
85.545028
20
69.151426
11
85.481783
21
69.157102
0
LINE
8
annotation
62
1
39
211
10
85.481783
20
69.157102
11
85.130129
21
69.157102
0
LINE
8
annotation
62
1
39
211
10
52.110134
20
67.575405
11
52.461789
21
67.575405
0
LINE
8
annotation
62
1
39
211
10
52.461789
20
67.575405
11
52.461789
21
67.575405
0
LINE
8
annotation
62
1
39
211
10
52.461789
20
67.575405
11
52.525034
21
67.581078
0
LINE
8
annotation
62
1
39
211
10
52.525034
20
67.581078
11
52.584547
21
67.597430
0
LINE
8
annotation
62
1
39
211
10
52.584547
20
67.597430
11
52.639335
21
67.623456
0
LINE
8
annotation
62
1
39
211
10
52.639335
20
67.623456
11
52.688411
21
67.658152
0
LINE
8
annotation
62
1
39
211
10
52.688411
20
67.658152
11
52.730783
21
67.700515
0
LINE
8
annotation
62
1
39
211
10
52.730783
20
67.700515
11
52.765462
21
67.749542
0
LINE
8
annotation
62
1
39
211
10
52.765462
20
67.749542
11
52.791458
21
67.804227
0
LINE
8
annotation
62
1
39
211
10
52.791458
20
67.804227
11
52.807782
21
67.863569
0
LINE
8
annotation
62
1
39
211
10
52.807782
20
67.863569
11
52.813443
21
67.926562
0
LINE
8
annotation
62
1
39
211
10
52.813443
20
67.926562
11
52.813443
21
68.102638
0
LINE
8
annotation
62
1
39
211
10
52.813443
20
68.102638
11
52.813443
21
68.102638
0
LINE
8
annotation
62
1
39
211
10
52.813443
20
68.102638
11
52.807782
21
68.165605
0
LINE
8
annotation
62
1
39
211
10
52.807782
20
68.165605
11
52.791458
21
68.224933
0
LINE
8
annotation
62
1
39
211
10
52.791458
20
68.224933
11
52.765462
21
68.279614
0
LINE
8
annotation
62
1
39
211
10
52.765462
20
68.279614
11
52.730783
21
68.328644
0
LINE
8
annotation
62
1
39
211
10
52.730783
20
68.328644
11
52.688411
21
68.371015
0
LINE
8
annotation
62
1
39
211
10
52.688411
20
68.371015
11
52.639335
21
68.405722
0
LINE
8
annotation
62
1
39
211
10
52.639335
20
68.405722
11
52.584547
21
68.431759
0
LINE
8
annotation
62
1
39
211
10
52.584547
20
68.431759
11
52.525034
21
68.448119
0
LINE
8
annotation
62
1
39
211
10
52.525034
20
68.448119
11
52.461789
21
68.453796
0
LINE
8
annotation
62
1
39
211
10
52.461789
20
68.453796
11
52.285713
21
68.453796
0
LINE
8
annotation
62
1
39
211
10
52.285713
20
68.453796
11
52.461789
21
68.453796
0
LINE
8
annotation
62
1
39
211
10
52.461789
20
68.453796
11
52.461789
21
68.453796
0
LINE
8
annotation
62
1
39
211
10
52.461789
20
68.453796
11
52.525034
21
68.459474
0
LINE
8
annotation
62
1
39
211
10
52.525034
20
68.459474
11
52.584547
21
68.475843
0
LINE
8
annotation
62
1
39
211
10
52.584547
20
68.475843
11
52.639335
21
68.501905
0
LINE
8
annotation
62
1
39
211
10
52.639335
20
68.501905
11
52.688411
21
68.536663
0
LINE
8
annotation
62
1
39
211
10
52.688411
20
68.536663
11
52.730783
21
68.579117
0
LINE
8
annotation
62
1
39
211
10
52.730783
20
68.579117
11
52.765462
21
68.628271
0
LINE
8
annotation
62
1
39
211
10
52.765462
20
68.628271
11
52.791458
21
68.683126
0
LINE
8
annotation
62
1
39
211
10
52.791458
20
68.683126
11
52.807782
21
68.742684
0
LINE
8
annotation
62
1
39
211
10
52.807782
20
68.742684
11
52.813443
21
68.805946
0
LINE
8
annotation
62
1
39
211
10
52.813443
20
68.805946
11
52.813443
21
68.805946
0
LINE
8
annotation
62
1
39
211
10
52.813443
20
68.805946
11
52.807782
21
68.868914
0
LINE
8
annotation
62
1
39
211
10
52.807782
20
68.868914
11
52.791458
21
68.928241
0
LINE
8
annotation
62
1
39
211
10
52.791458
20
68.928241
11
52.765462
21
68.982923
0
LINE
8
annotation
62
1
39
211
10
52.765462
20
68.982923
11
52.730783
21
69.031953
0
LINE
8
annotation
62
1
39
211
10
52.730783
20
69.031953
11
52.688411
21
69.074324
0
LINE
8
annotation
62
1
39
211
10
52.688411
20
69.074324
11
52.639335
21
69.109031
0
LINE
8
annotation
62
1
39
211
10
52.639335
20
69.109031
11
52.584547
21
69.135068
0
LINE
8
annotation
62
1
39
211
10
52.584547
20
69.135068
11
52.525034
21
69.151427
0
LINE
8
annotation
62
1
39
211
10
52.525034
20
69.151427
11
52.461789
21
69.157104
0
LINE
8
annotation
62
1
39
211
10
52.461789
20
69.157104
11
52.110134
21
69.157104
0
LINE
8
annotation
62
1
39
211
10
64.618394
20
9.135718
11
64.160919
21
8.474022
0
LINE
8
annotation
62
1
39
211
10
64.160919
20
8.474022
11
63.703358
21
9.135718
0
LINE
8
annotation
62
1
39
211
10
64.160919
20
8.527271
11
64.160919
21
7.763895
0
LINE
8
annotation
62
1
39
211
10
65.883010
20
8.449806
11
65.132968
21
8.449806
0
LINE
8
annotation
62
1
39
211
10
66.702281
20
7.763938
11
66.702281
21
9.135675
0
LINE
8
annotation
62
1
39
211
10
66.702281
20
9.135675
11
66.397326
21
8.830634
0
LINE
8
annotation
62
1
39
211
10
67.966810
20
8.449806
11
67.216768
21
8.449806
0
LINE
8
annotation
62
1
39
211
10
69.090408
20
7.763926
11
68.481186
21
7.763926
0
LINE
8
annotation
62
1
39
211
10
68.481186
20
7.763926
11
69.044127
21
8.670188
0
LINE
8
annotation
62
1
39
211
10
69.044127
20
8.670188
11
69.044127
21
8.670188
0
LINE
8
annotation
62
1
39
211
10
69.044127
20
8.670188
11
69.044800
21
8.671021
0
LINE
8
annotation
62
1
39
211
10
69.044800
20
8.671021
11
69.045445
21
8.671861
0
LINE
8
annotation
62
1
39
211
10
69.045445
20
8.671861
11
69.046067
21
8.672715
0
LINE
8
annotation
62
1
39
211
10
69.046067
20
8.672715
11
69.046670
21
8.673590
0
LINE
8
annotation
62
1
39
211
10
69.046670
20
8.673590
11
69.047258
21
8.674494
0
LINE
8
annotation
62
1
39
211
10
69.047258
20
8.674494
11
69.047835
21
8.675432
0
LINE
8
annotation
62
1
39
211
10
69.047835
20
8.675432
11
69.048406
21
8.676414
0
LINE
8
annotation
62
1
39
211
10
69.048406
20
8.676414
11
69.048975
21
8.677445
0
LINE
8
annotation
62
1
39
211
10
69.048975
20
8.677445
11
69.049546
21
8.678533
0
LINE
8
annotation
62
1
39
211
10
69.049546
20
8.678533
11
69.049546
21
8.678533
0
LINE
8
annotation
62
1
39
211
10
69.049546
20
8.678533
11
69.072790
21
8.728439
0
LINE
8
annotation
62
1
39
211
10
69.072790
20
8.728439
11
69.086369
21
8.780171
0
LINE
8
annotation
62
1
39
211
10
69.086369
20
8.780171
11
69.090615
21
8.832560
0
LINE
8
annotation
62
1
39
211
10
69.090615
20
8.832560
11
69.085861
21
8.884437
0
LINE
8
annotation
62
1
39
211
10
69.085861
20
8.884437
11
69.072441
21
8.934634
0
LINE
8
annotation
62
1
39
211
10
69.072441
20
8.934634
11
69.050687
21
8.981980
0
LINE
8
annotation
62
1
39
211
10
69.050687
20
8.981980
11
69.020931
21
9.025308
0
LINE
8
annotation
62
1
39
211
10
69.020931
20
9.025308
11
68.983507
21
9.063449
0
LINE
8
annotation
62
1
39
211
10
68.983507
20
9.063449
11
68.938748
21
9.095232
0
LINE
8
annotation
62
1
39
211
10
68.938748
20
9.095232
11
68.938748
21
9.095232
0
LINE
8
annotation
62
1
39
211
10
68.938748
20
9.095232
11
68.888703
21
9.118146
0
LINE
8
annotation
62
1
39
211
10
68.888703
20
9.118146
11
68.836891
21
9.131515
0
LINE
8
annotation
62
1
39
211
10
68.836891
20
9.131515
11
68.784472
21
9.135641
0
LINE
8
annotation
62
1
39
211
10
68.784472
20
9.135641
11
68.732602
21
9.130825
0
LINE
8
annotation
62
1
39
211
10
68.732602
20
9.130825
11
68.682441
21
9.117368
0
LINE
8
annotation
62
1
39
211
10
68.682441
20
9.117368
11
68.635147
21
9.095570
0
LINE
8
annotation
62
1
39
211
10
68.635147
20
9.095570
11
68.591878
21
9.065733
0
LINE
8
annotation
62
1
39
211
10
68.591878
20
9.065733
11
68.553792
21
9.028157
0
LINE
8
annotation
62
1
39
211
10
68.553792
20
9.028157
11
68.522048
21
8.983143
0
LINE
8
annotation
62
1
39
211
10
68.522048
20
8.983143
11
68.482047
21
8.906410
0
LINE
8
boundary
62
5
39
2
10
47.942500
20
86.042500
11
66.992500
21
86.042500
0
LINE
8
boundary
62
5
39
2
10
66.992500
20
86.042500
11
86.042500
21
86.042500
0
LINE
8
boundary
62
5
39
2
10
86.042500
20
86.042500
11
86.042500
21
124.142501
0
LINE
8
boundary
62
5
39
2
10
86.042500
20
124.142501
11
86.042500
21
162.242500
0
LINE
8
boundary
62
5
39
2
10
86.042500
20
162.242500
11
83.220281
21
162.242500
0
LINE
8
boundary
62
5
39
2
10
83.220281
20
162.242500
11
80.962505
21
162.242500
0
LINE
8
boundary
62
5
39
2
10
80.962505
20
162.242500
11
80.962505
21
151.890984
0
LINE
8
boundary
62
5
39
2
10
80.962505
20
151.890984
11
83.375503
21
151.665940
0
LINE
8
boundary
62
5
39
2
10
83.375503
20
151.665940
11
83.375503
21
147.419060
0
LINE
8
boundary
62
5
39
2
10
83.375503
20
147.419060
11
81.047849
21
147.419061
0
LINE
8
boundary
62
5
39
2
10
81.047849
20
147.419061
11
80.962505
21
126.682496
0
LINE
8
boundary
62
5
39
2
10
80.962505
20
126.682496
11
83.375503
21
126.265940
0
LINE
8
boundary
62
5
39
2
10
83.375503
20
126.265940
11
83.375503
21
122.019060
0
LINE
8
boundary
62
5
39
2
10
83.375503
20
122.019060
11
81.047849
21
122.019060
0
LINE
8
boundary
62
5
39
2
10
81.047849
20
122.019060
11
80.962505
21
101.090984
0
LINE
8
boundary
62
5
39
2
10
80.962505
20
101.090984
11
83.375503
21
100.865940
0
LINE
8
boundary
62
5
39
2
10
83.375503
20
100.865940
11
83.375503
21
96.619060
0
LINE
8
boundary
62
5
39
2
10
83.375503
20
96.619060
11
81.047849
21
96.619060
0
LINE
8
boundary
62
5
39
2
10
81.047849
20
96.619060
11
80.962505
21
91.122502
0
LINE
8
boundary
62
5
39
2
10
80.962505
20
91.122502
11
66.992504
21
91.122502
0
LINE
8
boundary
62
5
39
2
10
66.992504
20
91.122502
11
53.022508
21
91.122502
0
LINE
8
boundary
62
5
39
2
10
53.022508
20
91.122502
11
53.022508
21
126.682506
0
LINE
8
boundary
62
5
39
2
10
53.022508
20
126.682506
11
53.022507
21
162.242500
0
LINE
8
boundary
62
5
39
2
10
53.022507
20
162.242500
11
50.764726
21
162.242500
0
LINE
8
boundary
62
5
39
2
10
50.764726
20
162.242500
11
47.942500
21
162.242500
0
LINE
8
boundary
62
5
39
2
10
47.942500
20
162.242500
11
47.942500
21
151.890984
0
LINE
8
boundary
62
5
39
2
10
47.942500
20
151.890984
11
50.355504
21
151.665941
0
LINE
8
boundary
62
5
39
2
10
50.355504
20
151.665941
11
50.355504
21
147.419060
0
LINE
8
boundary
62
5
39
2
10
50.355504
20
147.419060
11
48.027844
21
147.419060
0
LINE
8
boundary
62
5
39
2
10
48.027844
20
147.419060
11
47.942500
21
126.490984
0
LINE
8
boundary
62
5
39
2
10
47.942500
20
126.490984
11
50.355504
21
126.265940
0
LINE
8
boundary
62
5
39
2
10
50.355504
20
126.265940
11
50.355504
21
122.019060
0
LINE
8
boundary
62
5
39
2
10
50.355504
20
122.019060
11
48.027844
21
122.019060
0
LINE
8
boundary
62
5
39
2
10
48.027844
20
122.019060
11
47.942500
21
101.090984
0
LINE
8
boundary
62
5
39
2
10
47.942500
20
101.090984
11
50.355504
21
100.865940
0
LINE
8
boundary
62
5
39
2
10
50.355504
20
100.865940
11
50.355504
21
96.619060
0
LINE
8
boundary
62
5
39
2
10
50.355504
20
96.619060
11
48.027844
21
96.619060
0
LINE
8
boundary
62
5
39
2
10
48.027844
20
96.619060
11
47.942500
21
86.042500
0
LINE
8
annotation
62
1
39
211
10
85.872985
20
97.871680
11
85.872985
21
99.613321
0
LINE
8
annotation
62
1
39
211
10
85.872985
20
99.613321
11
85.485796
21
99.226023
0
LINE
8
annotation
62
1
39
211
10
52.852992
20
96.071326
11
52.852992
21
97.812971
0
LINE
8
annotation
62
1
39
211
10
52.852992
20
97.812971
11
52.465802
21
97.425672
0
LINE
8
annotation
62
1
39
211
10
85.833292
20
123.350745
11
85.130029
21
123.350745
0
LINE
8
annotation
62
1
39
211
10
85.130029
20
123.350745
11
85.779867
21
124.396902
0
LINE
8
annotation
62
1
39
211
10
85.779867
20
124.396902
11
85.779867
21
124.396902
0
LINE
8
annotation
62
1
39
211
10
85.779867
20
124.396902
11
85.780644
21
124.397863
0
LINE
8
annotation
62
1
39
211
10
85.780644
20
124.397863
11
85.781389
21
124.398832
0
LINE
8
annotation
62
1
39
211
10
85.781389
20
124.398832
11
85.782107
21
124.399818
0
LINE
8
annotation
62
1
39
211
10
85.782107
20
124.399818
11
85.782803
21
124.400829
0
LINE
8
annotation
62
1
39
211
10
85.782803
20
124.400829
11
85.783482
21
124.401872
0
LINE
8
annotation
62
1
39
211
10
85.783482
20
124.401872
11
85.784148
21
124.402956
0
LINE
8
annotation
62
1
39
211
10
85.784148
20
124.402956
11
85.784807
21
124.404088
0
LINE
8
annotation
62
1
39
211
10
85.784807
20
124.404088
11
85.785464
21
124.405279
0
LINE
8
annotation
62
1
39
211
10
85.785464
20
124.405279
11
85.786123
21
124.406534
0
LINE
8
annotation
62
1
39
211
10
85.786123
20
124.406534
11
85.786123
21
124.406534
0
LINE
8
annotation
62
1
39
211
10
85.786123
20
124.406534
11
85.812955
21
124.464144
0
LINE
8
annotation
62
1
39
211
10
85.812955
20
124.464144
11
85.828629
21
124.523862
0
LINE
8
annotation
62
1
39
211
10
85.828629
20
124.523862
11
85.833531
21
124.584338
0
LINE
8
annotation
62
1
39
211
10
85.833531
20
124.584338
11
85.828044
21
124.644223
0
LINE
8
annotation
62
1
39
211
10
85.828044
20
124.644223
11
85.812552
21
124.702168
0
LINE
8
annotation
62
1
39
211
10
85.812552
20
124.702168
11
85.787440
21
124.756823
0
LINE
8
annotation
62
1
39
211
10
85.787440
20
124.756823
11
85.753091
21
124.806840
0
LINE
8
annotation
62
1
39
211
10
85.753091
20
124.806840
11
85.709890
21
124.850868
0
LINE
8
annotation
62
1
39
211
10
85.709890
20
124.850868
11
85.658221
21
124.887558
0
LINE
8
annotation
62
1
39
211
10
85.658221
20
124.887558
11
85.658221
21
124.887558
0
LINE
8
annotation
62
1
39
211
10
85.658221
20
124.887558
11
85.600451
21
124.914008
0
LINE
8
annotation
62
1
39
211
10
85.600451
20
124.914008
11
85.540642
21
124.929441
0
LINE
8
annotation
62
1
39
211
10
85.540642
20
124.929441
11
85.480130
21
124.934204
0
LINE
8
annotation
62
1
39
211
10
85.480130
20
124.934204
11
85.420254
21
124.928645
0
LINE
8
annotation
62
1
39
211
10
85.420254
20
124.928645
11
85.362350
21
124.913110
0
LINE
8
annotation
62
1
39
211
10
85.362350
20
124.913110
11
85.307755
21
124.887947
0
LINE
8
annotation
62
1
39
211
10
85.307755
20
124.887947
11
85.257807
21
124.853504
0
LINE
8
annotation
62
1
39
211
10
85.257807
20
124.853504
11
85.213842
21
124.810128
0
LINE
8
annotation
62
1
39
211
10
85.213842
20
124.810128
11
85.177197
21
124.758166
0
LINE
8
annotation
62
1
39
211
10
85.177197
20
124.758166
11
85.131022
21
124.669588
0
LINE
8
annotation
62
1
39
211
10
52.813299
20
121.550391
11
52.110034
21
121.550391
0
LINE
8
annotation
62
1
39
211
10
52.110034
20
121.550391
11
52.759874
21
122.596550
0
LINE
8
annotation
62
1
39
211
10
52.759874
20
122.596550
11
52.759874
21
122.596550
0
LINE
8
annotation
62
1
39
211
10
52.759874
20
122.596550
11
52.760651
21
122.597512
0
LINE
8
annotation
62
1
39
211
10
52.760651
20
122.597512
11
52.761396
21
122.598481
0
LINE
8
annotation
62
1
39
211
10
52.761396
20
122.598481
11
52.762114
21
122.599467
0
LINE
8
annotation
62
1
39
211
10
52.762114
20
122.599467
11
52.762810
21
122.600477
0
LINE
8
annotation
62
1
39
211
10
52.762810
20
122.600477
11
52.763488
21
122.601520
0
LINE
8
annotation
62
1
39
211
10
52.763488
20
122.601520
11
52.764155
21
122.602604
0
LINE
8
annotation
62
1
39
211
10
52.764155
20
122.602604
11
52.764814
21
122.603737
0
LINE
8
annotation
62
1
39
211
10
52.764814
20
122.603737
11
52.765471
21
122.604927
0
LINE
8
annotation
62
1
39
211
10
52.765471
20
122.604927
11
52.766130
21
122.606183
0
LINE
8
annotation
62
1
39
211
10
52.766130
20
122.606183
11
52.766130
21
122.606183
0
LINE
8
annotation
62
1
39
211
10
52.766130
20
122.606183
11
52.792962
21
122.663793
0
LINE
8
annotation
62
1
39
211
10
52.792962
20
122.663793
11
52.808636
21
122.723511
0
LINE
8
annotation
62
1
39
211
10
52.808636
20
122.723511
11
52.813538
21
122.783987
0
LINE
8
annotation
62
1
39
211
10
52.813538
20
122.783987
11
52.808051
21
122.843872
0
LINE
8
annotation
62
1
39
211
10
52.808051
20
122.843872
11
52.792559
21
122.901817
0
LINE
8
annotation
62
1
39
211
10
52.792559
20
122.901817
11
52.767447
21
122.956473
0
LINE
8
annotation
62
1
39
211
10
52.767447
20
122.956473
11
52.733098
21
123.006489
0
LINE
8
annotation
62
1
39
211
10
52.733098
20
123.006489
11
52.689897
21
123.050517
0
LINE
8
annotation
62
1
39
211
10
52.689897
20
123.050517
11
52.638227
21
123.087207
0
LINE
8
annotation
62
1
39
211
10
52.638227
20
123.087207
11
52.638227
21
123.087207
0
LINE
8
annotation
62
1
39
211
10
52.638227
20
123.087207
11
52.580457
21
123.113658
0
LINE
8
annotation
62
1
39
211
10
52.580457
20
123.113658
11
52.520648
21
123.129091
0
LINE
8
annotation
62
1
39
211
10
52.520648
20
123.129091
11
52.460136
21
123.133854
0
LINE
8
annotation
62
1
39
211
10
52.460136
20
123.133854
11
52.400260
21
123.128295
0
LINE
8
annotation
62
1
39
211
10
52.400260
20
123.128295
11
52.342356
21
123.112760
0
LINE
8
annotation
62
1
39
211
10
52.342356
20
123.112760
11
52.287761
21
123.087597
0
LINE
8
annotation
62
1
39
211
10
52.287761
20
123.087597
11
52.237812
21
123.053154
0
LINE
8
annotation
62
1
39
211
10
52.237812
20
123.053154
11
52.193847
21
123.009778
0
LINE
8
annotation
62
1
39
211
10
52.193847
20
123.009778
11
52.157203
21
122.957815
0
LINE
8
annotation
62
1
39
211
10
52.157203
20
122.957815
11
52.111027
21
122.869237
0
LINE
8
annotation
62
1
39
211
10
85.130129
20
146.950407
11
85.481782
21
146.950407
0
LINE
8
annotation
62
1
39
211
10
85.481782
20
146.950407
11
85.481782
21
146.950407
0
LINE
8
annotation
62
1
39
211
10
85.481782
20
146.950407
11
85.545028
21
146.956080
0
LINE
8
annotation
62
1
39
211
10
85.545028
20
146.956080
11
85.604540
21
146.972432
0
LINE
8
annotation
62
1
39
211
10
85.604540
20
146.972432
11
85.659329
21
146.998458
0
LINE
8
annotation
62
1
39
211
10
85.659329
20
146.998458
11
85.708404
21
147.033154
0
LINE
8
annotation
62
1
39
211
10
85.708404
20
147.033154
11
85.750776
21
147.075517
0
LINE
8
annotation
62
1
39
211
10
85.750776
20
147.075517
11
85.785455
21
147.124543
0
LINE
8
annotation
62
1
39
211
10
85.785455
20
147.124543
11
85.811451
21
147.179229
0
LINE
8
annotation
62
1
39
211
10
85.811451
20
147.179229
11
85.827775
21
147.238570
0
LINE
8
annotation
62
1
39
211
10
85.827775
20
147.238570
11
85.833436
21
147.301564
0
LINE
8
annotation
62
1
39
211
10
85.833436
20
147.301564
11
85.833436
21
147.477639
0
LINE
8
annotation
62
1
39
211
10
85.833436
20
147.477639
11
85.833436
21
147.477639
0
LINE
8
annotation
62
1
39
211
10
85.833436
20
147.477639
11
85.827775
21
147.540606
0
LINE
8
annotation
62
1
39
211
10
85.827775
20
147.540606
11
85.811451
21
147.599933
0
LINE
8
annotation
62
1
39
211
10
85.811451
20
147.599933
11
85.785455
21
147.654615
0
LINE
8
annotation
62
1
39
211
10
85.785455
20
147.654615
11
85.750776
21
147.703644
0
LINE
8
annotation
62
1
39
211
10
85.750776
20
147.703644
11
85.708404
21
147.746016
0
LINE
8
annotation
62
1
39
211
10
85.708404
20
147.746016
11
85.659329
21
147.780723
0
LINE
8
annotation
62
1
39
211
10
85.659329
20
147.780723
11
85.604540
21
147.806759
0
LINE
8
annotation
62
1
39
211
10
85.604540
20
147.806759
11
85.545028
21
147.823119
0
LINE
8
annotation
62
1
39
211
10
85.545028
20
147.823119
11
85.481782
21
147.828796
0
LINE
8
annotation
62
1
39
211
10
85.481782
20
147.828796
11
85.305707
21
147.828796
0
LINE
8
annotation
62
1
39
211
10
85.305707
20
147.828796
11
85.481782
21
147.828796
0
LINE
8
annotation
62
1
39
211
10
85.481782
20
147.828796
11
85.481782
21
147.828796
0
LINE
8
annotation
62
1
39
211
10
85.481782
20
147.828796
11
85.545028
21
147.834474
0
LINE
8
annotation
62
1
39
211
10
85.545028
20
147.834474
11
85.604540
21
147.850843
0
LINE
8
annotation
62
1
39
211
10
85.604540
20
147.850843
11
85.659329
21
147.876905
0
LINE
8
annotation
62
1
39
211
10
85.659329
20
147.876905
11
85.708404
21
147.911663
0
LINE
8
annotation
62
1
39
211
10
85.708404
20
147.911663
11
85.750776
21
147.954117
0
LINE
8
annotation
62
1
39
211
10
85.750776
20
147.954117
11
85.785455
21
148.003271
0
LINE
8
annotation
62
1
39
211
10
85.785455
20
148.003271
11
85.811451
21
148.058125
0
LINE
8
annotation
62
1
39
211
10
85.811451
20
148.058125
11
85.827775
21
148.117683
0
LINE
8
annotation
62
1
39
211
10
85.827775
20
148.117683
11
85.833436
21
148.180946
0
LINE
8
annotation
62
1
39
211
10
85.833436
20
148.180946
11
85.833436
21
148.180946
0
LINE
8
annotation
62
1
39
211
10
85.833436
20
148.180946
11
85.827775
21
148.243913
0
LINE
8
annotation
62
1
39
211
10
85.827775
20
148.243913
11
85.811451
21
148.303240
0
LINE
8
annotation
62
1
39
211
10
85.811451
20
148.303240
11
85.785455
21
148.357922
0
LINE
8
annotation
62
1
39
211
10
85.785455
20
148.357922
11
85.750776
21
148.406951
0
LINE
8
annotation
62
1
39
211
10
85.750776
20
148.406951
11
85.708404
21
148.449323
0
LINE
8
annotation
62
1
39
211
10
85.708404
20
148.449323
11
85.659329
21
148.484030
0
LINE
8
annotation
62
1
39
211
10
85.659329
20
148.484030
11
85.604540
21
148.510066
0
LINE
8
annotation
62
1
39
211
10
85.604540
20
148.510066
11
85.545028
21
148.526426
0
LINE
8
annotation
62
1
39
211
10
85.545028
20
148.526426
11
85.481782
21
148.532103
0
LINE
8
annotation
62
1
39
211
10
85.481782
20
148.532103
11
85.130129
21
148.532103
0
LINE
8
annotation
62
1
39
211
10
52.110134
20
146.950405
11
52.461788
21
146.950405
0
LINE
8
annotation
62
1
39
211
10
52.461788
20
146.950405
11
52.461788
21
146.950405
0
LINE
8
annotation
62
1
39
211
10
52.461788
20
146.950405
11
52.525034
21
146.956078
0
LINE
8
annotation
62
1
39
211
10
52.525034
20
146.956078
11
52.584546
21
146.972430
0
LINE
8
annotation
62
1
39
211
10
52.584546
20
146.972430
11
52.639335
21
146.998456
0
LINE
8
annotation
62
1
39
211
10
52.639335
20
146.998456
11
52.688410
21
147.033152
0
LINE
8
annotation
62
1
39
211
10
52.688410
20
147.033152
11
52.730782
21
147.075516
0
LINE
8
annotation
62
1
39
211
10
52.730782
20
147.075516
11
52.765462
21
147.124542
0
LINE
8
annotation
62
1
39
211
10
52.765462
20
147.124542
11
52.791458
21
147.179228
0
LINE
8
annotation
62
1
39
211
10
52.791458
20
147.179228
11
52.807781
21
147.238569
0
LINE
8
annotation
62
1
39
211
10
52.807781
20
147.238569
11
52.813443
21
147.301563
0
LINE
8
annotation
62
1
39
211
10
52.813443
20
147.301563
11
52.813443
21
147.477638
0
LINE
8
annotation
62
1
39
211
10
52.813443
20
147.477638
11
52.813443
21
147.477638
0
LINE
8
annotation
62
1
39
211
10
52.813443
20
147.477638
11
52.807781
21
147.540605
0
LINE
8
annotation
62
1
39
211
10
52.807781
20
147.540605
11
52.791458
21
147.599933
0
LINE
8
annotation
62
1
39
211
10
52.791458
20
147.599933
11
52.765462
21
147.654615
0
LINE
8
annotation
62
1
39
211
10
52.765462
20
147.654615
11
52.730782
21
147.703644
0
LINE
8
annotation
62
1
39
211
10
52.730782
20
147.703644
11
52.688410
21
147.746016
0
LINE
8
annotation
62
1
39
211
10
52.688410
20
147.746016
11
52.639335
21
147.780723
0
LINE
8
annotation
62
1
39
211
10
52.639335
20
147.780723
11
52.584546
21
147.806759
0
LINE
8
annotation
62
1
39
211
10
52.584546
20
147.806759
11
52.525034
21
147.823119
0
LINE
8
annotation
62
1
39
211
10
52.525034
20
147.823119
11
52.461788
21
147.828796
0
LINE
8
annotation
62
1
39
211
10
52.461788
20
147.828796
11
52.285713
21
147.828796
0
LINE
8
annotation
62
1
39
211
10
52.285713
20
147.828796
11
52.461788
21
147.828796
0
LINE
8
annotation
62
1
39
211
10
52.461788
20
147.828796
11
52.461788
21
147.828796
0
LINE
8
annotation
62
1
39
211
10
52.461788
20
147.828796
11
52.525034
21
147.834474
0
LINE
8
annotation
62
1
39
211
10
52.525034
20
147.834474
11
52.584546
21
147.850843
0
LINE
8
annotation
62
1
39
211
10
52.584546
20
147.850843
11
52.639335
21
147.876906
0
LINE
8
annotation
62
1
39
211
10
52.639335
20
147.876906
11
52.688410
21
147.911663
0
LINE
8
annotation
62
1
39
211
10
52.688410
20
147.911663
11
52.730782
21
147.954118
0
LINE
8
annotation
62
1
39
211
10
52.730782
20
147.954118
11
52.765462
21
148.003271
0
LINE
8
annotation
62
1
39
211
10
52.765462
20
148.003271
11
52.791458
21
148.058126
0
LINE
8
annotation
62
1
39
211
10
52.791458
20
148.058126
11
52.807781
21
148.117684
0
LINE
8
annotation
62
1
39
211
10
52.807781
20
148.117684
11
52.813443
21
148.180947
0
LINE
8
annotation
62
1
39
211
10
52.813443
20
148.180947
11
52.813443
21
148.180947
0
LINE
8
annotation
62
1
39
211
10
52.813443
20
148.180947
11
52.807781
21
148.243914
0
LINE
8
annotation
62
1
39
211
10
52.807781
20
148.243914
11
52.791458
21
148.303242
0
LINE
8
annotation
62
1
39
211
10
52.791458
20
148.303242
11
52.765462
21
148.357923
0
LINE
8
annotation
62
1
39
211
10
52.765462
20
148.357923
11
52.730782
21
148.406953
0
LINE
8
annotation
62
1
39
211
10
52.730782
20
148.406953
11
52.688410
21
148.449324
0
LINE
8
annotation
62
1
39
211
10
52.688410
20
148.449324
11
52.639335
21
148.484031
0
LINE
8
annotation
62
1
39
211
10
52.639335
20
148.484031
11
52.584546
21
148.510068
0
LINE
8
annotation
62
1
39
211
10
52.584546
20
148.510068
11
52.525034
21
148.526428
0
LINE
8
annotation
62
1
39
211
10
52.525034
20
148.526428
11
52.461788
21
148.532104
0
LINE
8
annotation
62
1
39
211
10
52.461788
20
148.532104
11
52.110134
21
148.532104
0
LINE
8
annotation
62
1
39
211
10
64.466158
20
88.510718
11
64.008683
21
87.849022
0
LINE
8
annotation
62
1
39
211
10
64.008683
20
87.849022
11
63.551121
21
88.510718
0
LINE
8
annotation
62
1
39
211
10
64.008683
20
87.902271
11
64.008683
21
87.138895
0
LINE
8
annotation
62
1
39
211
10
65.730774
20
87.824806
11
64.980731
21
87.824806
0
LINE
8
annotation
62
1
39
211
10
66.854371
20
87.138927
11
66.245150
21
87.138927
0
LINE
8
annotation
62
1
39
211
10
66.245150
20
87.138927
11
66.808090
21
88.045188
0
LINE
8
annotation
62
1
39
211
10
66.808090
20
88.045188
11
66.808090
21
88.045188
0
LINE
8
annotation
62
1
39
211
10
66.808090
20
88.045188
11
66.808763
21
88.046021
0
LINE
8
annotation
62
1
39
211
10
66.808763
20
88.046021
11
66.809408
21
88.046861
0
LINE
8
annotation
62
1
39
211
10
66.809408
20
88.046861
11
66.810030
21
88.047715
0
LINE
8
annotation
62
1
39
211
10
66.810030
20
88.047715
11
66.810633
21
88.048590
0
LINE
8
annotation
62
1
39
211
10
66.810633
20
88.048590
11
66.811221
21
88.049494
0
LINE
8
annotation
62
1
39
211
10
66.811221
20
88.049494
11
66.811799
21
88.050433
0
LINE
8
annotation
62
1
39
211
10
66.811799
20
88.050433
11
66.812370
21
88.051414
0
LINE
8
annotation
62
1
39
211
10
66.812370
20
88.051414
11
66.812938
21
88.052445
0
LINE
8
annotation
62
1
39
211
10
66.812938
20
88.052445
11
66.813509
21
88.053533
0
LINE
8
annotation
62
1
39
211
10
66.813509
20
88.053533
11
66.813509
21
88.053533
0
LINE
8
annotation
62
1
39
211
10
66.813509
20
88.053533
11
66.836753
21
88.103439
0
LINE
8
annotation
62
1
39
211
10
66.836753
20
88.103439
11
66.850332
21
88.155171
0
LINE
8
annotation
62
1
39
211
10
66.850332
20
88.155171
11
66.854578
21
88.207560
0
LINE
8
annotation
62
1
39
211
10
66.854578
20
88.207560
11
66.849825
21
88.259437
0
LINE
8
annotation
62
1
39
211
10
66.849825
20
88.259437
11
66.836404
21
88.309634
0
LINE
8
annotation
62
1
39
211
10
66.836404
20
88.309634
11
66.814650
21
88.356981
0
LINE
8
annotation
62
1
39
211
10
66.814650
20
88.356981
11
66.784895
21
88.400308
0
LINE
8
annotation
62
1
39
211
10
66.784895
20
88.400308
11
66.747470
21
88.438449
0
LINE
8
annotation
62
1
39
211
10
66.747470
20
88.438449
11
66.702711
21
88.470233
0
LINE
8
annotation
62
1
39
211
10
66.702711
20
88.470233
11
66.702711
21
88.470233
0
LINE
8
annotation
62
1
39
211
10
66.702711
20
88.470233
11
66.652666
21
88.493146
0
LINE
8
annotation
62
1
39
211
10
66.652666
20
88.493146
11
66.600854
21
88.506515
0
LINE
8
annotation
62
1
39
211
10
66.600854
20
88.506515
11
66.548435
21
88.510642
0
LINE
8
annotation
62
1
39
211
10
66.548435
20
88.510642
11
66.496565
21
88.505825
0
LINE
8
annotation
62
1
39
211
10
66.496565
20
88.505825
11
66.446404
21
88.492368
0
LINE
8
annotation
62
1
39
211
10
66.446404
20
88.492368
11
66.399110
21
88.470570
0
LINE
8
annotation
62
1
39
211
10
66.399110
20
88.470570
11
66.355841
21
88.440733
0
LINE
8
annotation
62
1
39
211
10
66.355841
20
88.440733
11
66.317755
21
88.403157
0
LINE
8
annotation
62
1
39
211
10
66.317755
20
88.403157
11
66.286011
21
88.358143
0
LINE
8
annotation
62
1
39
211
10
66.286011
20
88.358143
11
66.246010
21
88.281410
0
LINE
8
annotation
62
1
39
211
10
68.119047
20
87.824806
11
67.369005
21
87.824806
0
LINE
8
annotation
62
1
39
211
10
69.242644
20
87.138927
11
68.633423
21
87.138927
0
LINE
8
annotation
62
1
39
211
10
68.633423
20
87.138927
11
69.196364
21
88.045188
0
LINE
8
annotation
62
1
39
211
10
69.196364
20
88.045188
11
69.196364
21
88.045188
0
LINE
8
annotation
62
1
39
211
10
69.196364
20
88.045188
11
69.197037
21
88.046021
0
LINE
8
annotation
62
1
39
211
10
69.197037
20
88.046021
11
69.197682
21
88.046861
0
LINE
8
annotation
62
1
39
211
10
69.197682
20
88.046861
11
69.198304
21
88.047715
0
LINE
8
annotation
62
1
39
211
10
69.198304
20
88.047715
11
69.198907
21
88.048590
0
LINE
8
annotation
62
1
39
211
10
69.198907
20
88.048590
11
69.199495
21
88.049494
0
LINE
8
annotation
62
1
39
211
10
69.199495
20
88.049494
11
69.200072
21
88.050433
0
LINE
8
annotation
62
1
39
211
10
69.200072
20
88.050433
11
69.200643
21
88.051414
0
LINE
8
annotation
62
1
39
211
10
69.200643
20
88.051414
11
69.201212
21
88.052445
0
LINE
8
annotation
62
1
39
211
10
69.201212
20
88.052445
11
69.201783
21
88.053533
0
LINE
8
annotation
62
1
39
211
10
69.201783
20
88.053533
11
69.201783
21
88.053533
0
LINE
8
annotation
62
1
39
211
10
69.201783
20
88.053533
11
69.225027
21
88.103439
0
LINE
8
annotation
62
1
39
211
10
69.225027
20
88.103439
11
69.238605
21
88.155171
0
LINE
8
annotation
62
1
39
211
10
69.238605
20
88.155171
11
69.242852
21
88.207560
0
LINE
8
annotation
62
1
39
211
10
69.242852
20
88.207560
11
69.238098
21
88.259437
0
LINE
8
annotation
62
1
39
211
10
69.238098
20
88.259437
11
69.224678
21
88.309634
0
LINE
8
annotation
62
1
39
211
10
69.224678
20
88.309634
11
69.202924
21
88.356981
0
LINE
8
annotation
62
1
39
211
10
69.202924
20
88.356981
11
69.173168
21
88.400308
0
LINE
8
annotation
62
1
39
211
10
69.173168
20
88.400308
11
69.135744
21
88.438449
0
LINE
8
annotation
62
1
39
211
10
69.135744
20
88.438449
11
69.090984
21
88.470233
0
LINE
8
annotation
62
1
39
211
10
69.090984
20
88.470233
11
69.090984
21
88.470233
0
LINE
8
annotation
62
1
39
211
10
69.090984
20
88.470233
11
69.040939
21
88.493146
0
LINE
8
annotation
62
1
39
211
10
69.040939
20
88.493146
11
68.989128
21
88.506515
0
LINE
8
annotation
62
1
39
211
10
68.989128
20
88.506515
11
68.936708
21
88.510642
0
LINE
8
annotation
62
1
39
211
10
68.936708
20
88.510642
11
68.884839
21
88.505825
0
LINE
8
annotation
62
1
39
211
10
68.884839
20
88.505825
11
68.834678
21
88.492368
0
LINE
8
annotation
62
1
39
211
10
68.834678
20
88.492368
11
68.787384
21
88.470570
0
LINE
8
annotation
62
1
39
211
10
68.787384
20
88.470570
11
68.744114
21
88.440733
0
LINE
8
annotation
62
1
39
211
10
68.744114
20
88.440733
11
68.706029
21
88.403157
0
LINE
8
annotation
62
1
39
211
10
68.706029
20
88.403157
11
68.674285
21
88.358143
0
LINE
8
annotation
62
1
39
211
10
68.674285
20
88.358143
11
68.634283
21
88.281410
0
LINE
8
boundary
62
5
39
2
10
47.942500
20
165.417501
11
54.292500
21
165.417501
0
LINE
8
boundary
62
5
39
2
10
54.292500
20
165.417501
11
86.042500
21
165.417501
0
LINE
8
boundary
62
5
39
2
10
86.042500
20
165.417501
11
86.042500
21
178.117501
0
LINE
8
boundary
62
5
39
2
10
86.042500
20
178.117501
11
86.042500
21
241.617501
0
LINE
8
boundary
62
5
39
2
10
86.042500
20
241.617501
11
85.101760
21
241.617501
0
LINE
8
boundary
62
5
39
2
10
85.101760
20
241.617501
11
80.962505
21
241.617501
0
LINE
8
boundary
62
5
39
2
10
80.962505
20
241.617501
11
80.962505
21
235.690827
0
LINE
8
boundary
62
5
39
2
10
80.962505
20
235.690827
11
80.962505
21
231.265985
0
LINE
8
boundary
62
5
39
2
10
80.962505
20
231.265985
11
83.375503
21
231.040941
0
LINE
8
boundary
62
5
39
2
10
83.375503
20
231.040941
11
83.375503
21
226.794061
0
LINE
8
boundary
62
5
39
2
10
83.375503
20
226.794061
11
81.047849
21
226.794061
0
LINE
8
boundary
62
5
39
2
10
81.047849
20
226.794061
11
80.962505
21
205.865985
0
LINE
8
boundary
62
5
39
2
10
80.962505
20
205.865985
11
83.375503
21
205.640941
0
LINE
8
boundary
62
5
39
2
10
83.375503
20
205.640941
11
83.375503
21
201.394061
0
LINE
8
boundary
62
5
39
2
10
83.375503
20
201.394061
11
81.047849
21
201.394061
0
LINE
8
boundary
62
5
39
2
10
81.047849
20
201.394061
11
80.962505
21
180.465985
0
LINE
8
boundary
62
5
39
2
10
80.962505
20
180.465985
11
83.375503
21
180.240941
0
LINE
8
boundary
62
5
39
2
10
83.375503
20
180.240941
11
83.375503
21
175.994061
0
LINE
8
boundary
62
5
39
2
10
83.375503
20
175.994061
11
81.047849
21
175.994061
0
LINE
8
boundary
62
5
39
2
10
81.047849
20
175.994061
11
80.962505
21
170.497502
0
LINE
8
boundary
62
5
39
2
10
80.962505
20
170.497502
11
78.634169
21
170.497502
0
LINE
8
boundary
62
5
39
2
10
78.634169
20
170.497502
11
53.022508
21
170.497502
0
LINE
8
boundary
62
5
39
2
10
53.022508
20
170.497502
11
53.022508
21
176.424175
0
LINE
8
boundary
62
5
39
2
10
53.022508
20
176.424175
11
53.022507
21
241.617501
0
LINE
8
boundary
62
5
39
2
10
53.022507
20
241.617501
11
47.942500
21
241.617501
0
LINE
8
boundary
62
5
39
2
10
47.942500
20
241.617501
11
47.942500
21
231.265985
0
LINE
8
boundary
62
5
39
2
10
47.942500
20
231.265985
11
50.355504
21
231.040941
0
LINE
8
boundary
62
5
39
2
10
50.355504
20
231.040941
11
50.355504
21
226.794061
0
LINE
8
boundary
62
5
39
2
10
50.355504
20
226.794061
11
48.027844
21
226.794061
0
LINE
8
boundary
62
5
39
2
10
48.027844
20
226.794061
11
47.942500
21
205.865985
0
LINE
8
boundary
62
5
39
2
10
47.942500
20
205.865985
11
50.355504
21
205.640941
0
LINE
8
boundary
62
5
39
2
10
50.355504
20
205.640941
11
50.355504
21
201.394061
0
LINE
8
boundary
62
5
39
2
10
50.355504
20
201.394061
11
48.027844
21
201.394061
0
LINE
8
boundary
62
5
39
2
10
48.027844
20
201.394061
11
47.942500
21
180.465985
0
LINE
8
boundary
62
5
39
2
10
47.942500
20
180.465985
11
50.355504
21
180.240941
0
LINE
8
boundary
62
5
39
2
10
50.355504
20
180.240941
11
50.355504
21
175.994061
0
LINE
8
boundary
62
5
39
2
10
50.355504
20
175.994061
11
48.027844
21
175.994061
0
LINE
8
boundary
62
5
39
2
10
48.027844
20
175.994061
11
47.942500
21
165.417501
0
LINE
8
annotation
62
1
39
211
10
85.872986
20
177.246680
11
85.872986
21
178.988322
0
LINE
8
annotation
62
1
39
211
10
85.872986
20
178.988322
11
85.485796
21
178.601023
0
LINE
8
annotation
62
1
39
211
10
52.852992
20
175.446326
11
52.852992
21
177.187972
0
LINE
8
annotation
62
1
39
211
10
52.852992
20
177.187972
11
52.465802
21
176.800672
0
LINE
8
annotation
62
1
39
211
10
85.833292
20
200.925393
11
85.130028
21
200.925393
0
LINE
8
annotation
62
1
39
211
10
85.130028
20
200.925393
11
85.779867
21
201.971550
0
LINE
8
annotation
62
1
39
211
10
85.779867
20
201.971550
11
85.779867
21
201.971550
0
LINE
8
annotation
62
1
39
211
10
85.779867
20
201.971550
11
85.780644
21
201.972511
0
LINE
8
annotation
62
1
39
211
10
85.780644
20
201.972511
11
85.781389
21
201.973481
0
LINE
8
annotation
62
1
39
211
10
85.781389
20
201.973481
11
85.782107
21
201.974467
0
LINE
8
annotation
62
1
39
211
10
85.782107
20
201.974467
11
85.782803
21
201.975477
0
LINE
8
annotation
62
1
39
211
10
85.782803
20
201.975477
11
85.783482
21
201.976520
0
LINE
8
annotation
62
1
39
211
10
85.783482
20
201.976520
11
85.784148
21
201.977604
0
LINE
8
annotation
62
1
39
211
10
85.784148
20
201.977604
11
85.784807
21
201.978737
0
LINE
8
annotation
62
1
39
211
10
85.784807
20
201.978737
11
85.785464
21
201.979927
0
LINE
8
annotation
62
1
39
211
10
85.785464
20
201.979927
11
85.786123
21
201.981182
0
LINE
8
annotation
62
1
39
211
10
85.786123
20
201.981182
11
85.786123
21
201.981182
0
LINE
8
annotation
62
1
39
211
10
85.786123
20
201.981182
11
85.812955
21
202.038792
0
LINE
8
annotation
62
1
39
211
10
85.812955
20
202.038792
11
85.828629
21
202.098510
0
LINE
8
annotation
62
1
39
211
10
85.828629
20
202.098510
11
85.833531
21
202.158986
0
LINE
8
annotation
62
1
39
211
10
85.833531
20
202.158986
11
85.828044
21
202.218871
0
LINE
8
annotation
62
1
39
211
10
85.828044
20
202.218871
11
85.812552
21
202.276816
0
LINE
8
annotation
62
1
39
211
10
85.812552
20
202.276816
11
85.787440
21
202.331472
0
LINE
8
annotation
62
1
39
211
10
85.787440
20
202.331472
11
85.753091
21
202.381488
0
LINE
8
annotation
62
1
39
211
10
85.753091
20
202.381488
11
85.709890
21
202.425516
0
LINE
8
annotation
62
1
39
211
10
85.709890
20
202.425516
11
85.658221
21
202.462206
0
LINE
8
annotation
62
1
39
211
10
85.658221
20
202.462206
11
85.658221
21
202.462206
0
LINE
8
annotation
62
1
39
211
10
85.658221
20
202.462206
11
85.600451
21
202.488656
0
LINE
8
annotation
62
1
39
211
10
85.600451
20
202.488656
11
85.540642
21
202.504089
0
LINE
8
annotation
62
1
39
211
10
85.540642
20
202.504089
11
85.480130
21
202.508853
0
LINE
8
annotation
62
1
39
211
10
85.480130
20
202.508853
11
85.420254
21
202.503293
0
LINE
8
annotation
62
1
39
211
10
85.420254
20
202.503293
11
85.362350
21
202.487758
0
LINE
8
annotation
62
1
39
211
10
85.362350
20
202.487758
11
85.307755
21
202.462596
0
LINE
8
annotation
62
1
39
211
10
85.307755
20
202.462596
11
85.257807
21
202.428153
0
LINE
8
annotation
62
1
39
211
10
85.257807
20
202.428153
11
85.213842
21
202.384776
0
LINE
8
annotation
62
1
39
211
10
85.213842
20
202.384776
11
85.177197
21
202.332814
0
LINE
8
annotation
62
1
39
211
10
85.177197
20
202.332814
11
85.131021
21
202.244236
0
LINE
8
annotation
62
1
39
211
10
52.813299
20
200.925392
11
52.110034
21
200.925392
0
LINE
8
annotation
62
1
39
211
10
52.110034
20
200.925392
11
52.759874
21
201.971551
0
LINE
8
annotation
62
1
39
211
10
52.759874
20
201.971551
11
52.759874
21
201.971551
0
LINE
8
annotation
62
1
39
211
10
52.759874
20
201.971551
11
52.760650
21
201.972512
0
LINE
8
annotation
62
1
39
211
10
52.760650
20
201.972512
11
52.761395
21
201.973481
0
LINE
8
annotation
62
1
39
211
10
52.761395
20
201.973481
11
52.762113
21
201.974467
0
LINE
8
annotation
62
1
39
211
10
52.762113
20
201.974467
11
52.762809
21
201.975478
0
LINE
8
annotation
62
1
39
211
10
52.762809
20
201.975478
11
52.763488
21
201.976521
0
LINE
8
annotation
62
1
39
211
10
52.763488
20
201.976521
11
52.764155
21
201.977604
0
LINE
8
annotation
62
1
39
211
10
52.764155
20
201.977604
11
52.764814
21
201.978737
0
LINE
8
annotation
62
1
39
211
10
52.764814
20
201.978737
11
52.765471
21
201.979928
0
LINE
8
annotation
62
1
39
211
10
52.765471
20
201.979928
11
52.766130
21
201.981183
0
LINE
8
annotation
62
1
39
211
10
52.766130
20
201.981183
11
52.766130
21
201.981183
0
LINE
8
annotation
62
1
39
211
10
52.766130
20
201.981183
11
52.792961
21
202.038793
0
LINE
8
annotation
62
1
39
211
10
52.792961
20
202.038793
11
52.808636
21
202.098511
0
LINE
8
annotation
62
1
39
211
10
52.808636
20
202.098511
11
52.813538
21
202.158987
0
LINE
8
annotation
62
1
39
211
10
52.813538
20
202.158987
11
52.808051
21
202.218873
0
LINE
8
annotation
62
1
39
211
10
52.808051
20
202.218873
11
52.792559
21
202.276818
0
LINE
8
annotation
62
1
39
211
10
52.792559
20
202.276818
11
52.767446
21
202.331473
0
LINE
8
annotation
62
1
39
211
10
52.767446
20
202.331473
11
52.733098
21
202.381490
0
LINE
8
annotation
62
1
39
211
10
52.733098
20
202.381490
11
52.689896
21
202.425518
0
LINE
8
annotation
62
1
39
211
10
52.689896
20
202.425518
11
52.638227
21
202.462208
0
LINE
8
annotation
62
1
39
211
10
52.638227
20
202.462208
11
52.638227
21
202.462208
0
LINE
8
annotation
62
1
39
211
10
52.638227
20
202.462208
11
52.580457
21
202.488658
0
LINE
8
annotation
62
1
39
211
10
52.580457
20
202.488658
11
52.520648
21
202.504091
0
LINE
8
annotation
62
1
39
211
10
52.520648
20
202.504091
11
52.460136
21
202.508854
0
LINE
8
annotation
62
1
39
211
10
52.460136
20
202.508854
11
52.400260
21
202.503295
0
LINE
8
annotation
62
1
39
211
10
52.400260
20
202.503295
11
52.342355
21
202.487760
0
LINE
8
annotation
62
1
39
211
10
52.342355
20
202.487760
11
52.287761
21
202.462598
0
LINE
8
annotation
62
1
39
211
10
52.287761
20
202.462598
11
52.237812
21
202.428154
0
LINE
8
annotation
62
1
39
211
10
52.237812
20
202.428154
11
52.193847
21
202.384778
0
LINE
8
annotation
62
1
39
211
10
52.193847
20
202.384778
11
52.157203
21
202.332816
0
LINE
8
annotation
62
1
39
211
10
52.157203
20
202.332816
11
52.111027
21
202.244237
0
LINE
8
annotation
62
1
39
211
10
85.130129
20
226.325407
11
85.481782
21
226.325407
0
LINE
8
annotation
62
1
39
211
10
85.481782
20
226.325407
11
85.481782
21
226.325407
0
LINE
8
annotation
62
1
39
211
10
85.481782
20
226.325407
11
85.545028
21
226.331081
0
LINE
8
annotation
62
1
39
211
10
85.545028
20
226.331081
11
85.604540
21
226.347432
0
LINE
8
annotation
62
1
39
211
10
85.604540
20
226.347432
11
85.659329
21
226.373458
0
LINE
8
annotation
62
1
39
211
10
85.659329
20
226.373458
11
85.708404
21
226.408154
0
LINE
8
annotation
62
1
39
211
10
85.708404
20
226.408154
11
85.750776
21
226.450517
0
LINE
8
annotation
62
1
39
211
10
85.750776
20
226.450517
11
85.785455
21
226.499544
0
LINE
8
annotation
62
1
39
211
10
85.785455
20
226.499544
11
85.811451
21
226.554229
0
LINE
8
annotation
62
1
39
211
10
85.811451
20
226.554229
11
85.827775
21
226.613571
0
LINE
8
annotation
62
1
39
211
10
85.827775
20
226.613571
11
85.833436
21
226.676564
0
LINE
8
annotation
62
1
39
211
10
85.833436
20
226.676564
11
85.833436
21
226.852639
0
LINE
8
annotation
62
1
39
211
10
85.833436
20
226.852639
11
85.833436
21
226.852639
0
LINE
8
annotation
62
1
39
211
10
85.833436
20
226.852639
11
85.827775
21
226.915606
0
LINE
8
annotation
62
1
39
211
10
85.827775
20
226.915606
11
85.811451
21
226.974934
0
LINE
8
annotation
62
1
39
211
10
85.811451
20
226.974934
11
85.785455
21
227.029615
0
LINE
8
annotation
62
1
39
211
10
85.785455
20
227.029615
11
85.750776
21
227.078645
0
LINE
8
annotation
62
1
39
211
10
85.750776
20
227.078645
11
85.708404
21
227.121016
0
LINE
8
annotation
62
1
39
211
10
85.708404
20
227.121016
11
85.659329
21
227.155723
0
LINE
8
annotation
62
1
39
211
10
85.659329
20
227.155723
11
85.604540
21
227.181759
0
LINE
8
annotation
62
1
39
211
10
85.604540
20
227.181759
11
85.545028
21
227.198119
0
LINE
8
annotation
62
1
39
211
10
85.545028
20
227.198119
11
85.481782
21
227.203796
0
LINE
8
annotation
62
1
39
211
10
85.481782
20
227.203796
11
85.305707
21
227.203796
0
LINE
8
annotation
62
1
39
211
10
85.305707
20
227.203796
11
85.481782
21
227.203796
0
LINE
8
annotation
62
1
39
211
10
85.481782
20
227.203796
11
85.481782
21
227.203796
0
LINE
8
annotation
62
1
39
211
10
85.481782
20
227.203796
11
85.545028
21
227.209474
0
LINE
8
annotation
62
1
39
211
10
85.545028
20
227.209474
11
85.604540
21
227.225843
0
LINE
8
annotation
62
1
39
211
10
85.604540
20
227.225843
11
85.659329
21
227.251906
0
LINE
8
annotation
62
1
39
211
10
85.659329
20
227.251906
11
85.708404
21
227.286663
0
LINE
8
annotation
62
1
39
211
10
85.708404
20
227.286663
11
85.750776
21
227.329117
0
LINE
8
annotation
62
1
39
211
10
85.750776
20
227.329117
11
85.785455
21
227.378271
0
LINE
8
annotation
62
1
39
211
10
85.785455
20
227.378271
11
85.811451
21
227.433126
0
LINE
8
annotation
62
1
39
211
10
85.811451
20
227.433126
11
85.827775
21
227.492683
0
LINE
8
annotation
62
1
39
211
10
85.827775
20
227.492683
11
85.833436
21
227.555946
0
LINE
8
annotation
62
1
39
211
10
85.833436
20
227.555946
11
85.833436
21
227.555946
0
LINE
8
annotation
62
1
39
211
10
85.833436
20
227.555946
11
85.827775
21
227.618913
0
LINE
8
annotation
62
1
39
211
10
85.827775
20
227.618913
11
85.811451
21
227.678240
0
LINE
8
annotation
62
1
39
211
10
85.811451
20
227.678240
11
85.785455
21
227.732922
0
LINE
8
annotation
62
1
39
211
10
85.785455
20
227.732922
11
85.750776
21
227.781952
0
LINE
8
annotation
62
1
39
211
10
85.750776
20
227.781952
11
85.708404
21
227.824323
0
LINE
8
annotation
62
1
39
211
10
85.708404
20
227.824323
11
85.659329
21
227.859030
0
LINE
8
annotation
62
1
39
211
10
85.659329
20
227.859030
11
85.604540
21
227.885066
0
LINE
8
annotation
62
1
39
211
10
85.604540
20
227.885066
11
85.545028
21
227.901426
0
LINE
8
annotation
62
1
39
211
10
85.545028
20
227.901426
11
85.481782
21
227.907103
0
LINE
8
annotation
62
1
39
211
10
85.481782
20
227.907103
11
85.130129
21
227.907103
0
LINE
8
annotation
62
1
39
211
10
52.110134
20
226.325405
11
52.461788
21
226.325405
0
LINE
8
annotation
62
1
39
211
10
52.461788
20
226.325405
11
52.461788
21
226.325405
0
LINE
8
annotation
62
1
39
211
10
52.461788
20
226.325405
11
52.525034
21
226.331079
0
LINE
8
annotation
62
1
39
211
10
52.525034
20
226.331079
11
52.584546
21
226.347430
0
LINE
8
annotation
62
1
39
211
10
52.584546
20
226.347430
11
52.639335
21
226.373456
0
LINE
8
annotation
62
1
39
211
10
52.639335
20
226.373456
11
52.688410
21
226.408153
0
LINE
8
annotation
62
1
39
211
10
52.688410
20
226.408153
11
52.730782
21
226.450516
0
LINE
8
annotation
62
1
39
211
10
52.730782
20
226.450516
11
52.765461
21
226.499542
0
LINE
8
annotation
62
1
39
211
10
52.765461
20
226.499542
11
52.791458
21
226.554228
0
LINE
8
annotation
62
1
39
211
10
52.791458
20
226.554228
11
52.807781
21
226.613569
0
LINE
8
annotation
62
1
39
211
10
52.807781
20
226.613569
11
52.813443
21
226.676563
0
LINE
8
annotation
62
1
39
211
10
52.813443
20
226.676563
11
52.813443
21
226.852638
0
LINE
8
annotation
62
1
39
211
10
52.813443
20
226.852638
11
52.813443
21
226.852638
0
LINE
8
annotation
62
1
39
211
10
52.813443
20
226.852638
11
52.807781
21
226.915606
0
LINE
8
annotation
62
1
39
211
10
52.807781
20
226.915606
11
52.791458
21
226.974933
0
LINE
8
annotation
62
1
39
211
10
52.791458
20
226.974933
11
52.765461
21
227.029615
0
LINE
8
annotation
62
1
39
211
10
52.765461
20
227.029615
11
52.730782
21
227.078645
0
LINE
8
annotation
62
1
39
211
10
52.730782
20
227.078645
11
52.688410
21
227.121016
0
LINE
8
annotation
62
1
39
211
10
52.688410
20
227.121016
11
52.639335
21
227.155723
0
LINE
8
annotation
62
1
39
211
10
52.639335
20
227.155723
11
52.584546
21
227.181760
0
LINE
8
annotation
62
1
39
211
10
52.584546
20
227.181760
11
52.525034
21
227.198119
0
LINE
8
annotation
62
1
39
211
10
52.525034
20
227.198119
11
52.461788
21
227.203796
0
LINE
8
annotation
62
1
39
211
10
52.461788
20
227.203796
11
52.285713
21
227.203796
0
LINE
8
annotation
62
1
39
211
10
52.285713
20
227.203796
11
52.461788
21
227.203796
0
LINE
8
annotation
62
1
39
211
10
52.461788
20
227.203796
11
52.461788
21
227.203796
0
LINE
8
annotation
62
1
39
211
10
52.461788
20
227.203796
11
52.525034
21
227.209474
0
LINE
8
annotation
62
1
39
211
10
52.525034
20
227.209474
11
52.584546
21
227.225844
0
LINE
8
annotation
62
1
39
211
10
52.584546
20
227.225844
11
52.639335
21
227.251906
0
LINE
8
annotation
62
1
39
211
10
52.639335
20
227.251906
11
52.688410
21
227.286663
0
LINE
8
annotation
62
1
39
211
10
52.688410
20
227.286663
11
52.730782
21
227.329118
0
LINE
8
annotation
62
1
39
211
10
52.730782
20
227.329118
11
52.765461
21
227.378272
0
LINE
8
annotation
62
1
39
211
10
52.765461
20
227.378272
11
52.791458
21
227.433126
0
LINE
8
annotation
62
1
39
211
10
52.791458
20
227.433126
11
52.807781
21
227.492684
0
LINE
8
annotation
62
1
39
211
10
52.807781
20
227.492684
11
52.813443
21
227.555947
0
LINE
8
annotation
62
1
39
211
10
52.813443
20
227.555947
11
52.813443
21
227.555947
0
LINE
8
annotation
62
1
39
211
10
52.813443
20
227.555947
11
52.807781
21
227.618914
0
LINE
8
annotation
62
1
39
211
10
52.807781
20
227.618914
11
52.791458
21
227.678242
0
LINE
8
annotation
62
1
39
211
10
52.791458
20
227.678242
11
52.765461
21
227.732924
0
LINE
8
annotation
62
1
39
211
10
52.765461
20
227.732924
11
52.730782
21
227.781953
0
LINE
8
annotation
62
1
39
211
10
52.730782
20
227.781953
11
52.688410
21
227.824325
0
LINE
8
annotation
62
1
39
211
10
52.688410
20
227.824325
11
52.639335
21
227.859032
0
LINE
8
annotation
62
1
39
211
10
52.639335
20
227.859032
11
52.584546
21
227.885068
0
LINE
8
annotation
62
1
39
211
10
52.584546
20
227.885068
11
52.525034
21
227.901428
0
LINE
8
annotation
62
1
39
211
10
52.525034
20
227.901428
11
52.461788
21
227.907105
0
LINE
8
annotation
62
1
39
211
10
52.461788
20
227.907105
11
52.110134
21
227.907105
0
LINE
8
annotation
62
1
39
211
10
64.466261
20
167.885718
11
64.008786
21
167.224022
0
LINE
8
annotation
62
1
39
211
10
64.008786
20
167.224022
11
63.551225
21
167.885718
0
LINE
8
annotation
62
1
39
211
10
64.008786
20
167.277271
11
64.008786
21
166.513895
0
LINE
8
annotation
62
1
39
211
10
65.730877
20
167.199807
11
64.980835
21
167.199807
0
LINE
8
annotation
62
1
39
211
10
66.245150
20
166.513981
11
66.549760
21
166.513981
0
LINE
8
annotation
62
1
39
211
10
66.549760
20
166.513981
11
66.549760
21
166.513981
0
LINE
8
annotation
62
1
39
211
10
66.549760
20
166.513981
11
66.604545
21
166.518896
0
LINE
8
annotation
62
1
39
211
10
66.604545
20
166.518896
11
66.656096
21
166.533060
0
LINE
8
annotation
62
1
39
211
10
66.656096
20
166.533060
11
66.703555
21
166.555604
0
LINE
8
annotation
62
1
39
211
10
66.703555
20
166.555604
11
66.746065
21
166.585659
0
LINE
8
annotation
62
1
39
211
10
66.746065
20
166.585659
11
66.782769
21
166.622355
0
LINE
8
annotation
62
1
39
211
10
66.782769
20
166.622355
11
66.812809
21
166.664822
0
LINE
8
annotation
62
1
39
211
10
66.812809
20
166.664822
11
66.835327
21
166.712192
0
LINE
8
annotation
62
1
39
211
10
66.835327
20
166.712192
11
66.849467
21
166.763595
0
LINE
8
annotation
62
1
39
211
10
66.849467
20
166.763595
11
66.854371
21
166.818162
0
LINE
8
annotation
62
1
39
211
10
66.854371
20
166.818162
11
66.854371
21
166.970682
0
LINE
8
annotation
62
1
39
211
10
66.854371
20
166.970682
11
66.854371
21
166.970682
0
LINE
8
annotation
62
1
39
211
10
66.854371
20
166.970682
11
66.849467
21
167.025226
0
LINE
8
annotation
62
1
39
211
10
66.849467
20
167.025226
11
66.835327
21
167.076616
0
LINE
8
annotation
62
1
39
211
10
66.835327
20
167.076616
11
66.812809
21
167.123983
0
LINE
8
annotation
62
1
39
211
10
66.812809
20
167.123983
11
66.782769
21
167.166454
0
LINE
8
annotation
62
1
39
211
10
66.782769
20
167.166454
11
66.746065
21
167.203157
0
LINE
8
annotation
62
1
39
211
10
66.746065
20
167.203157
11
66.703555
21
167.233221
0
LINE
8
annotation
62
1
39
211
10
66.703555
20
167.233221
11
66.656096
21
167.255774
0
LINE
8
annotation
62
1
39
211
10
66.656096
20
167.255774
11
66.604545
21
167.269945
0
LINE
8
annotation
62
1
39
211
10
66.604545
20
167.269945
11
66.549760
21
167.274863
0
LINE
8
annotation
62
1
39
211
10
66.549760
20
167.274863
11
66.397240
21
167.274863
0
LINE
8
annotation
62
1
39
211
10
66.397240
20
167.274863
11
66.549760
21
167.274863
0
LINE
8
annotation
62
1
39
211
10
66.549760
20
167.274863
11
66.549760
21
167.274863
0
LINE
8
annotation
62
1
39
211
10
66.549760
20
167.274863
11
66.604545
21
167.279781
0
LINE
8
annotation
62
1
39
211
10
66.604545
20
167.279781
11
66.656096
21
167.293961
0
LINE
8
annotation
62
1
39
211
10
66.656096
20
167.293961
11
66.703555
21
167.316536
0
LINE
8
annotation
62
1
39
211
10
66.703555
20
167.316536
11
66.746065
21
167.346644
0
LINE
8
annotation
62
1
39
211
10
66.746065
20
167.346644
11
66.782769
21
167.383419
0
LINE
8
annotation
62
1
39
211
10
66.782769
20
167.383419
11
66.812809
21
167.425997
0
LINE
8
annotation
62
1
39
211
10
66.812809
20
167.425997
11
66.835327
21
167.473513
0
LINE
8
annotation
62
1
39
211
10
66.835327
20
167.473513
11
66.849467
21
167.525104
0
LINE
8
annotation
62
1
39
211
10
66.849467
20
167.525104
11
66.854371
21
167.579903
0
LINE
8
annotation
62
1
39
211
10
66.854371
20
167.579903
11
66.854371
21
167.579903
0
LINE
8
annotation
62
1
39
211
10
66.854371
20
167.579903
11
66.849467
21
167.634447
0
LINE
8
annotation
62
1
39
211
10
66.849467
20
167.634447
11
66.835327
21
167.685838
0
LINE
8
annotation
62
1
39
211
10
66.835327
20
167.685838
11
66.812809
21
167.733204
0
LINE
8
annotation
62
1
39
211
10
66.812809
20
167.733204
11
66.782769
21
167.775675
0
LINE
8
annotation
62
1
39
211
10
66.782769
20
167.775675
11
66.746065
21
167.812378
0
LINE
8
annotation
62
1
39
211
10
66.746065
20
167.812378
11
66.703555
21
167.842442
0
LINE
8
annotation
62
1
39
211
10
66.703555
20
167.842442
11
66.656096
21
167.864995
0
LINE
8
annotation
62
1
39
211
10
66.656096
20
167.864995
11
66.604545
21
167.879166
0
LINE
8
annotation
62
1
39
211
10
66.604545
20
167.879166
11
66.549760
21
167.884084
0
LINE
8
annotation
62
1
39
211
10
66.549760
20
167.884084
11
66.245150
21
167.884084
0
LINE
8
annotation
62
1
39
211
10
68.118944
20
167.199807
11
67.368901
21
167.199807
0
LINE
8
annotation
62
1
39
211
10
69.242541
20
166.513927
11
68.633320
21
166.513927
0
LINE
8
annotation
62
1
39
211
10
68.633320
20
166.513927
11
69.196260
21
167.420189
0
LINE
8
annotation
62
1
39
211
10
69.196260
20
167.420189
11
69.196260
21
167.420189
0
LINE
8
annotation
62
1
39
211
10
69.196260
20
167.420189
11
69.196933
21
167.421021
0
LINE
8
annotation
62
1
39
211
10
69.196933
20
167.421021
11
69.197578
21
167.421861
0
LINE
8
annotation
62
1
39
211
10
69.197578
20
167.421861
11
69.198200
21
167.422715
0
LINE
8
annotation
62
1
39
211
10
69.198200
20
167.422715
11
69.198803
21
167.423591
0
LINE
8
annotation
62
1
39
211
10
69.198803
20
167.423591
11
69.199391
21
167.424494
0
LINE
8
annotation
62
1
39
211
10
69.199391
20
167.424494
11
69.199969
21
167.425433
0
LINE
8
annotation
62
1
39
211
10
69.199969
20
167.425433
11
69.200540
21
167.426414
0
LINE
8
annotation
62
1
39
211
10
69.200540
20
167.426414
11
69.201109
21
167.427445
0
LINE
8
annotation
62
1
39
211
10
69.201109
20
167.427445
11
69.201680
21
167.428533
0
LINE
8
annotation
62
1
39
211
10
69.201680
20
167.428533
11
69.201680
21
167.428533
0
LINE
8
annotation
62
1
39
211
10
69.201680
20
167.428533
11
69.224923
21
167.478439
0
LINE
8
annotation
62
1
39
211
10
69.224923
20
167.478439
11
69.238502
21
167.530171
0
LINE
8
annotation
62
1
39
211
10
69.238502
20
167.530171
11
69.242748
21
167.582560
0
LINE
8
annotation
62
1
39
211
10
69.242748
20
167.582560
11
69.237995
21
167.634438
0
LINE
8
annotation
62
1
39
211
10
69.237995
20
167.634438
11
69.224574
21
167.684634
0
LINE
8
annotation
62
1
39
211
10
69.224574
20
167.684634
11
69.202820
21
167.731981
0
LINE
8
annotation
62
1
39
211
10
69.202820
20
167.731981
11
69.173065
21
167.775309
0
LINE
8
annotation
62
1
39
211
10
69.173065
20
167.775309
11
69.135641
21
167.813449
0
LINE
8
annotation
62
1
39
211
10
69.135641
20
167.813449
11
69.090881
21
167.845233
0
LINE
8
annotation
62
1
39
211
10
69.090881
20
167.845233
11
69.090881
21
167.845233
0
LINE
8
annotation
62
1
39
211
10
69.090881
20
167.845233
11
69.040836
21
167.868146
0
LINE
8
annotation
62
1
39
211
10
69.040836
20
167.868146
11
68.989024
21
167.881516
0
LINE
8
annotation
62
1
39
211
10
68.989024
20
167.881516
11
68.936605
21
167.885642
0
LINE
8
annotation
62
1
39
211
10
68.936605
20
167.885642
11
68.884735
21
167.880826
0
LINE
8
annotation
62
1
39
211
10
68.884735
20
167.880826
11
68.834574
21
167.867368
0
LINE
8
annotation
62
1
39
211
10
68.834574
20
167.867368
11
68.787280
21
167.845571
0
LINE
8
annotation
62
1
39
211
10
68.787280
20
167.845571
11
68.744011
21
167.815733
0
LINE
8
annotation
62
1
39
211
10
68.744011
20
167.815733
11
68.705925
21
167.778157
0
LINE
8
annotation
62
1
39
211
10
68.705925
20
167.778157
11
68.674181
21
167.733144
0
LINE
8
annotation
62
1
39
211
10
68.674181
20
167.733144
11
68.634180
21
167.656410
0
LINE
8
hole
62
5
39
2
10
122.237505
20
11.747501
11
119.243934
21
11.747502
0
LINE
8
hole
62
5
39
2
10
119.243934
20
11.747502
11
94.297502
21
11.747501
0
LINE
8
hole
62
5
39
2
10
94.297502
20
11.747501
11
94.297502
21
12.785682
0
LINE
8
hole
62
5
39
2
10
94.297502
20
12.785682
11
91.884501
21
13.010726
0
LINE
8
hole
62
5
39
2
10
91.884501
20
13.010726
11
91.884501
21
17.257606
0
LINE
8
hole
62
5
39
2
10
91.884501
20
17.257606
11
94.212158
21
17.257606
0
LINE
8
hole
62
5
39
2
10
94.212158
20
17.257606
11
94.297502
21
29.719013
0
LINE
8
hole
62
5
39
2
10
94.297502
20
29.719013
11
91.884501
21
29.944057
0
LINE
8
hole
62
5
39
2
10
91.884501
20
29.944057
11
91.884501
21
34.190937
0
LINE
8
hole
62
5
39
2
10
91.884501
20
34.190937
11
94.212158
21
34.190937
0
LINE
8
hole
62
5
39
2
10
94.212158
20
34.190937
11
94.297502
21
46.652345
0
LINE
8
hole
62
5
39
2
10
94.297502
20
46.652345
11
91.884501
21
46.877388
0
LINE
8
hole
62
5
39
2
10
91.884501
20
46.877388
11
91.884501
21
51.124268
0
LINE
8
hole
62
5
39
2
10
91.884501
20
51.124268
11
94.212158
21
51.124268
0
LINE
8
hole
62
5
39
2
10
94.212158
20
51.124268
11
94.297502
21
52.387499
0
LINE
8
hole
62
5
39
2
10
94.297502
20
52.387499
11
97.291073
21
52.387499
0
LINE
8
hole
62
5
39
2
10
97.291073
20
52.387499
11
122.237505
21
52.387499
0
LINE
8
hole
62
5
39
2
10
122.237505
20
52.387499
11
122.237505
21
16.101786
0
LINE
8
hole
62
5
39
2
10
122.237505
20
16.101786
11
122.237505
21
11.747501
0
LINE
8
boundary
62
5
39
2
10
89.217500
20
15.134166
11
89.217500
21
6.667500
0
LINE
8
boundary
62
5
39
2
10
89.217500
20
6.667500
11
95.567501
21
6.667500
0
LINE
8
boundary
62
5
39
2
10
95.567501
20
6.667500
11
127.317501
21
6.667500
0
LINE
8
boundary
62
5
39
2
10
127.317501
20
6.667500
11
127.317501
21
12.785682
0
LINE
8
boundary
62
5
39
2
10
127.317501
20
12.785682
11
124.904503
21
13.010726
0
LINE
8
boundary
62
5
39
2
10
124.904503
20
13.010726
11
124.904503
21
17.257606
0
LINE
8
boundary
62
5
39
2
10
124.904503
20
17.257606
11
127.232157
21
17.257606
0
LINE
8
boundary
62
5
39
2
10
127.232157
20
17.257606
11
127.317500
21
29.719013
0
LINE
8
boundary
62
5
39
2
10
127.317500
20
29.719013
11
124.904503
21
29.944057
0
LINE
8
boundary
62
5
39
2
10
124.904503
20
29.944057
11
124.904503
21
34.190937
0
LINE
8
boundary
62
5
39
2
10
124.904503
20
34.190937
11
127.232156
21
34.190937
0
LINE
8
boundary
62
5
39
2
10
127.232156
20
34.190937
11
127.317500
21
46.652344
0
LINE
8
boundary
62
5
39
2
10
127.317500
20
46.652344
11
124.904503
21
46.877388
0
LINE
8
boundary
62
5
39
2
10
124.904503
20
46.877388
11
124.904503
21
51.124268
0
LINE
8
boundary
62
5
39
2
10
124.904503
20
51.124268
11
127.232156
21
51.124268
0
LINE
8
boundary
62
5
39
2
10
127.232156
20
51.124268
11
127.317501
21
57.467494
0
LINE
8
boundary
62
5
39
2
10
127.317501
20
57.467494
11
120.967500
21
57.467494
0
LINE
8
boundary
62
5
39
2
10
120.967500
20
57.467494
11
89.217500
21
57.467494
0
LINE
8
boundary
62
5
39
2
10
89.217500
20
57.467494
11
89.217500
21
15.134166
0
LINE
8
annotation
62
1
39
211
10
89.773877
20
16.063696
11
89.773877
21
17.805340
0
LINE
8
annotation
62
1
39
211
10
89.773877
20
17.805340
11
89.386688
21
17.418041
0
LINE
8
annotation
62
1
39
211
10
122.793882
20
16.063697
11
122.793882
21
17.805339
0
LINE
8
annotation
62
1
39
211
10
122.793882
20
17.805339
11
122.406692
21
17.418040
0
LINE
8
annotation
62
1
39
211
10
90.129576
20
33.076093
11
89.426312
21
33.076093
0
LINE
8
annotation
62
1
39
211
10
89.426312
20
33.076093
11
90.076151
21
34.122251
0
LINE
8
annotation
62
1
39
211
10
90.076151
20
34.122251
11
90.076151
21
34.122251
0
LINE
8
annotation
62
1
39
211
10
90.076151
20
34.122251
11
90.076928
21
34.123212
0
LINE
8
annotation
62
1
39
211
10
90.076928
20
34.123212
11
90.077673
21
34.124181
0
LINE
8
annotation
62
1
39
211
10
90.077673
20
34.124181
11
90.078391
21
34.125167
0
LINE
8
annotation
62
1
39
211
10
90.078391
20
34.125167
11
90.079087
21
34.126178
0
LINE
8
annotation
62
1
39
211
10
90.079087
20
34.126178
11
90.079765
21
34.127221
0
LINE
8
annotation
62
1
39
211
10
90.079765
20
34.127221
11
90.080432
21
34.128305
0
LINE
8
annotation
62
1
39
211
10
90.080432
20
34.128305
11
90.081091
21
34.129437
0
LINE
8
annotation
62
1
39
211
10
90.081091
20
34.129437
11
90.081748
21
34.130628
0
LINE
8
annotation
62
1
39
211
10
90.081748
20
34.130628
11
90.082407
21
34.131883
0
LINE
8
annotation
62
1
39
211
10
90.082407
20
34.131883
11
90.082407
21
34.131883
0
LINE
8
annotation
62
1
39
211
10
90.082407
20
34.131883
11
90.109239
21
34.189493
0
LINE
8
annotation
62
1
39
211
10
90.109239
20
34.189493
11
90.124913
21
34.249211
0
LINE
8
annotation
62
1
39
211
10
90.124913
20
34.249211
11
90.129815
21
34.309687
0
LINE
8
annotation
62
1
39
211
10
90.129815
20
34.309687
11
90.124328
21
34.369572
0
LINE
8
annotation
62
1
39
211
10
90.124328
20
34.369572
11
90.108836
21
34.427518
0
LINE
8
annotation
62
1
39
211
10
90.108836
20
34.427518
11
90.083724
21
34.482173
0
LINE
8
annotation
62
1
39
211
10
90.083724
20
34.482173
11
90.049375
21
34.532189
0
LINE
8
annotation
62
1
39
211
10
90.049375
20
34.532189
11
90.006174
21
34.576217
0
LINE
8
annotation
62
1
39
211
10
90.006174
20
34.576217
11
89.954505
21
34.612907
0
LINE
8
annotation
62
1
39
211
10
89.954505
20
34.612907
11
89.954505
21
34.612907
0
LINE
8
annotation
62
1
39
211
10
89.954505
20
34.612907
11
89.896735
21
34.639358
0
LINE
8
annotation
62
1
39
211
10
89.896735
20
34.639358
11
89.836925
21
34.654791
0
LINE
8
annotation
62
1
39
211
10
89.836925
20
34.654791
11
89.776414
21
34.659554
0
LINE
8
annotation
62
1
39
211
10
89.776414
20
34.659554
11
89.716537
21
34.653994
0
LINE
8
annotation
62
1
39
211
10
89.716537
20
34.653994
11
89.658633
21
34.638460
0
LINE
8
annotation
62
1
39
211
10
89.658633
20
34.638460
11
89.604038
21
34.613297
0
LINE
8
annotation
62
1
39
211
10
89.604038
20
34.613297
11
89.554090
21
34.578854
0
LINE
8
annotation
62
1
39
211
10
89.554090
20
34.578854
11
89.510125
21
34.535478
0
LINE
8
annotation
62
1
39
211
10
89.510125
20
34.535478
11
89.473481
21
34.483515
0
LINE
8
annotation
62
1
39
211
10
89.473481
20
34.483515
11
89.427305
21
34.394937
0
LINE
8
annotation
62
1
39
211
10
123.149580
20
31.275742
11
122.446316
21
31.275742
0
LINE
8
annotation
62
1
39
211
10
122.446316
20
31.275742
11
123.096155
21
32.321898
0
LINE
8
annotation
62
1
39
211
10
123.096155
20
32.321898
11
123.096155
21
32.321898
0
LINE
8
annotation
62
1
39
211
10
123.096155
20
32.321898
11
123.096932
21
32.322860
0
LINE
8
annotation
62
1
39
211
10
123.096932
20
32.322860
11
123.097677
21
32.323829
0
LINE
8
annotation
62
1
39
211
10
123.097677
20
32.323829
11
123.098395
21
32.324815
0
LINE
8
annotation
62
1
39
211
10
123.098395
20
32.324815
11
123.099091
21
32.325825
0
LINE
8
annotation
62
1
39
211
10
123.099091
20
32.325825
11
123.099769
21
32.326868
0
LINE
8
annotation
62
1
39
211
10
123.099769
20
32.326868
11
123.100436
21
32.327952
0
LINE
8
annotation
62
1
39
211
10
123.100436
20
32.327952
11
123.101095
21
32.329085
0
LINE
8
annotation
62
1
39
211
10
123.101095
20
32.329085
11
123.101752
21
32.330275
0
LINE
8
annotation
62
1
39
211
10
123.101752
20
32.330275
11
123.102411
21
32.331531
0
LINE
8
annotation
62
1
39
211
10
123.102411
20
32.331531
11
123.102411
21
32.331531
0
LINE
8
annotation
62
1
39
211
10
123.102411
20
32.331531
11
123.129243
21
32.389141
0
LINE
8
annotation
62
1
39
211
10
123.129243
20
32.389141
11
123.144917
21
32.448858
0
LINE
8
annotation
62
1
39
211
10
123.144917
20
32.448858
11
123.149819
21
32.509335
0
LINE
8
annotation
62
1
39
211
10
123.149819
20
32.509335
11
123.144332
21
32.569220
0
LINE
8
annotation
62
1
39
211
10
123.144332
20
32.569220
11
123.128840
21
32.627165
0
LINE
8
annotation
62
1
39
211
10
123.128840
20
32.627165
11
123.103728
21
32.681820
0
LINE
8
annotation
62
1
39
211
10
123.103728
20
32.681820
11
123.069379
21
32.731836
0
LINE
8
annotation
62
1
39
211
10
123.069379
20
32.731836
11
123.026178
21
32.775864
0
LINE
8
annotation
62
1
39
211
10
123.026178
20
32.775864
11
122.974509
21
32.812554
0
LINE
8
annotation
62
1
39
211
10
122.974509
20
32.812554
11
122.974509
21
32.812554
0
LINE
8
annotation
62
1
39
211
10
122.974509
20
32.812554
11
122.916739
21
32.839005
0
LINE
8
annotation
62
1
39
211
10
122.916739
20
32.839005
11
122.856929
21
32.854438
0
LINE
8
annotation
62
1
39
211
10
122.856929
20
32.854438
11
122.796418
21
32.859201
0
LINE
8
annotation
62
1
39
211
10
122.796418
20
32.859201
11
122.736542
21
32.853642
0
LINE
8
annotation
62
1
39
211
10
122.736542
20
32.853642
11
122.678638
21
32.838107
0
LINE
8
annotation
62
1
39
211
10
122.678638
20
32.838107
11
122.624043
21
32.812944
0
LINE
8
annotation
62
1
39
211
10
122.624043
20
32.812944
11
122.574094
21
32.778501
0
LINE
8
annotation
62
1
39
211
10
122.574094
20
32.778501
11
122.530130
21
32.735125
0
LINE
8
annotation
62
1
39
211
10
122.530130
20
32.735125
11
122.493485
21
32.683163
0
LINE
8
annotation
62
1
39
211
10
122.493485
20
32.683163
11
122.447309
21
32.594584
0
LINE
8
annotation
62
1
39
211
10
89.426168
20
50.009438
11
89.777821
21
50.009438
0
LINE
8
annotation
62
1
39
211
10
89.777821
20
50.009438
11
89.777821
21
50.009438
0
LINE
8
annotation
62
1
39
211
10
89.777821
20
50.009438
11
89.841067
21
50.015111
0
LINE
8
annotation
62
1
39
211
10
89.841067
20
50.015111
11
89.900579
21
50.031463
0
LINE
8
annotation
62
1
39
211
10
89.900579
20
50.031463
11
89.955368
21
50.057489
0
LINE
8
annotation
62
1
39
211
10
89.955368
20
50.057489
11
90.004443
21
50.092185
0
LINE
8
annotation
62
1
39
211
10
90.004443
20
50.092185
11
90.046815
21
50.134548
0
LINE
8
annotation
62
1
39
211
10
90.046815
20
50.134548
11
90.081494
21
50.183575
0
LINE
8
annotation
62
1
39
211
10
90.081494
20
50.183575
11
90.107491
21
50.238260
0
LINE
8
annotation
62
1
39
211
10
90.107491
20
50.238260
11
90.123814
21
50.297602
0
LINE
8
annotation
62
1
39
211
10
90.123814
20
50.297602
11
90.129475
21
50.360595
0
LINE
8
annotation
62
1
39
211
10
90.129475
20
50.360595
11
90.129475
21
50.536670
0
LINE
8
annotation
62
1
39
211
10
90.129475
20
50.536670
11
90.129475
21
50.536670
0
LINE
8
annotation
62
1
39
211
10
90.129475
20
50.536670
11
90.123814
21
50.599638
0
LINE
8
annotation
62
1
39
211
10
90.123814
20
50.599638
11
90.107491
21
50.658965
0
LINE
8
annotation
62
1
39
211
10
90.107491
20
50.658965
11
90.081494
21
50.713647
0
LINE
8
annotation
62
1
39
211
10
90.081494
20
50.713647
11
90.046815
21
50.762676
0
LINE
8
annotation
62
1
39
211
10
90.046815
20
50.762676
11
90.004443
21
50.805048
0
LINE
8
annotation
62
1
39
211
10
90.004443
20
50.805048
11
89.955368
21
50.839755
0
LINE
8
annotation
62
1
39
211
10
89.955368
20
50.839755
11
89.900579
21
50.865791
0
LINE
8
annotation
62
1
39
211
10
89.900579
20
50.865791
11
89.841067
21
50.882151
0
LINE
8
annotation
62
1
39
211
10
89.841067
20
50.882151
11
89.777821
21
50.887828
0
LINE
8
annotation
62
1
39
211
10
89.777821
20
50.887828
11
89.601746
21
50.887828
0
LINE
8
annotation
62
1
39
211
10
89.601746
20
50.887828
11
89.777821
21
50.887828
0
LINE
8
annotation
62
1
39
211
10
89.777821
20
50.887828
11
89.777821
21
50.887828
0
LINE
8
annotation
62
1
39
211
10
89.777821
20
50.887828
11
89.841067
21
50.893506
0
LINE
8
annotation
62
1
39
211
10
89.841067
20
50.893506
11
89.900579
21
50.909875
0
LINE
8
annotation
62
1
39
211
10
89.900579
20
50.909875
11
89.955368
21
50.935938
0
LINE
8
annotation
62
1
39
211
10
89.955368
20
50.935938
11
90.004443
21
50.970695
0
LINE
8
annotation
62
1
39
211
10
90.004443
20
50.970695
11
90.046815
21
51.013149
0
LINE
8
annotation
62
1
39
211
10
90.046815
20
51.013149
11
90.081494
21
51.062303
0
LINE
8
annotation
62
1
39
211
10
90.081494
20
51.062303
11
90.107491
21
51.117158
0
LINE
8
annotation
62
1
39
211
10
90.107491
20
51.117158
11
90.123814
21
51.176715
0
LINE
8
annotation
62
1
39
211
10
90.123814
20
51.176715
11
90.129475
21
51.239978
0
LINE
8
annotation
62
1
39
211
10
90.129475
20
51.239978
11
90.129475
21
51.239978
0
LINE
8
annotation
62
1
39
211
10
90.129475
20
51.239978
11
90.123814
21
51.302945
0
LINE
8
annotation
62
1
39
211
10
90.123814
20
51.302945
11
90.107491
21
51.362273
0
LINE
8
annotation
62
1
39
211
10
90.107491
20
51.362273
11
90.081494
21
51.416955
0
LINE
8
annotation
62
1
39
211
10
90.081494
20
51.416955
11
90.046815
21
51.465984
0
LINE
8
annotation
62
1
39
211
10
90.046815
20
51.465984
11
90.004443
21
51.508356
0
LINE
8
annotation
62
1
39
211
10
90.004443
20
51.508356
11
89.955368
21
51.543063
0
LINE
8
annotation
62
1
39
211
10
89.955368
20
51.543063
11
89.900579
21
51.569099
0
LINE
8
annotation
62
1
39
211
10
89.900579
20
51.569099
11
89.841067
21
51.585459
0
LINE
8
annotation
62
1
39
211
10
89.841067
20
51.585459
11
89.777821
21
51.591136
0
LINE
8
annotation
62
1
39
211
10
89.777821
20
51.591136
11
89.426168
21
51.591136
0
LINE
8
annotation
62
1
39
211
10
122.446172
20
48.209087
11
122.797826
21
48.209087
0
LINE
8
annotation
62
1
39
211
10
122.797826
20
48.209087
11
122.797826
21
48.209087
0
LINE
8
annotation
62
1
39
211
10
122.797826
20
48.209087
11
122.861072
21
48.214760
0
LINE
8
annotation
62
1
39
211
10
122.861072
20
48.214760
11
122.920584
21
48.231112
0
LINE
8
annotation
62
1
39
211
10
122.920584
20
48.231112
11
122.975372
21
48.257138
0
LINE
8
annotation
62
1
39
211
10
122.975372
20
48.257138
11
123.024447
21
48.291834
0
LINE
8
annotation
62
1
39
211
10
123.024447
20
48.291834
11
123.066819
21
48.334197
0
LINE
8
annotation
62
1
39
211
10
123.066819
20
48.334197
11
123.101498
21
48.383223
0
LINE
8
annotation
62
1
39
211
10
123.101498
20
48.383223
11
123.127495
21
48.437909
0
LINE
8
annotation
62
1
39
211
10
123.127495
20
48.437909
11
123.143818
21
48.497250
0
LINE
8
annotation
62
1
39
211
10
123.143818
20
48.497250
11
123.149479
21
48.560244
0
LINE
8
annotation
62
1
39
211
10
123.149479
20
48.560244
11
123.149479
21
48.736319
0
LINE
8
annotation
62
1
39
211
10
123.149479
20
48.736319
11
123.149479
21
48.736319
0
LINE
8
annotation
62
1
39
211
10
123.149479
20
48.736319
11
123.143818
21
48.799286
0
LINE
8
annotation
62
1
39
211
10
123.143818
20
48.799286
11
123.127495
21
48.858613
0
LINE
8
annotation
62
1
39
211
10
123.127495
20
48.858613
11
123.101498
21
48.913295
0
LINE
8
annotation
62
1
39
211
10
123.101498
20
48.913295
11
123.066819
21
48.962324
0
LINE
8
annotation
62
1
39
211
10
123.066819
20
48.962324
11
123.024447
21
49.004696
0
LINE
8
annotation
62
1
39
211
10
123.024447
20
49.004696
11
122.975372
21
49.039403
0
LINE
8
annotation
62
1
39
211
10
122.975372
20
49.039403
11
122.920584
21
49.065439
0
LINE
8
annotation
62
1
39
211
10
122.920584
20
49.065439
11
122.861072
21
49.081799
0
LINE
8
annotation
62
1
39
211
10
122.861072
20
49.081799
11
122.797826
21
49.087476
0
LINE
8
annotation
62
1
39
211
10
122.797826
20
49.087476
11
122.621751
21
49.087476
0
LINE
8
annotation
62
1
39
211
10
122.621751
20
49.087476
11
122.797826
21
49.087476
0
LINE
8
annotation
62
1
39
211
10
122.797826
20
49.087476
11
122.797826
21
49.087476
0
LINE
8
annotation
62
1
39
211
10
122.797826
20
49.087476
11
122.861072
21
49.093154
0
LINE
8
annotation
62
1
39
211
10
122.861072
20
49.093154
11
122.920584
21
49.109523
0
LINE
8
annotation
62
1
39
211
10
122.920584
20
49.109523
11
122.975372
21
49.135585
0
LINE
8
annotation
62
1
39
211
10
122.975372
20
49.135585
11
123.024447
21
49.170343
0
LINE
8
annotation
62
1
39
211
10
123.024447
20
49.170343
11
123.066819
21
49.212797
0
LINE
8
annotation
62
1
39
211
10
123.066819
20
49.212797
11
123.101498
21
49.261951
0
LINE
8
annotation
62
1
39
211
10
123.101498
20
49.261951
11
123.127495
21
49.316805
0
LINE
8
annotation
62
1
39
211
10
123.127495
20
49.316805
11
123.143818
21
49.376363
0
LINE
8
annotation
62
1
39
211
10
123.143818
20
49.376363
11
123.149479
21
49.439626
0
LINE
8
annotation
62
1
39
211
10
123.149479
20
49.439626
11
123.149479
21
49.439626
0
LINE
8
annotation
62
1
39
211
10
123.149479
20
49.439626
11
123.143818
21
49.502593
0
LINE
8
annotation
62
1
39
211
10
123.143818
20
49.502593
11
123.127495
21
49.561920
0
LINE
8
annotation
62
1
39
211
10
123.127495
20
49.561920
11
123.101498
21
49.616602
0
LINE
8
annotation
62
1
39
211
10
123.101498
20
49.616602
11
123.066819
21
49.665631
0
LINE
8
annotation
62
1
39
211
10
123.066819
20
49.665631
11
123.024447
21
49.708003
0
LINE
8
annotation
62
1
39
211
10
123.024447
20
49.708003
11
122.975372
21
49.742710
0
LINE
8
annotation
62
1
39
211
10
122.975372
20
49.742710
11
122.920584
21
49.768746
0
LINE
8
annotation
62
1
39
211
10
122.920584
20
49.768746
11
122.861072
21
49.785106
0
LINE
8
annotation
62
1
39
211
10
122.861072
20
49.785106
11
122.797826
21
49.790783
0
LINE
8
annotation
62
1
39
211
10
122.797826
20
49.790783
11
122.446172
21
49.790783
0
LINE
8
annotation
62
1
39
211
10
105.202812
20
54.174055
11
104.187272
21
54.174055
0
LINE
8
annotation
62
1
39
211
10
104.187272
20
54.174055
11
105.202812
21
56.003038
0
LINE
8
annotation
62
1
39
211
10
105.202812
20
56.003038
11
104.187272
21
56.003038
0
LINE
8
annotation
62
1
39
211
10
106.888909
20
55.088546
11
105.888853
21
55.088546
0
LINE
8
annotation
62
1
39
211
10
107.981269
20
54.174055
11
107.981269
21
56.003038
0
LINE
8
annotation
62
1
39
211
10
107.981269
20
56.003038
11
107.574663
21
55.596317
0
LINE
8
annotation
62
1
39
211
10
109.667309
20
55.088546
11
108.667253
21
55.088546
0
LINE
8
annotation
62
1
39
211
10
110.759669
20
54.174055
11
110.759669
21
56.003038
0
LINE
8
annotation
62
1
39
211
10
110.759669
20
56.003038
11
110.353063
21
55.596317
0
LINE
8
hole
62
5
39
2
10
163.512506
20
11.747501
11
150.540362
21
11.747502
0
LINE
8
hole
62
5
39
2
10
150.540362
20
11.747502
11
135.572502
21
11.747501
0
LINE
8
hole
62
5
39
2
10
135.572502
20
11.747501
11
135.572502
21
12.785682
0
LINE
8
hole
62
5
39
2
10
135.572502
20
12.785682
11
133.159501
21
13.010726
0
LINE
8
hole
62
5
39
2
10
133.159501
20
13.010726
11
133.159501
21
17.257606
0
LINE
8
hole
62
5
39
2
10
133.159501
20
17.257606
11
135.487158
21
17.257606
0
LINE
8
hole
62
5
39
2
10
135.487158
20
17.257606
11
135.572502
21
29.719013
0
LINE
8
hole
62
5
39
2
10
135.572502
20
29.719013
11
133.159501
21
29.944057
0
LINE
8
hole
62
5
39
2
10
133.159501
20
29.944057
11
133.159501
21
34.190937
0
LINE
8
hole
62
5
39
2
10
133.159501
20
34.190937
11
135.487158
21
34.190937
0
LINE
8
hole
62
5
39
2
10
135.487158
20
34.190937
11
135.572502
21
46.652344
0
LINE
8
hole
62
5
39
2
10
135.572502
20
46.652344
11
133.159501
21
46.877388
0
LINE
8
hole
62
5
39
2
10
133.159501
20
46.877388
11
133.159501
21
51.124268
0
LINE
8
hole
62
5
39
2
10
133.159501
20
51.124268
11
135.487158
21
51.124268
0
LINE
8
hole
62
5
39
2
10
135.487158
20
51.124268
11
135.572502
21
52.387499
0
LINE
8
hole
62
5
39
2
10
135.572502
20
52.387499
11
148.544647
21
52.387499
0
LINE
8
hole
62
5
39
2
10
148.544647
20
52.387499
11
163.512506
21
52.387499
0
LINE
8
hole
62
5
39
2
10
163.512506
20
52.387499
11
163.512506
21
30.616071
0
LINE
8
hole
62
5
39
2
10
163.512506
20
30.616071
11
163.512506
21
11.747501
0
LINE
8
boundary
62
5
39
2
10
130.492501
20
32.067497
11
130.492501
21
6.667500
0
LINE
8
boundary
62
5
39
2
10
130.492501
20
6.667500
11
149.542501
21
6.667500
0
LINE
8
boundary
62
5
39
2
10
149.542501
20
6.667500
11
168.592501
21
6.667500
0
LINE
8
boundary
62
5
39
2
10
168.592501
20
6.667500
11
168.592501
21
12.785682
0
LINE
8
boundary
62
5
39
2
10
168.592501
20
12.785682
11
166.179503
21
13.010726
0
LINE
8
boundary
62
5
39
2
10
166.179503
20
13.010726
11
166.179503
21
17.257606
0
LINE
8
boundary
62
5
39
2
10
166.179503
20
17.257606
11
168.507157
21
17.257606
0
LINE
8
boundary
62
5
39
2
10
168.507157
20
17.257606
11
168.592501
21
29.719013
0
LINE
8
boundary
62
5
39
2
10
168.592501
20
29.719013
11
166.179503
21
29.944057
0
LINE
8
boundary
62
5
39
2
10
166.179503
20
29.944057
11
166.179503
21
34.190937
0
LINE
8
boundary
62
5
39
2
10
166.179503
20
34.190937
11
168.507157
21
34.190937
0
LINE
8
boundary
62
5
39
2
10
168.507157
20
34.190937
11
168.592501
21
46.652344
0
LINE
8
boundary
62
5
39
2
10
168.592501
20
46.652344
11
166.179503
21
46.877388
0
LINE
8
boundary
62
5
39
2
10
166.179503
20
46.877388
11
166.179503
21
51.124268
0
LINE
8
boundary
62
5
39
2
10
166.179503
20
51.124268
11
168.507157
21
51.124268
0
LINE
8
boundary
62
5
39
2
10
168.507157
20
51.124268
11
168.592501
21
57.467494
0
LINE
8
boundary
62
5
39
2
10
168.592501
20
57.467494
11
149.542501
21
57.467494
0
LINE
8
boundary
62
5
39
2
10
149.542501
20
57.467494
11
130.492501
21
57.467494
0
LINE
8
boundary
62
5
39
2
10
130.492501
20
57.467494
11
130.492501
21
32.067497
0
LINE
8
annotation
62
1
39
211
10
131.048878
20
16.063696
11
131.048878
21
17.805340
0
LINE
8
annotation
62
1
39
211
10
131.048878
20
17.805340
11
130.661688
21
17.418041
0
LINE
8
annotation
62
1
39
211
10
164.068882
20
16.063697
11
164.068882
21
17.805339
0
LINE
8
annotation
62
1
39
211
10
164.068882
20
17.805339
11
163.681693
21
17.418040
0
LINE
8
annotation
62
1
39
211
10
131.404576
20
33.076093
11
130.701312
21
33.076093
0
LINE
8
annotation
62
1
39
211
10
130.701312
20
33.076093
11
131.351151
21
34.122251
0
LINE
8
annotation
62
1
39
211
10
131.351151
20
34.122251
11
131.351151
21
34.122251
0
LINE
8
annotation
62
1
39
211
10
131.351151
20
34.122251
11
131.351928
21
34.123212
0
LINE
8
annotation
62
1
39
211
10
131.351928
20
34.123212
11
131.352673
21
34.124181
0
LINE
8
annotation
62
1
39
211
10
131.352673
20
34.124181
11
131.353391
21
34.125167
0
LINE
8
annotation
62
1
39
211
10
131.353391
20
34.125167
11
131.354087
21
34.126178
0
LINE
8
annotation
62
1
39
211
10
131.354087
20
34.126178
11
131.354766
21
34.127221
0
LINE
8
annotation
62
1
39
211
10
131.354766
20
34.127221
11
131.355432
21
34.128305
0
LINE
8
annotation
62
1
39
211
10
131.355432
20
34.128305
11
131.356092
21
34.129437
0
LINE
8
annotation
62
1
39
211
10
131.356092
20
34.129437
11
131.356748
21
34.130628
0
LINE
8
annotation
62
1
39
211
10
131.356748
20
34.130628
11
131.357407
21
34.131883
0
LINE
8
annotation
62
1
39
211
10
131.357407
20
34.131883
11
131.357407
21
34.131883
0
LINE
8
annotation
62
1
39
211
10
131.357407
20
34.131883
11
131.384239
21
34.189493
0
LINE
8
annotation
62
1
39
211
10
131.384239
20
34.189493
11
131.399914
21
34.249211
0
LINE
8
annotation
62
1
39
211
10
131.399914
20
34.249211
11
131.404815
21
34.309687
0
LINE
8
annotation
62
1
39
211
10
131.404815
20
34.309687
11
131.399328
21
34.369572
0
LINE
8
annotation
62
1
39
211
10
131.399328
20
34.369572
11
131.383836
21
34.427518
0
LINE
8
annotation
62
1
39
211
10
131.383836
20
34.427518
11
131.358724
21
34.482173
0
LINE
8
annotation
62
1
39
211
10
131.358724
20
34.482173
11
131.324375
21
34.532189
0
LINE
8
annotation
62
1
39
211
10
131.324375
20
34.532189
11
131.281174
21
34.576217
0
LINE
8
annotation
62
1
39
211
10
131.281174
20
34.576217
11
131.229505
21
34.612907
0
LINE
8
annotation
62
1
39
211
10
131.229505
20
34.612907
11
131.229505
21
34.612907
0
LINE
8
annotation
62
1
39
211
10
131.229505
20
34.612907
11
131.171735
21
34.639358
0
LINE
8
annotation
62
1
39
211
10
131.171735
20
34.639358
11
131.111926
21
34.654791
0
LINE
8
annotation
62
1
39
211
10
131.111926
20
34.654791
11
131.051414
21
34.659554
0
LINE
8
annotation
62
1
39
211
10
131.051414
20
34.659554
11
130.991538
21
34.653994
0
LINE
8
annotation
62
1
39
211
10
130.991538
20
34.653994
11
130.933634
21
34.638460
0
LINE
8
annotation
62
1
39
211
10
130.933634
20
34.638460
11
130.879039
21
34.613297
0
LINE
8
annotation
62
1
39
211
10
130.879039
20
34.613297
11
130.829090
21
34.578854
0
LINE
8
annotation
62
1
39
211
10
130.829090
20
34.578854
11
130.785125
21
34.535478
0
LINE
8
annotation
62
1
39
211
10
130.785125
20
34.535478
11
130.748481
21
34.483515
0
LINE
8
annotation
62
1
39
211
10
130.748481
20
34.483515
11
130.702305
21
34.394937
0
LINE
8
annotation
62
1
39
211
10
164.424580
20
31.275742
11
163.721317
21
31.275742
0
LINE
8
annotation
62
1
39
211
10
163.721317
20
31.275742
11
164.371155
21
32.321898
0
LINE
8
annotation
62
1
39
211
10
164.371155
20
32.321898
11
164.371155
21
32.321898
0
LINE
8
annotation
62
1
39
211
10
164.371155
20
32.321898
11
164.371932
21
32.322860
0
LINE
8
annotation
62
1
39
211
10
164.371932
20
32.322860
11
164.372677
21
32.323829
0
LINE
8
annotation
62
1
39
211
10
164.372677
20
32.323829
11
164.373395
21
32.324815
0
LINE
8
annotation
62
1
39
211
10
164.373395
20
32.324815
11
164.374091
21
32.325825
0
LINE
8
annotation
62
1
39
211
10
164.374091
20
32.325825
11
164.374770
21
32.326868
0
LINE
8
annotation
62
1
39
211
10
164.374770
20
32.326868
11
164.375436
21
32.327952
0
LINE
8
annotation
62
1
39
211
10
164.375436
20
32.327952
11
164.376095
21
32.329085
0
LINE
8
annotation
62
1
39
211
10
164.376095
20
32.329085
11
164.376752
21
32.330275
0
LINE
8
annotation
62
1
39
211
10
164.376752
20
32.330275
11
164.377411
21
32.331531
0
LINE
8
annotation
62
1
39
211
10
164.377411
20
32.331531
11
164.377411
21
32.331531
0
LINE
8
annotation
62
1
39
211
10
164.377411
20
32.331531
11
164.404243
21
32.389141
0
LINE
8
annotation
62
1
39
211
10
164.404243
20
32.389141
11
164.419917
21
32.448858
0
LINE
8
annotation
62
1
39
211
10
164.419917
20
32.448858
11
164.424819
21
32.509335
0
LINE
8
annotation
62
1
39
211
10
164.424819
20
32.509335
11
164.419332
21
32.569220
0
LINE
8
annotation
62
1
39
211
10
164.419332
20
32.569220
11
164.403840
21
32.627165
0
LINE
8
annotation
62
1
39
211
10
164.403840
20
32.627165
11
164.378728
21
32.681820
0
LINE
8
annotation
62
1
39
211
10
164.378728
20
32.681820
11
164.344379
21
32.731836
0
LINE
8
annotation
62
1
39
211
10
164.344379
20
32.731836
11
164.301178
21
32.775864
0
LINE
8
annotation
62
1
39
211
10
164.301178
20
32.775864
11
164.249509
21
32.812554
0
LINE
8
annotation
62
1
39
211
10
164.249509
20
32.812554
11
164.249509
21
32.812554
0
LINE
8
annotation
62
1
39
211
10
164.249509
20
32.812554
11
164.191739
21
32.839005
0
LINE
8
annotation
62
1
39
211
10
164.191739
20
32.839005
11
164.131930
21
32.854438
0
LINE
8
annotation
62
1
39
211
10
164.131930
20
32.854438
11
164.071418
21
32.859201
0
LINE
8
annotation
62
1
39
211
10
164.071418
20
32.859201
11
164.011542
21
32.853642
0
LINE
8
annotation
62
1
39
211
10
164.011542
20
32.853642
11
163.953638
21
32.838107
0
LINE
8
annotation
62
1
39
211
10
163.953638
20
32.838107
11
163.899043
21
32.812944
0
LINE
8
annotation
62
1
39
211
10
163.899043
20
32.812944
11
163.849095
21
32.778501
0
LINE
8
annotation
62
1
39
211
10
163.849095
20
32.778501
11
163.805130
21
32.735125
0
LINE
8
annotation
62
1
39
211
10
163.805130
20
32.735125
11
163.768485
21
32.683163
0
LINE
8
annotation
62
1
39
211
10
163.768485
20
32.683163
11
163.722310
21
32.594584
0
LINE
8
annotation
62
1
39
211
10
130.701168
20
50.009438
11
131.052822
21
50.009438
0
LINE
8
annotation
62
1
39
211
10
131.052822
20
50.009438
11
131.052822
21
50.009438
0
LINE
8
annotation
62
1
39
211
10
131.052822
20
50.009438
11
131.116068
21
50.015111
0
LINE
8
annotation
62
1
39
211
10
131.116068
20
50.015111
11
131.175580
21
50.031463
0
LINE
8
annotation
62
1
39
211
10
131.175580
20
50.031463
11
131.230368
21
50.057489
0
LINE
8
annotation
62
1
39
211
10
131.230368
20
50.057489
11
131.279444
21
50.092185
0
LINE
8
annotation
62
1
39
211
10
131.279444
20
50.092185
11
131.321816
21
50.134548
0
LINE
8
annotation
62
1
39
211
10
131.321816
20
50.134548
11
131.356495
21
50.183575
0
LINE
8
annotation
62
1
39
211
10
131.356495
20
50.183575
11
131.382491
21
50.238260
0
LINE
8
annotation
62
1
39
211
10
131.382491
20
50.238260
11
131.398815
21
50.297602
0
LINE
8
annotation
62
1
39
211
10
131.398815
20
50.297602
11
131.404476
21
50.360595
0
LINE
8
annotation
62
1
39
211
10
131.404476
20
50.360595
11
131.404476
21
50.536670
0
LINE
8
annotation
62
1
39
211
10
131.404476
20
50.536670
11
131.404476
21
50.536670
0
LINE
8
annotation
62
1
39
211
10
131.404476
20
50.536670
11
131.398815
21
50.599638
0
LINE
8
annotation
62
1
39
211
10
131.398815
20
50.599638
11
131.382491
21
50.658965
0
LINE
8
annotation
62
1
39
211
10
131.382491
20
50.658965
11
131.356495
21
50.713647
0
LINE
8
annotation
62
1
39
211
10
131.356495
20
50.713647
11
131.321816
21
50.762676
0
LINE
8
annotation
62
1
39
211
10
131.321816
20
50.762676
11
131.279444
21
50.805048
0
LINE
8
annotation
62
1
39
211
10
131.279444
20
50.805048
11
131.230368
21
50.839755
0
LINE
8
annotation
62
1
39
211
10
131.230368
20
50.839755
11
131.175580
21
50.865791
0
LINE
8
annotation
62
1
39
211
10
131.175580
20
50.865791
11
131.116068
21
50.882151
0
LINE
8
annotation
62
1
39
211
10
131.116068
20
50.882151
11
131.052822
21
50.887828
0
LINE
8
annotation
62
1
39
211
10
131.052822
20
50.887828
11
130.876747
21
50.887828
0
LINE
8
annotation
62
1
39
211
10
130.876747
20
50.887828
11
131.052822
21
50.887828
0
LINE
8
annotation
62
1
39
211
10
131.052822
20
50.887828
11
131.052822
21
50.887828
0
LINE
8
annotation
62
1
39
211
10
131.052822
20
50.887828
11
131.116068
21
50.893506
0
LINE
8
annotation
62
1
39
211
10
131.116068
20
50.893506
11
131.175580
21
50.909875
0
LINE
8
annotation
62
1
39
211
10
131.175580
20
50.909875
11
131.230368
21
50.935938
0
LINE
8
annotation
62
1
39
211
10
131.230368
20
50.935938
11
131.279444
21
50.970695
0
LINE
8
annotation
62
1
39
211
10
131.279444
20
50.970695
11
131.321816
21
51.013149
0
LINE
8
annotation
62
1
39
211
10
131.321816
20
51.013149
11
131.356495
21
51.062303
0
LINE
8
annotation
62
1
39
211
10
131.356495
20
51.062303
11
131.382491
21
51.117158
0
LINE
8
annotation
62
1
39
211
10
131.382491
20
51.117158
11
131.398815
21
51.176715
0
LINE
8
annotation
62
1
39
211
10
131.398815
20
51.176715
11
131.404476
21
51.239978
0
LINE
8
annotation
62
1
39
211
10
131.404476
20
51.239978
11
131.404476
21
51.239978
0
LINE
8
annotation
62
1
39
211
10
131.404476
20
51.239978
11
131.398815
21
51.302945
0
LINE
8
annotation
62
1
39
211
10
131.398815
20
51.302945
11
131.382491
21
51.362273
0
LINE
8
annotation
62
1
39
211
10
131.382491
20
51.362273
11
131.356495
21
51.416955
0
LINE
8
annotation
62
1
39
211
10
131.356495
20
51.416955
11
131.321816
21
51.465984
0
LINE
8
annotation
62
1
39
211
10
131.321816
20
51.465984
11
131.279444
21
51.508356
0
LINE
8
annotation
62
1
39
211
10
131.279444
20
51.508356
11
131.230368
21
51.543063
0
LINE
8
annotation
62
1
39
211
10
131.230368
20
51.543063
11
131.175580
21
51.569099
0
LINE
8
annotation
62
1
39
211
10
131.175580
20
51.569099
11
131.116068
21
51.585459
0
LINE
8
annotation
62
1
39
211
10
131.116068
20
51.585459
11
131.052822
21
51.591136
0
LINE
8
annotation
62
1
39
211
10
131.052822
20
51.591136
11
130.701168
21
51.591136
0
LINE
8
annotation
62
1
39
211
10
163.721173
20
48.209087
11
164.072826
21
48.209087
0
LINE
8
annotation
62
1
39
211
10
164.072826
20
48.209087
11
164.072826
21
48.209087
0
LINE
8
annotation
62
1
39
211
10
164.072826
20
48.209087
11
164.136072
21
48.214760
0
LINE
8
annotation
62
1
39
211
10
164.136072
20
48.214760
11
164.195584
21
48.231112
0
LINE
8
annotation
62
1
39
211
10
164.195584
20
48.231112
11
164.250373
21
48.257138
0
LINE
8
annotation
62
1
39
211
10
164.250373
20
48.257138
11
164.299448
21
48.291834
0
LINE
8
annotation
62
1
39
211
10
164.299448
20
48.291834
11
164.341820
21
48.334197
0
LINE
8
annotation
62
1
39
211
10
164.341820
20
48.334197
11
164.376499
21
48.383223
0
LINE
8
annotation
62
1
39
211
10
164.376499
20
48.383223
11
164.402495
21
48.437909
0
LINE
8
annotation
62
1
39
211
10
164.402495
20
48.437909
11
164.418819
21
48.497250
0
LINE
8
annotation
62
1
39
211
10
164.418819
20
48.497250
11
164.424480
21
48.560244
0
LINE
8
annotation
62
1
39
211
10
164.424480
20
48.560244
11
164.424480
21
48.736319
0
LINE
8
annotation
62
1
39
211
10
164.424480
20
48.736319
11
164.424480
21
48.736319
0
LINE
8
annotation
62
1
39
211
10
164.424480
20
48.736319
11
164.418819
21
48.799286
0
LINE
8
annotation
62
1
39
211
10
164.418819
20
48.799286
11
164.402495
21
48.858613
0
LINE
8
annotation
62
1
39
211
10
164.402495
20
48.858613
11
164.376499
21
48.913295
0
LINE
8
annotation
62
1
39
211
10
164.376499
20
48.913295
11
164.341820
21
48.962324
0
LINE
8
annotation
62
1
39
211
10
164.341820
20
48.962324
11
164.299448
21
49.004696
0
LINE
8
annotation
62
1
39
211
10
164.299448
20
49.004696
11
164.250373
21
49.039403
0
LINE
8
annotation
62
1
39
211
10
164.250373
20
49.039403
11
164.195584
21
49.065439
0
LINE
8
annotation
62
1
39
211
10
164.195584
20
49.065439
11
164.136072
21
49.081799
0
LINE
8
annotation
62
1
39
211
10
164.136072
20
49.081799
11
164.072826
21
49.087476
0
LINE
8
annotation
62
1
39
211
10
164.072826
20
49.087476
11
163.896751
21
49.087476
0
LINE
8
annotation
62
1
39
211
10
163.896751
20
49.087476
11
164.072826
21
49.087476
0
LINE
8
annotation
62
1
39
211
10
164.072826
20
49.087476
11
164.072826
21
49.087476
0
LINE
8
annotation
62
1
39
211
10
164.072826
20
49.087476
11
164.136072
21
49.093154
0
LINE
8
annotation
62
1
39
211
10
164.136072
20
49.093154
11
164.195584
21
49.109523
0
LINE
8
annotation
62
1
39
211
10
164.195584
20
49.109523
11
164.250373
21
49.135585
0
LINE
8
annotation
62
1
39
211
10
164.250373
20
49.135585
11
164.299448
21
49.170343
0
LINE
8
annotation
62
1
39
211
10
164.299448
20
49.170343
11
164.341820
21
49.212797
0
LINE
8
annotation
62
1
39
211
10
164.341820
20
49.212797
11
164.376499
21
49.261951
0
LINE
8
annotation
62
1
39
211
10
164.376499
20
49.261951
11
164.402495
21
49.316805
0
LINE
8
annotation
62
1
39
211
10
164.402495
20
49.316805
11
164.418819
21
49.376363
0
LINE
8
annotation
62
1
39
211
10
164.418819
20
49.376363
11
164.424480
21
49.439626
0
LINE
8
annotation
62
1
39
211
10
164.424480
20
49.439626
11
164.424480
21
49.439626
0
LINE
8
annotation
62
1
39
211
10
164.424480
20
49.439626
11
164.418819
21
49.502593
0
LINE
8
annotation
62
1
39
211
10
164.418819
20
49.502593
11
164.402495
21
49.561920
0
LINE
8
annotation
62
1
39
211
10
164.402495
20
49.561920
11
164.376499
21
49.616602
0
LINE
8
annotation
62
1
39
211
10
164.376499
20
49.616602
11
164.341820
21
49.665631
0
LINE
8
annotation
62
1
39
211
10
164.341820
20
49.665631
11
164.299448
21
49.708003
0
LINE
8
annotation
62
1
39
211
10
164.299448
20
49.708003
11
164.250373
21
49.742710
0
LINE
8
annotation
62
1
39
211
10
164.250373
20
49.742710
11
164.195584
21
49.768746
0
LINE
8
annotation
62
1
39
211
10
164.195584
20
49.768746
11
164.136072
21
49.785106
0
LINE
8
annotation
62
1
39
211
10
164.136072
20
49.785106
11
164.072826
21
49.790783
0
LINE
8
annotation
62
1
39
211
10
164.072826
20
49.790783
11
163.721173
21
49.790783
0
LINE
8
annotation
62
1
39
211
10
146.274830
20
54.174055
11
145.259290
21
54.174055
0
LINE
8
annotation
62
1
39
211
10
145.259290
20
54.174055
11
146.274830
21
56.003038
0
LINE
8
annotation
62
1
39
211
10
146.274830
20
56.003038
11
145.259290
21
56.003038
0
LINE
8
annotation
62
1
39
211
10
147.960927
20
55.088546
11
146.960871
21
55.088546
0
LINE
8
annotation
62
1
39
211
10
149.459057
20
54.174040
11
148.646762
21
54.174040
0
LINE
8
annotation
62
1
39
211
10
148.646762
20
54.174040
11
149.397349
21
55.382389
0
LINE
8
annotation
62
1
39
211
10
149.397349
20
55.382389
11
149.397349
21
55.382389
0
LINE
8
annotation
62
1
39
211
10
149.397349
20
55.382389
11
149.398246
21
55.383499
0
LINE
8
annotation
62
1
39
211
10
149.398246
20
55.383499
11
149.399107
21
55.384619
0
LINE
8
annotation
62
1
39
211
10
149.399107
20
55.384619
11
149.399936
21
55.385758
0
LINE
8
annotation
62
1
39
211
10
149.399936
20
55.385758
11
149.400740
21
55.386925
0
LINE
8
annotation
62
1
39
211
10
149.400740
20
55.386925
11
149.401524
21
55.388129
0
LINE
8
annotation
62
1
39
211
10
149.401524
20
55.388129
11
149.402294
21
55.389381
0
LINE
8
annotation
62
1
39
211
10
149.402294
20
55.389381
11
149.403055
21
55.390690
0
LINE
8
annotation
62
1
39
211
10
149.403055
20
55.390690
11
149.403814
21
55.392065
0
LINE
8
annotation
62
1
39
211
10
149.403814
20
55.392065
11
149.404575
21
55.393515
0
LINE
8
annotation
62
1
39
211
10
149.404575
20
55.393515
11
149.404575
21
55.393515
0
LINE
8
annotation
62
1
39
211
10
149.404575
20
55.393515
11
149.435567
21
55.460056
0
LINE
8
annotation
62
1
39
211
10
149.435567
20
55.460056
11
149.453671
21
55.529032
0
LINE
8
annotation
62
1
39
211
10
149.453671
20
55.529032
11
149.459333
21
55.598885
0
LINE
8
annotation
62
1
39
211
10
149.459333
20
55.598885
11
149.452995
21
55.668054
0
LINE
8
annotation
62
1
39
211
10
149.452995
20
55.668054
11
149.435101
21
55.734983
0
LINE
8
annotation
62
1
39
211
10
149.435101
20
55.734983
11
149.406096
21
55.798112
0
LINE
8
annotation
62
1
39
211
10
149.406096
20
55.798112
11
149.366422
21
55.855882
0
LINE
8
annotation
62
1
39
211
10
149.366422
20
55.855882
11
149.316523
21
55.906736
0
LINE
8
annotation
62
1
39
211
10
149.316523
20
55.906736
11
149.256843
21
55.949114
0
LINE
8
annotation
62
1
39
211
10
149.256843
20
55.949114
11
149.256843
21
55.949114
0
LINE
8
annotation
62
1
39
211
10
149.256843
20
55.949114
11
149.190117
21
55.979666
0
LINE
8
annotation
62
1
39
211
10
149.190117
20
55.979666
11
149.121035
21
55.997491
0
LINE
8
annotation
62
1
39
211
10
149.121035
20
55.997491
11
149.051142
21
56.002993
0
LINE
8
annotation
62
1
39
211
10
149.051142
20
56.002993
11
148.981983
21
55.996572
0
LINE
8
annotation
62
1
39
211
10
148.981983
20
55.996572
11
148.915101
21
55.978628
0
LINE
8
annotation
62
1
39
211
10
148.915101
20
55.978628
11
148.852042
21
55.949565
0
LINE
8
annotation
62
1
39
211
10
148.852042
20
55.949565
11
148.794350
21
55.909782
0
LINE
8
annotation
62
1
39
211
10
148.794350
20
55.909782
11
148.743569
21
55.859680
0
LINE
8
annotation
62
1
39
211
10
148.743569
20
55.859680
11
148.701244
21
55.799662
0
LINE
8
annotation
62
1
39
211
10
148.701244
20
55.799662
11
148.647909
21
55.697351
0
LINE
8
annotation
62
1
39
211
10
151.145292
20
55.088546
11
150.145235
21
55.088546
0
LINE
8
annotation
62
1
39
211
10
152.237652
20
54.174055
11
152.237652
21
56.003038
0
LINE
8
annotation
62
1
39
211
10
152.237652
20
56.003038
11
151.831046
21
55.596317
0
LINE
8
hole
62
5
39
2
10
122.237505
20
65.722496
11
99.286788
21
65.722496
0
LINE
8
hole
62
5
39
2
10
99.286788
20
65.722496
11
94.297502
21
65.722495
0
LINE
8
hole
62
5
39
2
10
94.297502
20
65.722495
11
94.297502
21
66.760676
0
LINE
8
hole
62
5
39
2
10
94.297502
20
66.760676
11
91.884501
21
66.985720
0
LINE
8
hole
62
5
39
2
10
91.884501
20
66.985720
11
91.884501
21
71.232600
0
LINE
8
hole
62
5
39
2
10
91.884501
20
71.232600
11
94.212158
21
71.232600
0
LINE
8
hole
62
5
39
2
10
94.212158
20
71.232600
11
94.297502
21
72.979638
0
LINE
8
hole
62
5
39
2
10
94.297502
20
72.979638
11
94.297502
21
83.694007
0
LINE
8
hole
62
5
39
2
10
94.297502
20
83.694007
11
91.884501
21
83.919051
0
LINE
8
hole
62
5
39
2
10
91.884501
20
83.919051
11
91.884501
21
88.165931
0
LINE
8
hole
62
5
39
2
10
91.884501
20
88.165931
11
94.212158
21
88.165931
0
LINE
8
hole
62
5
39
2
10
94.212158
20
88.165931
11
94.297502
21
100.627339
0
LINE
8
hole
62
5
39
2
10
94.297502
20
100.627339
11
91.884501
21
100.852383
0
LINE
8
hole
62
5
39
2
10
91.884501
20
100.852383
11
91.884501
21
105.099263
0
LINE
8
hole
62
5
39
2
10
91.884501
20
105.099263
11
94.212158
21
105.099263
0
LINE
8
hole
62
5
39
2
10
94.212158
20
105.099263
11
94.297502
21
106.362493
0
LINE
8
hole
62
5
39
2
10
94.297502
20
106.362493
11
117.248219
21
106.362493
0
LINE
8
hole
62
5
39
2
10
117.248219
20
106.362493
11
122.237505
21
106.362493
0
LINE
8
hole
62
5
39
2
10
122.237505
20
106.362493
11
122.237505
21
99.105351
0
LINE
8
hole
62
5
39
2
10
122.237505
20
99.105351
11
122.237505
21
65.722496
0
LINE
8
boundary
62
5
39
2
10
89.217500
20
102.975822
11
89.217500
21
60.642494
0
LINE
8
boundary
62
5
39
2
10
89.217500
20
60.642494
11
120.967501
21
60.642494
0
LINE
8
boundary
62
5
39
2
10
120.967501
20
60.642494
11
127.317501
21
60.642494
0
LINE
8
boundary
62
5
39
2
10
127.317501
20
60.642494
11
127.317500
21
66.760676
0
LINE
8
boundary
62
5
39
2
10
127.317500
20
66.760676
11
124.904503
21
66.985720
0
LINE
8
boundary
62
5
39
2
10
124.904503
20
66.985720
11
124.904503
21
71.232600
0
LINE
8
boundary
62
5
39
2
10
124.904503
20
71.232600
11
127.232156
21
71.232600
0
LINE
8
boundary
62
5
39
2
10
127.232156
20
71.232600
11
127.317500
21
83.694007
0
LINE
8
boundary
62
5
39
2
10
127.317500
20
83.694007
11
124.904503
21
83.919051
0
LINE
8
boundary
62
5
39
2
10
124.904503
20
83.919051
11
124.904503
21
88.165931
0
LINE
8
boundary
62
5
39
2
10
124.904503
20
88.165931
11
127.232156
21
88.165931
0
LINE
8
boundary
62
5
39
2
10
127.232156
20
88.165931
11
127.317501
21
100.627339
0
LINE
8
boundary
62
5
39
2
10
127.317501
20
100.627339
11
124.904503
21
100.852383
0
LINE
8
boundary
62
5
39
2
10
124.904503
20
100.852383
11
124.904503
21
105.099263
0
LINE
8
boundary
62
5
39
2
10
124.904503
20
105.099263
11
127.232157
21
105.099263
0
LINE
8
boundary
62
5
39
2
10
127.232157
20
105.099263
11
127.317501
21
111.442488
0
LINE
8
boundary
62
5
39
2
10
127.317501
20
111.442488
11
95.567500
21
111.442488
0
LINE
8
boundary
62
5
39
2
10
95.567500
20
111.442488
11
89.217500
21
111.442488
0
LINE
8
boundary
62
5
39
2
10
89.217500
20
111.442488
11
89.217500
21
102.975822
0
LINE
8
annotation
62
1
39
211
10
89.773877
20
70.038690
11
89.773877
21
71.780334
0
LINE
8
annotation
62
1
39
211
10
89.773877
20
71.780334
11
89.386688
21
71.393035
0
LINE
8
annotation
62
1
39
211
10
122.793882
20
70.038691
11
122.793882
21
71.780333
0
LINE
8
annotation
62
1
39
211
10
122.793882
20
71.780333
11
122.406693
21
71.393034
0
LINE
8
annotation
62
1
39
211
10
90.129576
20
87.051087
11
89.426312
21
87.051087
0
LINE
8
annotation
62
1
39
211
10
89.426312
20
87.051087
11
90.076151
21
88.097245
0
LINE
8
annotation
62
1
39
211
10
90.076151
20
88.097245
11
90.076151
21
88.097245
0
LINE
8
annotation
62
1
39
211
10
90.076151
20
88.097245
11
90.076928
21
88.098206
0
LINE
8
annotation
62
1
39
211
10
90.076928
20
88.098206
11
90.077673
21
88.099176
0
LINE
8
annotation
62
1
39
211
10
90.077673
20
88.099176
11
90.078391
21
88.100161
0
LINE
8
annotation
62
1
39
211
10
90.078391
20
88.100161
11
90.079087
21
88.101172
0
LINE
8
annotation
62
1
39
211
10
90.079087
20
88.101172
11
90.079766
21
88.102215
0
LINE
8
annotation
62
1
39
211
10
90.079766
20
88.102215
11
90.080432
21
88.103299
0
LINE
8
annotation
62
1
39
211
10
90.080432
20
88.103299
11
90.081091
21
88.104432
0
LINE
8
annotation
62
1
39
211
10
90.081091
20
88.104432
11
90.081748
21
88.105622
0
LINE
8
annotation
62
1
39
211
10
90.081748
20
88.105622
11
90.082407
21
88.106877
0
LINE
8
annotation
62
1
39
211
10
90.082407
20
88.106877
11
90.082407
21
88.106877
0
LINE
8
annotation
62
1
39
211
10
90.082407
20
88.106877
11
90.109239
21
88.164487
0
LINE
8
annotation
62
1
39
211
10
90.109239
20
88.164487
11
90.124913
21
88.224205
0
LINE
8
annotation
62
1
39
211
10
90.124913
20
88.224205
11
90.129815
21
88.284681
0
LINE
8
annotation
62
1
39
211
10
90.129815
20
88.284681
11
90.124328
21
88.344567
0
LINE
8
annotation
62
1
39
211
10
90.124328
20
88.344567
11
90.108836
21
88.402512
0
LINE
8
annotation
62
1
39
211
10
90.108836
20
88.402512
11
90.083724
21
88.457167
0
LINE
8
annotation
62
1
39
211
10
90.083724
20
88.457167
11
90.049375
21
88.507183
0
LINE
8
annotation
62
1
39
211
10
90.049375
20
88.507183
11
90.006174
21
88.551211
0
LINE
8
annotation
62
1
39
211
10
90.006174
20
88.551211
11
89.954505
21
88.587901
0
LINE
8
annotation
62
1
39
211
10
89.954505
20
88.587901
11
89.954505
21
88.587901
0
LINE
8
annotation
62
1
39
211
10
89.954505
20
88.587901
11
89.896735
21
88.614352
0
LINE
8
annotation
62
1
39
211
10
89.896735
20
88.614352
11
89.836925
21
88.629785
0
LINE
8
annotation
62
1
39
211
10
89.836925
20
88.629785
11
89.776414
21
88.634548
0
LINE
8
annotation
62
1
39
211
10
89.776414
20
88.634548
11
89.716538
21
88.628989
0
LINE
8
annotation
62
1
39
211
10
89.716538
20
88.628989
11
89.658633
21
88.613454
0
LINE
8
annotation
62
1
39
211
10
89.658633
20
88.613454
11
89.604038
21
88.588291
0
LINE
8
annotation
62
1
39
211
10
89.604038
20
88.588291
11
89.554090
21
88.553848
0
LINE
8
annotation
62
1
39
211
10
89.554090
20
88.553848
11
89.510125
21
88.510472
0
LINE
8
annotation
62
1
39
211
10
89.510125
20
88.510472
11
89.473481
21
88.458509
0
LINE
8
annotation
62
1
39
211
10
89.473481
20
88.458509
11
89.427305
21
88.369931
0
LINE
8
annotation
62
1
39
211
10
123.149580
20
87.051088
11
122.446316
21
87.051088
0
LINE
8
annotation
62
1
39
211
10
122.446316
20
87.051088
11
123.096155
21
88.097245
0
LINE
8
annotation
62
1
39
211
10
123.096155
20
88.097245
11
123.096155
21
88.097245
0
LINE
8
annotation
62
1
39
211
10
123.096155
20
88.097245
11
123.096932
21
88.098206
0
LINE
8
annotation
62
1
39
211
10
123.096932
20
88.098206
11
123.097677
21
88.099175
0
LINE
8
annotation
62
1
39
211
10
123.097677
20
88.099175
11
123.098395
21
88.100161
0
LINE
8
annotation
62
1
39
211
10
123.098395
20
88.100161
11
123.099091
21
88.101171
0
LINE
8
annotation
62
1
39
211
10
123.099091
20
88.101171
11
123.099769
21
88.102214
0
LINE
8
annotation
62
1
39
211
10
123.099769
20
88.102214
11
123.100436
21
88.103298
0
LINE
8
annotation
62
1
39
211
10
123.100436
20
88.103298
11
123.101095
21
88.104431
0
LINE
8
annotation
62
1
39
211
10
123.101095
20
88.104431
11
123.101752
21
88.105621
0
LINE
8
annotation
62
1
39
211
10
123.101752
20
88.105621
11
123.102411
21
88.106877
0
LINE
8
annotation
62
1
39
211
10
123.102411
20
88.106877
11
123.102411
21
88.106877
0
LINE
8
annotation
62
1
39
211
10
123.102411
20
88.106877
11
123.129243
21
88.164487
0
LINE
8
annotation
62
1
39
211
10
123.129243
20
88.164487
11
123.144917
21
88.224205
0
LINE
8
annotation
62
1
39
211
10
123.144917
20
88.224205
11
123.149819
21
88.284681
0
LINE
8
annotation
62
1
39
211
10
123.149819
20
88.284681
11
123.144332
21
88.344566
0
LINE
8
annotation
62
1
39
211
10
123.144332
20
88.344566
11
123.128840
21
88.402511
0
LINE
8
annotation
62
1
39
211
10
123.128840
20
88.402511
11
123.103728
21
88.457166
0
LINE
8
annotation
62
1
39
211
10
123.103728
20
88.457166
11
123.069379
21
88.507183
0
LINE
8
annotation
62
1
39
211
10
123.069379
20
88.507183
11
123.026178
21
88.551210
0
LINE
8
annotation
62
1
39
211
10
123.026178
20
88.551210
11
122.974509
21
88.587900
0
LINE
8
annotation
62
1
39
211
10
122.974509
20
88.587900
11
122.974509
21
88.587900
0
LINE
8
annotation
62
1
39
211
10
122.974509
20
88.587900
11
122.916739
21
88.614351
0
LINE
8
annotation
62
1
39
211
10
122.916739
20
88.614351
11
122.856929
21
88.629784
0
LINE
8
annotation
62
1
39
211
10
122.856929
20
88.629784
11
122.796418
21
88.634547
0
LINE
8
annotation
62
1
39
211
10
122.796418
20
88.634547
11
122.736542
21
88.628988
0
LINE
8
annotation
62
1
39
211
10
122.736542
20
88.628988
11
122.678638
21
88.613453
0
LINE
8
annotation
62
1
39
211
10
122.678638
20
88.613453
11
122.624043
21
88.588290
0
LINE
8
annotation
62
1
39
211
10
122.624043
20
88.588290
11
122.574094
21
88.553847
0
LINE
8
annotation
62
1
39
211
10
122.574094
20
88.553847
11
122.530129
21
88.510471
0
LINE
8
annotation
62
1
39
211
10
122.530129
20
88.510471
11
122.493485
21
88.458509
0
LINE
8
annotation
62
1
39
211
10
122.493485
20
88.458509
11
122.447309
21
88.369930
0
LINE
8
annotation
62
1
39
211
10
89.426168
20
103.984432
11
89.777822
21
103.984432
0
LINE
8
annotation
62
1
39
211
10
89.777822
20
103.984432
11
89.777822
21
103.984432
0
LINE
8
annotation
62
1
39
211
10
89.777822
20
103.984432
11
89.841067
21
103.990105
0
LINE
8
annotation
62
1
39
211
10
89.841067
20
103.990105
11
89.900579
21
104.006457
0
LINE
8
annotation
62
1
39
211
10
89.900579
20
104.006457
11
89.955368
21
104.032483
0
LINE
8
annotation
62
1
39
211
10
89.955368
20
104.032483
11
90.004443
21
104.067179
0
LINE
8
annotation
62
1
39
211
10
90.004443
20
104.067179
11
90.046815
21
104.109542
0
LINE
8
annotation
62
1
39
211
10
90.046815
20
104.109542
11
90.081494
21
104.158569
0
LINE
8
annotation
62
1
39
211
10
90.081494
20
104.158569
11
90.107491
21
104.213254
0
LINE
8
annotation
62
1
39
211
10
90.107491
20
104.213254
11
90.123814
21
104.272596
0
LINE
8
annotation
62
1
39
211
10
90.123814
20
104.272596
11
90.129475
21
104.335589
0
LINE
8
annotation
62
1
39
211
10
90.129475
20
104.335589
11
90.129475
21
104.511664
0
LINE
8
annotation
62
1
39
211
10
90.129475
20
104.511664
11
90.129475
21
104.511664
0
LINE
8
annotation
62
1
39
211
10
90.129475
20
104.511664
11
90.123814
21
104.574632
0
LINE
8
annotation
62
1
39
211
10
90.123814
20
104.574632
11
90.107491
21
104.633959
0
LINE
8
annotation
62
1
39
211
10
90.107491
20
104.633959
11
90.081494
21
104.688641
0
LINE
8
annotation
62
1
39
211
10
90.081494
20
104.688641
11
90.046815
21
104.737670
0
LINE
8
annotation
62
1
39
211
10
90.046815
20
104.737670
11
90.004443
21
104.780042
0
LINE
8
annotation
62
1
39
211
10
90.004443
20
104.780042
11
89.955368
21
104.814749
0
LINE
8
annotation
62
1
39
211
10
89.955368
20
104.814749
11
89.900579
21
104.840785
0
LINE
8
annotation
62
1
39
211
10
89.900579
20
104.840785
11
89.841067
21
104.857145
0
LINE
8
annotation
62
1
39
211
10
89.841067
20
104.857145
11
89.777822
21
104.862822
0
LINE
8
annotation
62
1
39
211
10
89.777822
20
104.862822
11
89.601746
21
104.862822
0
LINE
8
annotation
62
1
39
211
10
89.601746
20
104.862822
11
89.777822
21
104.862822
0
LINE
8
annotation
62
1
39
211
10
89.777822
20
104.862822
11
89.777822
21
104.862822
0
LINE
8
annotation
62
1
39
211
10
89.777822
20
104.862822
11
89.841067
21
104.868500
0
LINE
8
annotation
62
1
39
211
10
89.841067
20
104.868500
11
89.900579
21
104.884869
0
LINE
8
annotation
62
1
39
211
10
89.900579
20
104.884869
11
89.955368
21
104.910932
0
LINE
8
annotation
62
1
39
211
10
89.955368
20
104.910932
11
90.004443
21
104.945689
0
LINE
8
annotation
62
1
39
211
10
90.004443
20
104.945689
11
90.046815
21
104.988144
0
LINE
8
annotation
62
1
39
211
10
90.046815
20
104.988144
11
90.081494
21
105.037297
0
LINE
8
annotation
62
1
39
211
10
90.081494
20
105.037297
11
90.107491
21
105.092152
0
LINE
8
annotation
62
1
39
211
10
90.107491
20
105.092152
11
90.123814
21
105.151709
0
LINE
8
annotation
62
1
39
211
10
90.123814
20
105.151709
11
90.129475
21
105.214972
0
LINE
8
annotation
62
1
39
211
10
90.129475
20
105.214972
11
90.129475
21
105.214972
0
LINE
8
annotation
62
1
39
211
10
90.129475
20
105.214972
11
90.123814
21
105.277940
0
LINE
8
annotation
62
1
39
211
10
90.123814
20
105.277940
11
90.107491
21
105.337267
0
LINE
8
annotation
62
1
39
211
10
90.107491
20
105.337267
11
90.081494
21
105.391949
0
LINE
8
annotation
62
1
39
211
10
90.081494
20
105.391949
11
90.046815
21
105.440978
0
LINE
8
annotation
62
1
39
211
10
90.046815
20
105.440978
11
90.004443
21
105.483350
0
LINE
8
annotation
62
1
39
211
10
90.004443
20
105.483350
11
89.955368
21
105.518057
0
LINE
8
annotation
62
1
39
211
10
89.955368
20
105.518057
11
89.900579
21
105.544093
0
LINE
8
annotation
62
1
39
211
10
89.900579
20
105.544093
11
89.841067
21
105.560453
0
LINE
8
annotation
62
1
39
211
10
89.841067
20
105.560453
11
89.777822
21
105.566130
0
LINE
8
annotation
62
1
39
211
10
89.777822
20
105.566130
11
89.426168
21
105.566130
0
LINE
8
annotation
62
1
39
211
10
122.446172
20
102.184081
11
122.797826
21
102.184081
0
LINE
8
annotation
62
1
39
211
10
122.797826
20
102.184081
11
122.797826
21
102.184081
0
LINE
8
annotation
62
1
39
211
10
122.797826
20
102.184081
11
122.861072
21
102.189754
0
LINE
8
annotation
62
1
39
211
10
122.861072
20
102.189754
11
122.920584
21
102.206106
0
LINE
8
annotation
62
1
39
211
10
122.920584
20
102.206106
11
122.975372
21
102.232132
0
LINE
8
annotation
62
1
39
211
10
122.975372
20
102.232132
11
123.024447
21
102.266828
0
LINE
8
annotation
62
1
39
211
10
123.024447
20
102.266828
11
123.066819
21
102.309191
0
LINE
8
annotation
62
1
39
211
10
123.066819
20
102.309191
11
123.101498
21
102.358217
0
LINE
8
annotation
62
1
39
211
10
123.101498
20
102.358217
11
123.127495
21
102.412903
0
LINE
8
annotation
62
1
39
211
10
123.127495
20
102.412903
11
123.143818
21
102.472244
0
LINE
8
annotation
62
1
39
211
10
123.143818
20
102.472244
11
123.149479
21
102.535238
0
LINE
8
annotation
62
1
39
211
10
123.149479
20
102.535238
11
123.149479
21
102.711313
0
LINE
8
annotation
62
1
39
211
10
123.149479
20
102.711313
11
123.149479
21
102.711313
0
LINE
8
annotation
62
1
39
211
10
123.149479
20
102.711313
11
123.143818
21
102.774280
0
LINE
8
annotation
62
1
39
211
10
123.143818
20
102.774280
11
123.127495
21
102.833607
0
LINE
8
annotation
62
1
39
211
10
123.127495
20
102.833607
11
123.101498
21
102.888289
0
LINE
8
annotation
62
1
39
211
10
123.101498
20
102.888289
11
123.066819
21
102.937318
0
LINE
8
annotation
62
1
39
211
10
123.066819
20
102.937318
11
123.024447
21
102.979690
0
LINE
8
annotation
62
1
39
211
10
123.024447
20
102.979690
11
122.975372
21
103.014397
0
LINE
8
annotation
62
1
39
211
10
122.975372
20
103.014397
11
122.920584
21
103.040433
0
LINE
8
annotation
62
1
39
211
10
122.920584
20
103.040433
11
122.861072
21
103.056793
0
LINE
8
annotation
62
1
39
211
10
122.861072
20
103.056793
11
122.797826
21
103.062470
0
LINE
8
annotation
62
1
39
211
10
122.797826
20
103.062470
11
122.621751
21
103.062470
0
LINE
8
annotation
62
1
39
211
10
122.621751
20
103.062470
11
122.797826
21
103.062470
0
LINE
8
annotation
62
1
39
211
10
122.797826
20
103.062470
11
122.797826
21
103.062470
0
LINE
8
annotation
62
1
39
211
10
122.797826
20
103.062470
11
122.861072
21
103.068148
0
LINE
8
annotation
62
1
39
211
10
122.861072
20
103.068148
11
122.920584
21
103.084517
0
LINE
8
annotation
62
1
39
211
10
122.920584
20
103.084517
11
122.975372
21
103.110579
0
LINE
8
annotation
62
1
39
211
10
122.975372
20
103.110579
11
123.024447
21
103.145337
0
LINE
8
annotation
62
1
39
211
10
123.024447
20
103.145337
11
123.066819
21
103.187791
0
LINE
8
annotation
62
1
39
211
10
123.066819
20
103.187791
11
123.101498
21
103.236945
0
LINE
8
annotation
62
1
39
211
10
123.101498
20
103.236945
11
123.127495
21
103.291799
0
LINE
8
annotation
62
1
39
211
10
123.127495
20
103.291799
11
123.143818
21
103.351357
0
LINE
8
annotation
62
1
39
211
10
123.143818
20
103.351357
11
123.149479
21
103.414620
0
LINE
8
annotation
62
1
39
211
10
123.149479
20
103.414620
11
123.149479
21
103.414620
0
LINE
8
annotation
62
1
39
211
10
123.149479
20
103.414620
11
123.143818
21
103.477587
0
LINE
8
annotation
62
1
39
211
10
123.143818
20
103.477587
11
123.127495
21
103.536914
0
LINE
8
annotation
62
1
39
211
10
123.127495
20
103.536914
11
123.101498
21
103.591596
0
LINE
8
annotation
62
1
39
211
10
123.101498
20
103.591596
11
123.066819
21
103.640625
0
LINE
8
annotation
62
1
39
211
10
123.066819
20
103.640625
11
123.024447
21
103.682997
0
LINE
8
annotation
62
1
39
211
10
123.024447
20
103.682997
11
122.975372
21
103.717704
0
LINE
8
annotation
62
1
39
211
10
122.975372
20
103.717704
11
122.920584
21
103.743740
0
LINE
8
annotation
62
1
39
211
10
122.920584
20
103.743740
11
122.861072
21
103.760100
0
LINE
8
annotation
62
1
39
211
10
122.861072
20
103.760100
11
122.797826
21
103.765777
0
LINE
8
annotation
62
1
39
211
10
122.797826
20
103.765777
11
122.446172
21
103.765777
0
LINE
8
annotation
62
1
39
211
10
104.999968
20
108.149049
11
103.984427
21
108.149049
0
LINE
8
annotation
62
1
39
211
10
103.984427
20
108.149049
11
104.999968
21
109.978032
0
LINE
8
annotation
62
1
39
211
10
104.999968
20
109.978032
11
103.984427
21
109.978032
0
LINE
8
annotation
62
1
39
211
10
106.686065
20
109.063540
11
105.686009
21
109.063540
0
LINE
8
annotation
62
1
39
211
10
107.371762
20
108.149106
11
107.777909
21
108.149106
0
LINE
8
annotation
62
1
39
211
10
107.777909
20
108.149106
11
107.777909
21
108.149106
0
LINE
8
annotation
62
1
39
211
10
107.777909
20
108.149106
11
107.850956
21
108.155659
0
LINE
8
annotation
62
1
39
211
10
107.850956
20
108.155659
11
107.919690
21
108.174545
0
LINE
8
annotation
62
1
39
211
10
107.919690
20
108.174545
11
107.982969
21
108.204603
0
LINE
8
annotation
62
1
39
211
10
107.982969
20
108.204603
11
108.039649
21
108.244677
0
LINE
8
annotation
62
1
39
211
10
108.039649
20
108.244677
11
108.088587
21
108.293605
0
LINE
8
annotation
62
1
39
211
10
108.088587
20
108.293605
11
108.128640
21
108.350228
0
LINE
8
annotation
62
1
39
211
10
108.128640
20
108.350228
11
108.158665
21
108.413388
0
LINE
8
annotation
62
1
39
211
10
108.158665
20
108.413388
11
108.177518
21
108.481925
0
LINE
8
annotation
62
1
39
211
10
108.177518
20
108.481925
11
108.184056
21
108.554680
0
LINE
8
annotation
62
1
39
211
10
108.184056
20
108.554680
11
108.184056
21
108.758041
0
LINE
8
annotation
62
1
39
211
10
108.184056
20
108.758041
11
108.184056
21
108.758041
0
LINE
8
annotation
62
1
39
211
10
108.184056
20
108.758041
11
108.177518
21
108.830766
0
LINE
8
annotation
62
1
39
211
10
108.177518
20
108.830766
11
108.158665
21
108.899287
0
LINE
8
annotation
62
1
39
211
10
108.158665
20
108.899287
11
108.128640
21
108.962442
0
LINE
8
annotation
62
1
39
211
10
108.128640
20
108.962442
11
108.088587
21
109.019070
0
LINE
8
annotation
62
1
39
211
10
108.088587
20
109.019070
11
108.039649
21
109.068007
0
LINE
8
annotation
62
1
39
211
10
108.039649
20
109.068007
11
107.982969
21
109.108092
0
LINE
8
annotation
62
1
39
211
10
107.982969
20
109.108092
11
107.919690
21
109.138163
0
LINE
8
annotation
62
1
39
211
10
107.919690
20
109.138163
11
107.850956
21
109.157058
0
LINE
8
annotation
62
1
39
211
10
107.850956
20
109.157058
11
107.777909
21
109.163615
0
LINE
8
annotation
62
1
39
211
10
107.777909
20
109.163615
11
107.574549
21
109.163615
0
LINE
8
annotation
62
1
39
211
10
107.574549
20
109.163615
11
107.777909
21
109.163615
0
LINE
8
annotation
62
1
39
211
10
107.777909
20
109.163615
11
107.777909
21
109.163615
0
LINE
8
annotation
62
1
39
211
10
107.777909
20
109.163615
11
107.850956
21
109.170173
0
LINE
8
annotation
62
1
39
211
10
107.850956
20
109.170173
11
107.919690
21
109.189079
0
LINE
8
annotation
62
1
39
211
10
107.919690
20
109.189079
11
107.982969
21
109.219180
0
LINE
8
annotation
62
1
39
211
10
107.982969
20
109.219180
11
108.039649
21
109.259323
0
LINE
8
annotation
62
1
39
211
10
108.039649
20
109.259323
11
108.088587
21
109.308357
0
LINE
8
annotation
62
1
39
211
10
108.088587
20
109.308357
11
108.128640
21
109.365127
0
LINE
8
annotation
62
1
39
211
10
108.128640
20
109.365127
11
108.158665
21
109.428483
0
LINE
8
annotation
62
1
39
211
10
108.158665
20
109.428483
11
108.177518
21
109.497270
0
LINE
8
annotation
62
1
39
211
10
108.177518
20
109.497270
11
108.184056
21
109.570336
0
LINE
8
annotation
62
1
39
211
10
108.184056
20
109.570336
11
108.184056
21
109.570336
0
LINE
8
annotation
62
1
39
211
10
108.184056
20
109.570336
11
108.177518
21
109.643061
0
LINE
8
annotation
62
1
39
211
10
108.177518
20
109.643061
11
108.158665
21
109.711582
0
LINE
8
annotation
62
1
39
211
10
108.158665
20
109.711582
11
108.128640
21
109.774737
0
LINE
8
annotation
62
1
39
211
10
108.128640
20
109.774737
11
108.088587
21
109.831364
0
LINE
8
annotation
62
1
39
211
10
108.088587
20
109.831364
11
108.039649
21
109.880302
0
LINE
8
annotation
62
1
39
211
10
108.039649
20
109.880302
11
107.982969
21
109.920387
0
LINE
8
annotation
62
1
39
211
10
107.982969
20
109.920387
11
107.919690
21
109.950458
0
LINE
8
annotation
62
1
39
211
10
107.919690
20
109.950458
11
107.850956
21
109.969353
0
LINE
8
annotation
62
1
39
211
10
107.850956
20
109.969353
11
107.777909
21
109.975910
0
LINE
8
annotation
62
1
39
211
10
107.777909
20
109.975910
11
107.371762
21
109.975910
0
LINE
8
annotation
62
1
39
211
10
109.870153
20
109.063540
11
108.870097
21
109.063540
0
LINE
8
annotation
62
1
39
211
10
110.962514
20
108.149049
11
110.962514
21
109.978032
0
LINE
8
annotation
62
1
39
211
10
110.962514
20
109.978032
11
110.555907
21
109.571311
0
LINE
8
hole
62
5
39
2
10
122.237505
20
124.051774
11
122.237505
21
119.697490
0
LINE
8
hole
62
5
39
2
10
122.237505
20
119.697490
11
119.243934
21
119.697490
0
LINE
8
hole
62
5
39
2
10
119.243934
20
119.697490
11
94.297507
21
119.697490
0
LINE
8
hole
62
5
39
2
10
94.297507
20
119.697490
11
94.297507
21
120.735670
0
LINE
8
hole
62
5
39
2
10
94.297507
20
120.735670
11
91.884504
21
120.960714
0
LINE
8
hole
62
5
39
2
10
91.884504
20
120.960714
11
91.884504
21
125.207594
0
LINE
8
hole
62
5
39
2
10
91.884504
20
125.207594
11
94.212164
21
125.207594
0
LINE
8
hole
62
5
39
2
10
94.212164
20
125.207594
11
94.297508
21
137.669001
0
LINE
8
hole
62
5
39
2
10
94.297508
20
137.669001
11
91.884504
21
137.894045
0
LINE
8
hole
62
5
39
2
10
91.884504
20
137.894045
11
91.884504
21
142.140925
0
LINE
8
hole
62
5
39
2
10
91.884504
20
142.140925
11
94.212164
21
142.140925
0
LINE
8
hole
62
5
39
2
10
94.212164
20
142.140925
11
94.297508
21
154.602333
0
LINE
8
hole
62
5
39
2
10
94.297508
20
154.602333
11
91.884504
21
154.827377
0
LINE
8
hole
62
5
39
2
10
91.884504
20
154.827377
11
91.884504
21
159.074257
0
LINE
8
hole
62
5
39
2
10
91.884504
20
159.074257
11
94.212163
21
159.074257
0
LINE
8
hole
62
5
39
2
10
94.212163
20
159.074257
11
94.297507
21
160.337487
0
LINE
8
hole
62
5
39
2
10
94.297507
20
160.337487
11
97.291078
21
160.337487
0
LINE
8
hole
62
5
39
2
10
97.291078
20
160.337487
11
122.237505
21
160.337487
0
LINE
8
hole
62
5
39
2
10
122.237505
20
160.337487
11
122.237505
21
124.051774
0
LINE
8
boundary
62
5
39
2
10
89.217500
20
114.617488
11
95.567500
21
114.617488
0
LINE
8
boundary
62
5
39
2
10
95.567500
20
114.617488
11
127.317500
21
114.617488
0
LINE
8
boundary
62
5
39
2
10
127.317500
20
114.617488
11
127.317500
21
120.735670
0
LINE
8
boundary
62
5
39
2
10
127.317500
20
120.735670
11
124.904503
21
120.960714
0
LINE
8
boundary
62
5
39
2
10
124.904503
20
120.960714
11
124.904503
21
125.207594
0
LINE
8
boundary
62
5
39
2
10
124.904503
20
125.207594
11
127.232156
21
125.207594
0
LINE
8
boundary
62
5
39
2
10
127.232156
20
125.207594
11
127.317500
21
137.669001
0
LINE
8
boundary
62
5
39
2
10
127.317500
20
137.669001
11
124.904503
21
137.894045
0
LINE
8
boundary
62
5
39
2
10
124.904503
20
137.894045
11
124.904503
21
142.140925
0
LINE
8
boundary
62
5
39
2
10
124.904503
20
142.140925
11
127.232156
21
142.140925
0
LINE
8
boundary
62
5
39
2
10
127.232156
20
142.140925
11
127.317500
21
154.602333
0
LINE
8
boundary
62
5
39
2
10
127.317500
20
154.602333
11
124.904503
21
154.827377
0
LINE
8
boundary
62
5
39
2
10
124.904503
20
154.827377
11
124.904503
21
159.074257
0
LINE
8
boundary
62
5
39
2
10
124.904503
20
159.074257
11
127.232156
21
159.074257
0
LINE
8
boundary
62
5
39
2
10
127.232156
20
159.074257
11
127.317500
21
165.417482
0
LINE
8
boundary
62
5
39
2
10
127.317500
20
165.417482
11
120.967500
21
165.417482
0
LINE
8
boundary
62
5
39
2
10
120.967500
20
165.417482
11
89.217500
21
165.417482
0
LINE
8
boundary
62
5
39
2
10
89.217500
20
165.417482
11
89.217500
21
123.084154
0
LINE
8
boundary
62
5
39
2
10
89.217500
20
123.084154
11
89.217500
21
114.617488
0
LINE
8
annotation
62
1
39
211
10
89.773878
20
124.013683
11
89.773878
21
125.755329
0
LINE
8
annotation
62
1
39
211
10
89.773878
20
125.755329
11
89.386688
21
125.368030
0
LINE
8
annotation
62
1
39
211
10
122.793881
20
122.213333
11
122.793881
21
123.954975
0
LINE
8
annotation
62
1
39
211
10
122.793881
20
123.954975
11
122.406692
21
123.567676
0
LINE
8
annotation
62
1
39
211
10
90.129577
20
139.225728
11
89.426312
21
139.225728
0
LINE
8
annotation
62
1
39
211
10
89.426312
20
139.225728
11
90.076152
21
140.271887
0
LINE
8
annotation
62
1
39
211
10
90.076152
20
140.271887
11
90.076152
21
140.271887
0
LINE
8
annotation
62
1
39
211
10
90.076152
20
140.271887
11
90.076929
21
140.272849
0
LINE
8
annotation
62
1
39
211
10
90.076929
20
140.272849
11
90.077674
21
140.273818
0
LINE
8
annotation
62
1
39
211
10
90.077674
20
140.273818
11
90.078392
21
140.274804
0
LINE
8
annotation
62
1
39
211
10
90.078392
20
140.274804
11
90.079088
21
140.275814
0
LINE
8
annotation
62
1
39
211
10
90.079088
20
140.275814
11
90.079766
21
140.276857
0
LINE
8
annotation
62
1
39
211
10
90.079766
20
140.276857
11
90.080433
21
140.277941
0
LINE
8
annotation
62
1
39
211
10
90.080433
20
140.277941
11
90.081092
21
140.279074
0
LINE
8
annotation
62
1
39
211
10
90.081092
20
140.279074
11
90.081749
21
140.280264
0
LINE
8
annotation
62
1
39
211
10
90.081749
20
140.280264
11
90.082408
21
140.281520
0
LINE
8
annotation
62
1
39
211
10
90.082408
20
140.281520
11
90.082408
21
140.281520
0
LINE
8
annotation
62
1
39
211
10
90.082408
20
140.281520
11
90.109240
21
140.339130
0
LINE
8
annotation
62
1
39
211
10
90.109240
20
140.339130
11
90.124914
21
140.398848
0
LINE
8
annotation
62
1
39
211
10
90.124914
20
140.398848
11
90.129816
21
140.459324
0
LINE
8
annotation
62
1
39
211
10
90.129816
20
140.459324
11
90.124329
21
140.519209
0
LINE
8
annotation
62
1
39
211
10
90.124329
20
140.519209
11
90.108837
21
140.577154
0
LINE
8
annotation
62
1
39
211
10
90.108837
20
140.577154
11
90.083725
21
140.631810
0
LINE
8
annotation
62
1
39
211
10
90.083725
20
140.631810
11
90.049376
21
140.681826
0
LINE
8
annotation
62
1
39
211
10
90.049376
20
140.681826
11
90.006175
21
140.725854
0
LINE
8
annotation
62
1
39
211
10
90.006175
20
140.725854
11
89.954506
21
140.762544
0
LINE
8
annotation
62
1
39
211
10
89.954506
20
140.762544
11
89.954506
21
140.762544
0
LINE
8
annotation
62
1
39
211
10
89.954506
20
140.762544
11
89.896735
21
140.788995
0
LINE
8
annotation
62
1
39
211
10
89.896735
20
140.788995
11
89.836926
21
140.804428
0
LINE
8
annotation
62
1
39
211
10
89.836926
20
140.804428
11
89.776414
21
140.809191
0
LINE
8
annotation
62
1
39
211
10
89.776414
20
140.809191
11
89.716538
21
140.803632
0
LINE
8
annotation
62
1
39
211
10
89.716538
20
140.803632
11
89.658634
21
140.788097
0
LINE
8
annotation
62
1
39
211
10
89.658634
20
140.788097
11
89.604039
21
140.762934
0
LINE
8
annotation
62
1
39
211
10
89.604039
20
140.762934
11
89.554090
21
140.728491
0
LINE
8
annotation
62
1
39
211
10
89.554090
20
140.728491
11
89.510125
21
140.685115
0
LINE
8
annotation
62
1
39
211
10
89.510125
20
140.685115
11
89.473481
21
140.633152
0
LINE
8
annotation
62
1
39
211
10
89.473481
20
140.633152
11
89.427305
21
140.544574
0
LINE
8
annotation
62
1
39
211
10
123.149580
20
141.026082
11
122.446316
21
141.026082
0
LINE
8
annotation
62
1
39
211
10
122.446316
20
141.026082
11
123.096155
21
142.072239
0
LINE
8
annotation
62
1
39
211
10
123.096155
20
142.072239
11
123.096155
21
142.072239
0
LINE
8
annotation
62
1
39
211
10
123.096155
20
142.072239
11
123.096931
21
142.073200
0
LINE
8
annotation
62
1
39
211
10
123.096931
20
142.073200
11
123.097676
21
142.074169
0
LINE
8
annotation
62
1
39
211
10
123.097676
20
142.074169
11
123.098394
21
142.075155
0
LINE
8
annotation
62
1
39
211
10
123.098394
20
142.075155
11
123.099090
21
142.076166
0
LINE
8
annotation
62
1
39
211
10
123.099090
20
142.076166
11
123.099769
21
142.077209
0
LINE
8
annotation
62
1
39
211
10
123.099769
20
142.077209
11
123.100436
21
142.078292
0
LINE
8
annotation
62
1
39
211
10
123.100436
20
142.078292
11
123.101095
21
142.079425
0
LINE
8
annotation
62
1
39
211
10
123.101095
20
142.079425
11
123.101751
21
142.080616
0
LINE
8
annotation
62
1
39
211
10
123.101751
20
142.080616
11
123.102411
21
142.081871
0
LINE
8
annotation
62
1
39
211
10
123.102411
20
142.081871
11
123.102411
21
142.081871
0
LINE
8
annotation
62
1
39
211
10
123.102411
20
142.081871
11
123.129242
21
142.139481
0
LINE
8
annotation
62
1
39
211
10
123.129242
20
142.139481
11
123.144917
21
142.199199
0
LINE
8
annotation
62
1
39
211
10
123.144917
20
142.199199
11
123.149819
21
142.259675
0
LINE
8
annotation
62
1
39
211
10
123.149819
20
142.259675
11
123.144331
21
142.319560
0
LINE
8
annotation
62
1
39
211
10
123.144331
20
142.319560
11
123.128840
21
142.377505
0
LINE
8
annotation
62
1
39
211
10
123.128840
20
142.377505
11
123.103727
21
142.432160
0
LINE
8
annotation
62
1
39
211
10
123.103727
20
142.432160
11
123.069379
21
142.482177
0
LINE
8
annotation
62
1
39
211
10
123.069379
20
142.482177
11
123.026178
21
142.526205
0
LINE
8
annotation
62
1
39
211
10
123.026178
20
142.526205
11
122.974508
21
142.562895
0
LINE
8
annotation
62
1
39
211
10
122.974508
20
142.562895
11
122.974508
21
142.562895
0
LINE
8
annotation
62
1
39
211
10
122.974508
20
142.562895
11
122.916738
21
142.589345
0
LINE
8
annotation
62
1
39
211
10
122.916738
20
142.589345
11
122.856929
21
142.604778
0
LINE
8
annotation
62
1
39
211
10
122.856929
20
142.604778
11
122.796418
21
142.609541
0
LINE
8
annotation
62
1
39
211
10
122.796418
20
142.609541
11
122.736542
21
142.603982
0
LINE
8
annotation
62
1
39
211
10
122.736542
20
142.603982
11
122.678637
21
142.588447
0
LINE
8
annotation
62
1
39
211
10
122.678637
20
142.588447
11
122.624043
21
142.563284
0
LINE
8
annotation
62
1
39
211
10
122.624043
20
142.563284
11
122.574094
21
142.528841
0
LINE
8
annotation
62
1
39
211
10
122.574094
20
142.528841
11
122.530129
21
142.485465
0
LINE
8
annotation
62
1
39
211
10
122.530129
20
142.485465
11
122.493485
21
142.433503
0
LINE
8
annotation
62
1
39
211
10
122.493485
20
142.433503
11
122.447309
21
142.344925
0
LINE
8
annotation
62
1
39
211
10
89.426168
20
156.159073
11
89.777822
21
156.159073
0
LINE
8
annotation
62
1
39
211
10
89.777822
20
156.159073
11
89.777822
21
156.159073
0
LINE
8
annotation
62
1
39
211
10
89.777822
20
156.159073
11
89.841068
21
156.164747
0
LINE
8
annotation
62
1
39
211
10
89.841068
20
156.164747
11
89.900580
21
156.181098
0
LINE
8
annotation
62
1
39
211
10
89.900580
20
156.181098
11
89.955369
21
156.207124
0
LINE
8
annotation
62
1
39
211
10
89.955369
20
156.207124
11
90.004444
21
156.241820
0
LINE
8
annotation
62
1
39
211
10
90.004444
20
156.241820
11
90.046816
21
156.284184
0
LINE
8
annotation
62
1
39
211
10
90.046816
20
156.284184
11
90.081495
21
156.333210
0
LINE
8
annotation
62
1
39
211
10
90.081495
20
156.333210
11
90.107492
21
156.387896
0
LINE
8
annotation
62
1
39
211
10
90.107492
20
156.387896
11
90.123815
21
156.447237
0
LINE
8
annotation
62
1
39
211
10
90.123815
20
156.447237
11
90.129476
21
156.510231
0
LINE
8
annotation
62
1
39
211
10
90.129476
20
156.510231
11
90.129476
21
156.686306
0
LINE
8
annotation
62
1
39
211
10
90.129476
20
156.686306
11
90.129476
21
156.686306
0
LINE
8
annotation
62
1
39
211
10
90.129476
20
156.686306
11
90.123815
21
156.749274
0
LINE
8
annotation
62
1
39
211
10
90.123815
20
156.749274
11
90.107492
21
156.808601
0
LINE
8
annotation
62
1
39
211
10
90.107492
20
156.808601
11
90.081495
21
156.863283
0
LINE
8
annotation
62
1
39
211
10
90.081495
20
156.863283
11
90.046816
21
156.912313
0
LINE
8
annotation
62
1
39
211
10
90.046816
20
156.912313
11
90.004444
21
156.954684
0
LINE
8
annotation
62
1
39
211
10
90.004444
20
156.954684
11
89.955369
21
156.989391
0
LINE
8
annotation
62
1
39
211
10
89.955369
20
156.989391
11
89.900580
21
157.015427
0
LINE
8
annotation
62
1
39
211
10
89.900580
20
157.015427
11
89.841068
21
157.031787
0
LINE
8
annotation
62
1
39
211
10
89.841068
20
157.031787
11
89.777822
21
157.037464
0
LINE
8
annotation
62
1
39
211
10
89.777822
20
157.037464
11
89.601747
21
157.037464
0
LINE
8
annotation
62
1
39
211
10
89.601747
20
157.037464
11
89.777822
21
157.037464
0
LINE
8
annotation
62
1
39
211
10
89.777822
20
157.037464
11
89.777822
21
157.037464
0
LINE
8
annotation
62
1
39
211
10
89.777822
20
157.037464
11
89.841068
21
157.043142
0
LINE
8
annotation
62
1
39
211
10
89.841068
20
157.043142
11
89.900580
21
157.059512
0
LINE
8
annotation
62
1
39
211
10
89.900580
20
157.059512
11
89.955369
21
157.085574
0
LINE
8
annotation
62
1
39
211
10
89.955369
20
157.085574
11
90.004444
21
157.120331
0
LINE
8
annotation
62
1
39
211
10
90.004444
20
157.120331
11
90.046816
21
157.162786
0
LINE
8
annotation
62
1
39
211
10
90.046816
20
157.162786
11
90.081495
21
157.211940
0
LINE
8
annotation
62
1
39
211
10
90.081495
20
157.211940
11
90.107492
21
157.266794
0
LINE
8
annotation
62
1
39
211
10
90.107492
20
157.266794
11
90.123815
21
157.326352
0
LINE
8
annotation
62
1
39
211
10
90.123815
20
157.326352
11
90.129476
21
157.389615
0
LINE
8
annotation
62
1
39
211
10
90.129476
20
157.389615
11
90.129476
21
157.389615
0
LINE
8
annotation
62
1
39
211
10
90.129476
20
157.389615
11
90.123815
21
157.452582
0
LINE
8
annotation
62
1
39
211
10
90.123815
20
157.452582
11
90.107492
21
157.511910
0
LINE
8
annotation
62
1
39
211
10
90.107492
20
157.511910
11
90.081495
21
157.566591
0
LINE
8
annotation
62
1
39
211
10
90.081495
20
157.566591
11
90.046816
21
157.615621
0
LINE
8
annotation
62
1
39
211
10
90.046816
20
157.615621
11
90.004444
21
157.657993
0
LINE
8
annotation
62
1
39
211
10
90.004444
20
157.657993
11
89.955369
21
157.692700
0
LINE
8
annotation
62
1
39
211
10
89.955369
20
157.692700
11
89.900580
21
157.718736
0
LINE
8
annotation
62
1
39
211
10
89.900580
20
157.718736
11
89.841068
21
157.735096
0
LINE
8
annotation
62
1
39
211
10
89.841068
20
157.735096
11
89.777822
21
157.740773
0
LINE
8
annotation
62
1
39
211
10
89.777822
20
157.740773
11
89.426168
21
157.740773
0
LINE
8
annotation
62
1
39
211
10
122.446172
20
157.959427
11
122.797825
21
157.959427
0
LINE
8
annotation
62
1
39
211
10
122.797825
20
157.959427
11
122.797825
21
157.959427
0
LINE
8
annotation
62
1
39
211
10
122.797825
20
157.959427
11
122.861071
21
157.965100
0
LINE
8
annotation
62
1
39
211
10
122.861071
20
157.965100
11
122.920583
21
157.981452
0
LINE
8
annotation
62
1
39
211
10
122.920583
20
157.981452
11
122.975372
21
158.007478
0
LINE
8
annotation
62
1
39
211
10
122.975372
20
158.007478
11
123.024447
21
158.042174
0
LINE
8
annotation
62
1
39
211
10
123.024447
20
158.042174
11
123.066819
21
158.084537
0
LINE
8
annotation
62
1
39
211
10
123.066819
20
158.084537
11
123.101498
21
158.133564
0
LINE
8
annotation
62
1
39
211
10
123.101498
20
158.133564
11
123.127494
21
158.188249
0
LINE
8
annotation
62
1
39
211
10
123.127494
20
158.188249
11
123.143818
21
158.247591
0
LINE
8
annotation
62
1
39
211
10
123.143818
20
158.247591
11
123.149479
21
158.310584
0
LINE
8
annotation
62
1
39
211
10
123.149479
20
158.310584
11
123.149479
21
158.486659
0
LINE
8
annotation
62
1
39
211
10
123.149479
20
158.486659
11
123.149479
21
158.486659
0
LINE
8
annotation
62
1
39
211
10
123.149479
20
158.486659
11
123.143818
21
158.549626
0
LINE
8
annotation
62
1
39
211
10
123.143818
20
158.549626
11
123.127494
21
158.608953
0
LINE
8
annotation
62
1
39
211
10
123.127494
20
158.608953
11
123.101498
21
158.663635
0
LINE
8
annotation
62
1
39
211
10
123.101498
20
158.663635
11
123.066819
21
158.712665
0
LINE
8
annotation
62
1
39
211
10
123.066819
20
158.712665
11
123.024447
21
158.755036
0
LINE
8
annotation
62
1
39
211
10
123.024447
20
158.755036
11
122.975372
21
158.789743
0
LINE
8
annotation
62
1
39
211
10
122.975372
20
158.789743
11
122.920583
21
158.815779
0
LINE
8
annotation
62
1
39
211
10
122.920583
20
158.815779
11
122.861071
21
158.832139
0
LINE
8
annotation
62
1
39
211
10
122.861071
20
158.832139
11
122.797825
21
158.837816
0
LINE
8
annotation
62
1
39
211
10
122.797825
20
158.837816
11
122.621750
21
158.837816
0
LINE
8
annotation
62
1
39
211
10
122.621750
20
158.837816
11
122.797825
21
158.837816
0
LINE
8
annotation
62
1
39
211
10
122.797825
20
158.837816
11
122.797825
21
158.837816
0
LINE
8
annotation
62
1
39
211
10
122.797825
20
158.837816
11
122.861071
21
158.843494
0
LINE
8
annotation
62
1
39
211
10
122.861071
20
158.843494
11
122.920583
21
158.859863
0
LINE
8
annotation
62
1
39
211
10
122.920583
20
158.859863
11
122.975372
21
158.885926
0
LINE
8
annotation
62
1
39
211
10
122.975372
20
158.885926
11
123.024447
21
158.920683
0
LINE
8
annotation
62
1
39
211
10
123.024447
20
158.920683
11
123.066819
21
158.963137
0
LINE
8
annotation
62
1
39
211
10
123.066819
20
158.963137
11
123.101498
21
159.012291
0
LINE
8
annotation
62
1
39
211
10
123.101498
20
159.012291
11
123.127494
21
159.067145
0
LINE
8
annotation
62
1
39
211
10
123.127494
20
159.067145
11
123.143818
21
159.126703
0
LINE
8
annotation
62
1
39
211
10
123.143818
20
159.126703
11
123.149479
21
159.189966
0
LINE
8
annotation
62
1
39
211
10
123.149479
20
159.189966
11
123.149479
21
159.189966
0
LINE
8
annotation
62
1
39
211
10
123.149479
20
159.189966
11
123.143818
21
159.252933
0
LINE
8
annotation
62
1
39
211
10
123.143818
20
159.252933
11
123.127494
21
159.312261
0
LINE
8
annotation
62
1
39
211
10
123.127494
20
159.312261
11
123.101498
21
159.366942
0
LINE
8
annotation
62
1
39
211
10
123.101498
20
159.366942
11
123.066819
21
159.415972
0
LINE
8
annotation
62
1
39
211
10
123.066819
20
159.415972
11
123.024447
21
159.458343
0
LINE
8
annotation
62
1
39
211
10
123.024447
20
159.458343
11
122.975372
21
159.493050
0
LINE
8
annotation
62
1
39
211
10
122.975372
20
159.493050
11
122.920583
21
159.519086
0
LINE
8
annotation
62
1
39
211
10
122.920583
20
159.519086
11
122.861071
21
159.535446
0
LINE
8
annotation
62
1
39
211
10
122.861071
20
159.535446
11
122.797825
21
159.541123
0
LINE
8
annotation
62
1
39
211
10
122.797825
20
159.541123
11
122.446172
21
159.541123
0
LINE
8
annotation
62
1
39
211
10
104.999830
20
162.124043
11
103.984289
21
162.124043
0
LINE
8
annotation
62
1
39
211
10
103.984289
20
162.124043
11
104.999830
21
163.953026
0
LINE
8
annotation
62
1
39
211
10
104.999830
20
163.953026
11
103.984289
21
163.953026
0
LINE
8
annotation
62
1
39
211
10
106.685927
20
163.038535
11
105.685870
21
163.038535
0
LINE
8
annotation
62
1
39
211
10
107.778287
20
162.124043
11
107.778287
21
163.953026
0
LINE
8
annotation
62
1
39
211
10
107.778287
20
163.953026
11
107.371681
21
163.546305
0
LINE
8
annotation
62
1
39
211
10
109.464327
20
163.038535
11
108.464270
21
163.038535
0
LINE
8
annotation
62
1
39
211
10
110.962456
20
162.124028
11
110.150161
21
162.124028
0
LINE
8
annotation
62
1
39
211
10
110.150161
20
162.124028
11
110.900748
21
163.332377
0
LINE
8
annotation
62
1
39
211
10
110.900748
20
163.332377
11
110.900748
21
163.332377
0
LINE
8
annotation
62
1
39
211
10
110.900748
20
163.332377
11
110.901646
21
163.333488
0
LINE
8
annotation
62
1
39
211
10
110.901646
20
163.333488
11
110.902506
21
163.334607
0
LINE
8
annotation
62
1
39
211
10
110.902506
20
163.334607
11
110.903335
21
163.335746
0
LINE
8
annotation
62
1
39
211
10
110.903335
20
163.335746
11
110.904139
21
163.336913
0
LINE
8
annotation
62
1
39
211
10
110.904139
20
163.336913
11
110.904923
21
163.338118
0
LINE
8
annotation
62
1
39
211
10
110.904923
20
163.338118
11
110.905693
21
163.339370
0
LINE
8
annotation
62
1
39
211
10
110.905693
20
163.339370
11
110.906454
21
163.340678
0
LINE
8
annotation
62
1
39
211
10
110.906454
20
163.340678
11
110.907213
21
163.342053
0
LINE
8
annotation
62
1
39
211
10
110.907213
20
163.342053
11
110.907974
21
163.343503
0
LINE
8
annotation
62
1
39
211
10
110.907974
20
163.343503
11
110.907974
21
163.343503
0
LINE
8
annotation
62
1
39
211
10
110.907974
20
163.343503
11
110.938966
21
163.410045
0
LINE
8
annotation
62
1
39
211
10
110.938966
20
163.410045
11
110.957071
21
163.479021
0
LINE
8
annotation
62
1
39
211
10
110.957071
20
163.479021
11
110.962732
21
163.548873
0
LINE
8
annotation
62
1
39
211
10
110.962732
20
163.548873
11
110.956394
21
163.618043
0
LINE
8
annotation
62
1
39
211
10
110.956394
20
163.618043
11
110.938501
21
163.684971
0
LINE
8
annotation
62
1
39
211
10
110.938501
20
163.684971
11
110.909495
21
163.748100
0
LINE
8
annotation
62
1
39
211
10
110.909495
20
163.748100
11
110.869821
21
163.805871
0
LINE
8
annotation
62
1
39
211
10
110.869821
20
163.805871
11
110.819922
21
163.856724
0
LINE
8
annotation
62
1
39
211
10
110.819922
20
163.856724
11
110.760243
21
163.899103
0
LINE
8
annotation
62
1
39
211
10
110.760243
20
163.899103
11
110.760243
21
163.899103
0
LINE
8
annotation
62
1
39
211
10
110.760243
20
163.899103
11
110.693516
21
163.929654
0
LINE
8
annotation
62
1
39
211
10
110.693516
20
163.929654
11
110.624434
21
163.947480
0
LINE
8
annotation
62
1
39
211
10
110.624434
20
163.947480
11
110.554541
21
163.952981
0
LINE
8
annotation
62
1
39
211
10
110.554541
20
163.952981
11
110.485382
21
163.946560
0
LINE
8
annotation
62
1
39
211
10
110.485382
20
163.946560
11
110.418501
21
163.928617
0
LINE
8
annotation
62
1
39
211
10
110.418501
20
163.928617
11
110.355442
21
163.899553
0
LINE
8
annotation
62
1
39
211
10
110.355442
20
163.899553
11
110.297749
21
163.859770
0
LINE
8
annotation
62
1
39
211
10
110.297749
20
163.859770
11
110.246968
21
163.809669
0
LINE
8
annotation
62
1
39
211
10
110.246968
20
163.809669
11
110.204643
21
163.749651
0
LINE
8
annotation
62
1
39
211
10
110.204643
20
163.749651
11
110.151308
21
163.647339
0
LINE
8
hole
62
5
39
2
10
163.512505
20
138.566060
11
163.512505
21
119.697490
0
LINE
8
hole
62
5
39
2
10
163.512505
20
119.697490
11
150.540364
21
119.697490
0
LINE
8
hole
62
5
39
2
10
150.540364
20
119.697490
11
135.572508
21
119.697490
0
LINE
8
hole
62
5
39
2
10
135.572508
20
119.697490
11
135.572508
21
120.735670
0
LINE
8
hole
62
5
39
2
10
135.572508
20
120.735670
11
133.159504
21
120.960714
0
LINE
8
hole
62
5
39
2
10
133.159504
20
120.960714
11
133.159504
21
125.207594
0
LINE
8
hole
62
5
39
2
10
133.159504
20
125.207594
11
135.487164
21
125.207594
0
LINE
8
hole
62
5
39
2
10
135.487164
20
125.207594
11
135.572508
21
137.669001
0
LINE
8
hole
62
5
39
2
10
135.572508
20
137.669001
11
133.159504
21
137.894045
0
LINE
8
hole
62
5
39
2
10
133.159504
20
137.894045
11
133.159504
21
142.140925
0
LINE
8
hole
62
5
39
2
10
133.159504
20
142.140925
11
135.487164
21
142.140925
0
LINE
8
hole
62
5
39
2
10
135.487164
20
142.140925
11
135.572507
21
154.602333
0
LINE
8
hole
62
5
39
2
10
135.572507
20
154.602333
11
133.159504
21
154.827377
0
LINE
8
hole
62
5
39
2
10
133.159504
20
154.827377
11
133.159504
21
159.074257
0
LINE
8
hole
62
5
39
2
10
133.159504
20
159.074257
11
135.487163
21
159.074257
0
LINE
8
hole
62
5
39
2
10
135.487163
20
159.074257
11
135.572507
21
160.337487
0
LINE
8
hole
62
5
39
2
10
135.572507
20
160.337487
11
148.544649
21
160.337487
0
LINE
8
hole
62
5
39
2
10
148.544649
20
160.337487
11
163.512505
21
160.337487
0
LINE
8
hole
62
5
39
2
10
163.512505
20
160.337487
11
163.512505
21
138.566060
0
LINE
8
boundary
62
5
39
2
10
130.492500
20
114.617488
11
149.542500
21
114.617488
0
LINE
8
boundary
62
5
39
2
10
149.542500
20
114.617488
11
168.592500
21
114.617488
0
LINE
8
boundary
62
5
39
2
10
168.592500
20
114.617488
11
168.592500
21
120.735670
0
LINE
8
boundary
62
5
39
2
10
168.592500
20
120.735670
11
166.179503
21
120.960714
0
LINE
8
boundary
62
5
39
2
10
166.179503
20
120.960714
11
166.179503
21
125.207594
0
LINE
8
boundary
62
5
39
2
10
166.179503
20
125.207594
11
168.507156
21
125.207594
0
LINE
8
boundary
62
5
39
2
10
168.507156
20
125.207594
11
168.592500
21
137.669001
0
LINE
8
boundary
62
5
39
2
10
168.592500
20
137.669001
11
166.179503
21
137.894045
0
LINE
8
boundary
62
5
39
2
10
166.179503
20
137.894045
11
166.179503
21
142.140925
0
LINE
8
boundary
62
5
39
2
10
166.179503
20
142.140925
11
168.507156
21
142.140925
0
LINE
8
boundary
62
5
39
2
10
168.507156
20
142.140925
11
168.592500
21
154.602333
0
LINE
8
boundary
62
5
39
2
10
168.592500
20
154.602333
11
166.179503
21
154.827377
0
LINE
8
boundary
62
5
39
2
10
166.179503
20
154.827377
11
166.179503
21
159.074257
0
LINE
8
boundary
62
5
39
2
10
166.179503
20
159.074257
11
168.507156
21
159.074257
0
LINE
8
boundary
62
5
39
2
10
168.507156
20
159.074257
11
168.592500
21
165.417482
0
LINE
8
boundary
62
5
39
2
10
168.592500
20
165.417482
11
149.542500
21
165.417482
0
LINE
8
boundary
62
5
39
2
10
149.542500
20
165.417482
11
130.492500
21
165.417482
0
LINE
8
boundary
62
5
39
2
10
130.492500
20
165.417482
11
130.492500
21
140.017485
0
LINE
8
boundary
62
5
39
2
10
130.492500
20
140.017485
11
130.492500
21
114.617488
0
LINE
8
annotation
62
1
39
211
10
131.048878
20
124.013683
11
131.048878
21
125.755329
0
LINE
8
annotation
62
1
39
211
10
131.048878
20
125.755329
11
130.661688
21
125.368030
0
LINE
8
annotation
62
1
39
211
10
164.068881
20
122.213333
11
164.068881
21
123.954975
0
LINE
8
annotation
62
1
39
211
10
164.068881
20
123.954975
11
163.681692
21
123.567676
0
LINE
8
annotation
62
1
39
211
10
131.404577
20
139.225728
11
130.701312
21
139.225728
0
LINE
8
annotation
62
1
39
211
10
130.701312
20
139.225728
11
131.351152
21
140.271887
0
LINE
8
annotation
62
1
39
211
10
131.351152
20
140.271887
11
131.351152
21
140.271887
0
LINE
8
annotation
62
1
39
211
10
131.351152
20
140.271887
11
131.351929
21
140.272849
0
LINE
8
annotation
62
1
39
211
10
131.351929
20
140.272849
11
131.352674
21
140.273818
0
LINE
8
annotation
62
1
39
211
10
131.352674
20
140.273818
11
131.353392
21
140.274804
0
LINE
8
annotation
62
1
39
211
10
131.353392
20
140.274804
11
131.354088
21
140.275814
0
LINE
8
annotation
62
1
39
211
10
131.354088
20
140.275814
11
131.354767
21
140.276857
0
LINE
8
annotation
62
1
39
211
10
131.354767
20
140.276857
11
131.355433
21
140.277941
0
LINE
8
annotation
62
1
39
211
10
131.355433
20
140.277941
11
131.356092
21
140.279074
0
LINE
8
annotation
62
1
39
211
10
131.356092
20
140.279074
11
131.356749
21
140.280264
0
LINE
8
annotation
62
1
39
211
10
131.356749
20
140.280264
11
131.357408
21
140.281520
0
LINE
8
annotation
62
1
39
211
10
131.357408
20
140.281520
11
131.357408
21
140.281520
0
LINE
8
annotation
62
1
39
211
10
131.357408
20
140.281520
11
131.384240
21
140.339130
0
LINE
8
annotation
62
1
39
211
10
131.384240
20
140.339130
11
131.399914
21
140.398848
0
LINE
8
annotation
62
1
39
211
10
131.399914
20
140.398848
11
131.404816
21
140.459324
0
LINE
8
annotation
62
1
39
211
10
131.404816
20
140.459324
11
131.399329
21
140.519209
0
LINE
8
annotation
62
1
39
211
10
131.399329
20
140.519209
11
131.383837
21
140.577154
0
LINE
8
annotation
62
1
39
211
10
131.383837
20
140.577154
11
131.358725
21
140.631810
0
LINE
8
annotation
62
1
39
211
10
131.358725
20
140.631810
11
131.324376
21
140.681826
0
LINE
8
annotation
62
1
39
211
10
131.324376
20
140.681826
11
131.281175
21
140.725854
0
LINE
8
annotation
62
1
39
211
10
131.281175
20
140.725854
11
131.229506
21
140.762544
0
LINE
8
annotation
62
1
39
211
10
131.229506
20
140.762544
11
131.229506
21
140.762544
0
LINE
8
annotation
62
1
39
211
10
131.229506
20
140.762544
11
131.171735
21
140.788995
0
LINE
8
annotation
62
1
39
211
10
131.171735
20
140.788995
11
131.111926
21
140.804428
0
LINE
8
annotation
62
1
39
211
10
131.111926
20
140.804428
11
131.051414
21
140.809191
0
LINE
8
annotation
62
1
39
211
10
131.051414
20
140.809191
11
130.991538
21
140.803632
0
LINE
8
annotation
62
1
39
211
10
130.991538
20
140.803632
11
130.933634
21
140.788097
0
LINE
8
annotation
62
1
39
211
10
130.933634
20
140.788097
11
130.879039
21
140.762934
0
LINE
8
annotation
62
1
39
211
10
130.879039
20
140.762934
11
130.829090
21
140.728491
0
LINE
8
annotation
62
1
39
211
10
130.829090
20
140.728491
11
130.785125
21
140.685115
0
LINE
8
annotation
62
1
39
211
10
130.785125
20
140.685115
11
130.748481
21
140.633152
0
LINE
8
annotation
62
1
39
211
10
130.748481
20
140.633152
11
130.702305
21
140.544574
0
LINE
8
annotation
62
1
39
211
10
164.424580
20
141.026082
11
163.721316
21
141.026082
0
LINE
8
annotation
62
1
39
211
10
163.721316
20
141.026082
11
164.371155
21
142.072239
0
LINE
8
annotation
62
1
39
211
10
164.371155
20
142.072239
11
164.371155
21
142.072239
0
LINE
8
annotation
62
1
39
211
10
164.371155
20
142.072239
11
164.371932
21
142.073200
0
LINE
8
annotation
62
1
39
211
10
164.371932
20
142.073200
11
164.372677
21
142.074169
0
LINE
8
annotation
62
1
39
211
10
164.372677
20
142.074169
11
164.373395
21
142.075155
0
LINE
8
annotation
62
1
39
211
10
164.373395
20
142.075155
11
164.374090
21
142.076166
0
LINE
8
annotation
62
1
39
211
10
164.374090
20
142.076166
11
164.374769
21
142.077209
0
LINE
8
annotation
62
1
39
211
10
164.374769
20
142.077209
11
164.375436
21
142.078292
0
LINE
8
annotation
62
1
39
211
10
164.375436
20
142.078292
11
164.376095
21
142.079425
0
LINE
8
annotation
62
1
39
211
10
164.376095
20
142.079425
11
164.376752
21
142.080616
0
LINE
8
annotation
62
1
39
211
10
164.376752
20
142.080616
11
164.377411
21
142.081871
0
LINE
8
annotation
62
1
39
211
10
164.377411
20
142.081871
11
164.377411
21
142.081871
0
LINE
8
annotation
62
1
39
211
10
164.377411
20
142.081871
11
164.404242
21
142.139481
0
LINE
8
annotation
62
1
39
211
10
164.404242
20
142.139481
11
164.419917
21
142.199199
0
LINE
8
annotation
62
1
39
211
10
164.419917
20
142.199199
11
164.424819
21
142.259675
0
LINE
8
annotation
62
1
39
211
10
164.424819
20
142.259675
11
164.419332
21
142.319560
0
LINE
8
annotation
62
1
39
211
10
164.419332
20
142.319560
11
164.403840
21
142.377505
0
LINE
8
annotation
62
1
39
211
10
164.403840
20
142.377505
11
164.378727
21
142.432160
0
LINE
8
annotation
62
1
39
211
10
164.378727
20
142.432160
11
164.344379
21
142.482177
0
LINE
8
annotation
62
1
39
211
10
164.344379
20
142.482177
11
164.301178
21
142.526205
0
LINE
8
annotation
62
1
39
211
10
164.301178
20
142.526205
11
164.249509
21
142.562895
0
LINE
8
annotation
62
1
39
211
10
164.249509
20
142.562895
11
164.249509
21
142.562895
0
LINE
8
annotation
62
1
39
211
10
164.249509
20
142.562895
11
164.191739
21
142.589345
0
LINE
8
annotation
62
1
39
211
10
164.191739
20
142.589345
11
164.131929
21
142.604778
0
LINE
8
annotation
62
1
39
211
10
164.131929
20
142.604778
11
164.071418
21
142.609541
0
LINE
8
annotation
62
1
39
211
10
164.071418
20
142.609541
11
164.011542
21
142.603982
0
LINE
8
annotation
62
1
39
211
10
164.011542
20
142.603982
11
163.953638
21
142.588447
0
LINE
8
annotation
62
1
39
211
10
163.953638
20
142.588447
11
163.899043
21
142.563284
0
LINE
8
annotation
62
1
39
211
10
163.899043
20
142.563284
11
163.849094
21
142.528841
0
LINE
8
annotation
62
1
39
211
10
163.849094
20
142.528841
11
163.805129
21
142.485465
0
LINE
8
annotation
62
1
39
211
10
163.805129
20
142.485465
11
163.768485
21
142.433503
0
LINE
8
annotation
62
1
39
211
10
163.768485
20
142.433503
11
163.722309
21
142.344925
0
LINE
8
annotation
62
1
39
211
10
130.701168
20
156.159073
11
131.052822
21
156.159073
0
LINE
8
annotation
62
1
39
211
10
131.052822
20
156.159073
11
131.052822
21
156.159073
0
LINE
8
annotation
62
1
39
211
10
131.052822
20
156.159073
11
131.116068
21
156.164747
0
LINE
8
annotation
62
1
39
211
10
131.116068
20
156.164747
11
131.175580
21
156.181098
0
LINE
8
annotation
62
1
39
211
10
131.175580
20
156.181098
11
131.230369
21
156.207124
0
LINE
8
annotation
62
1
39
211
10
131.230369
20
156.207124
11
131.279444
21
156.241820
0
LINE
8
annotation
62
1
39
211
10
131.279444
20
156.241820
11
131.321816
21
156.284184
0
LINE
8
annotation
62
1
39
211
10
131.321816
20
156.284184
11
131.356495
21
156.333210
0
LINE
8
annotation
62
1
39
211
10
131.356495
20
156.333210
11
131.382492
21
156.387896
0
LINE
8
annotation
62
1
39
211
10
131.382492
20
156.387896
11
131.398815
21
156.447237
0
LINE
8
annotation
62
1
39
211
10
131.398815
20
156.447237
11
131.404477
21
156.510231
0
LINE
8
annotation
62
1
39
211
10
131.404477
20
156.510231
11
131.404477
21
156.686306
0
LINE
8
annotation
62
1
39
211
10
131.404477
20
156.686306
11
131.404477
21
156.686306
0
LINE
8
annotation
62
1
39
211
10
131.404477
20
156.686306
11
131.398815
21
156.749274
0
LINE
8
annotation
62
1
39
211
10
131.398815
20
156.749274
11
131.382492
21
156.808601
0
LINE
8
annotation
62
1
39
211
10
131.382492
20
156.808601
11
131.356495
21
156.863283
0
LINE
8
annotation
62
1
39
211
10
131.356495
20
156.863283
11
131.321816
21
156.912313
0
LINE
8
annotation
62
1
39
211
10
131.321816
20
156.912313
11
131.279444
21
156.954684
0
LINE
8
annotation
62
1
39
211
10
131.279444
20
156.954684
11
131.230369
21
156.989391
0
LINE
8
annotation
62
1
39
211
10
131.230369
20
156.989391
11
131.175580
21
157.015427
0
LINE
8
annotation
62
1
39
211
10
131.175580
20
157.015427
11
131.116068
21
157.031787
0
LINE
8
annotation
62
1
39
211
10
131.116068
20
157.031787
11
131.052822
21
157.037464
0
LINE
8
annotation
62
1
39
211
10
131.052822
20
157.037464
11
130.876747
21
157.037464
0
LINE
8
annotation
62
1
39
211
10
130.876747
20
157.037464
11
131.052822
21
157.037464
0
LINE
8
annotation
62
1
39
211
10
131.052822
20
157.037464
11
131.052822
21
157.037464
0
LINE
8
annotation
62
1
39
211
10
131.052822
20
157.037464
11
131.116068
21
157.043142
0
LINE
8
annotation
62
1
39
211
10
131.116068
20
157.043142
11
131.175580
21
157.059512
0
LINE
8
annotation
62
1
39
211
10
131.175580
20
157.059512
11
131.230369
21
157.085574
0
LINE
8
annotation
62
1
39
211
10
131.230369
20
157.085574
11
131.279444
21
157.120331
0
LINE
8
annotation
62
1
39
211
10
131.279444
20
157.120331
11
131.321816
21
157.162786
0
LINE
8
annotation
62
1
39
211
10
131.321816
20
157.162786
11
131.356495
21
157.211940
0
LINE
8
annotation
62
1
39
211
10
131.356495
20
157.211940
11
131.382492
21
157.266794
0
LINE
8
annotation
62
1
39
211
10
131.382492
20
157.266794
11
131.398815
21
157.326352
0
LINE
8
annotation
62
1
39
211
10
131.398815
20
157.326352
11
131.404477
21
157.389615
0
LINE
8
annotation
62
1
39
211
10
131.404477
20
157.389615
11
131.404477
21
157.389615
0
LINE
8
annotation
62
1
39
211
10
131.404477
20
157.389615
11
131.398815
21
157.452582
0
LINE
8
annotation
62
1
39
211
10
131.398815
20
157.452582
11
131.382492
21
157.511910
0
LINE
8
annotation
62
1
39
211
10
131.382492
20
157.511910
11
131.356495
21
157.566591
0
LINE
8
annotation
62
1
39
211
10
131.356495
20
157.566591
11
131.321816
21
157.615621
0
LINE
8
annotation
62
1
39
211
10
131.321816
20
157.615621
11
131.279444
21
157.657993
0
LINE
8
annotation
62
1
39
211
10
131.279444
20
157.657993
11
131.230369
21
157.692700
0
LINE
8
annotation
62
1
39
211
10
131.230369
20
157.692700
11
131.175580
21
157.718736
0
LINE
8
annotation
62
1
39
211
10
131.175580
20
157.718736
11
131.116068
21
157.735096
0
LINE
8
annotation
62
1
39
211
10
131.116068
20
157.735096
11
131.052822
21
157.740773
0
LINE
8
annotation
62
1
39
211
10
131.052822
20
157.740773
11
130.701168
21
157.740773
0
LINE
8
annotation
62
1
39
211
10
163.721172
20
157.959427
11
164.072825
21
157.959427
0
LINE
8
annotation
62
1
39
211
10
164.072825
20
157.959427
11
164.072825
21
157.959427
0
LINE
8
annotation
62
1
39
211
10
164.072825
20
157.959427
11
164.136071
21
157.965100
0
LINE
8
annotation
62
1
39
211
10
164.136071
20
157.965100
11
164.195583
21
157.981452
0
LINE
8
annotation
62
1
39
211
10
164.195583
20
157.981452
11
164.250372
21
158.007478
0
LINE
8
annotation
62
1
39
211
10
164.250372
20
158.007478
11
164.299447
21
158.042174
0
LINE
8
annotation
62
1
39
211
10
164.299447
20
158.042174
11
164.341819
21
158.084537
0
LINE
8
annotation
62
1
39
211
10
164.341819
20
158.084537
11
164.376498
21
158.133564
0
LINE
8
annotation
62
1
39
211
10
164.376498
20
158.133564
11
164.402494
21
158.188249
0
LINE
8
annotation
62
1
39
211
10
164.402494
20
158.188249
11
164.418818
21
158.247591
0
LINE
8
annotation
62
1
39
211
10
164.418818
20
158.247591
11
164.424479
21
158.310584
0
LINE
8
annotation
62
1
39
211
10
164.424479
20
158.310584
11
164.424479
21
158.486659
0
LINE
8
annotation
62
1
39
211
10
164.424479
20
158.486659
11
164.424479
21
158.486659
0
LINE
8
annotation
62
1
39
211
10
164.424479
20
158.486659
11
164.418818
21
158.549626
0
LINE
8
annotation
62
1
39
211
10
164.418818
20
158.549626
11
164.402494
21
158.608953
0
LINE
8
annotation
62
1
39
211
10
164.402494
20
158.608953
11
164.376498
21
158.663635
0
LINE
8
annotation
62
1
39
211
10
164.376498
20
158.663635
11
164.341819
21
158.712665
0
LINE
8
annotation
62
1
39
211
10
164.341819
20
158.712665
11
164.299447
21
158.755036
0
LINE
8
annotation
62
1
39
211
10
164.299447
20
158.755036
11
164.250372
21
158.789743
0
LINE
8
annotation
62
1
39
211
10
164.250372
20
158.789743
11
164.195583
21
158.815779
0
LINE
8
annotation
62
1
39
211
10
164.195583
20
158.815779
11
164.136071
21
158.832139
0
LINE
8
annotation
62
1
39
211
10
164.136071
20
158.832139
11
164.072825
21
158.837816
0
LINE
8
annotation
62
1
39
211
10
164.072825
20
158.837816
11
163.896750
21
158.837816
0
LINE
8
annotation
62
1
39
211
10
163.896750
20
158.837816
11
164.072825
21
158.837816
0
LINE
8
annotation
62
1
39
211
10
164.072825
20
158.837816
11
164.072825
21
158.837816
0
LINE
8
annotation
62
1
39
211
10
164.072825
20
158.837816
11
164.136071
21
158.843494
0
LINE
8
annotation
62
1
39
211
10
164.136071
20
158.843494
11
164.195583
21
158.859863
0
LINE
8
annotation
62
1
39
211
10
164.195583
20
158.859863
11
164.250372
21
158.885926
0
LINE
8
annotation
62
1
39
211
10
164.250372
20
158.885926
11
164.299447
21
158.920683
0
LINE
8
annotation
62
1
39
211
10
164.299447
20
158.920683
11
164.341819
21
158.963137
0
LINE
8
annotation
62
1
39
211
10
164.341819
20
158.963137
11
164.376498
21
159.012291
0
LINE
8
annotation
62
1
39
211
10
164.376498
20
159.012291
11
164.402494
21
159.067145
0
LINE
8
annotation
62
1
39
211
10
164.402494
20
159.067145
11
164.418818
21
159.126703
0
LINE
8
annotation
62
1
39
211
10
164.418818
20
159.126703
11
164.424479
21
159.189966
0
LINE
8
annotation
62
1
39
211
10
164.424479
20
159.189966
11
164.424479
21
159.189966
0
LINE
8
annotation
62
1
39
211
10
164.424479
20
159.189966
11
164.418818
21
159.252933
0
LINE
8
annotation
62
1
39
211
10
164.418818
20
159.252933
11
164.402494
21
159.312260
0
LINE
8
annotation
62
1
39
211
10
164.402494
20
159.312260
11
164.376498
21
159.366942
0
LINE
8
annotation
62
1
39
211
10
164.376498
20
159.366942
11
164.341819
21
159.415972
0
LINE
8
annotation
62
1
39
211
10
164.341819
20
159.415972
11
164.299447
21
159.458343
0
LINE
8
annotation
62
1
39
211
10
164.299447
20
159.458343
11
164.250372
21
159.493050
0
LINE
8
annotation
62
1
39
211
10
164.250372
20
159.493050
11
164.195583
21
159.519086
0
LINE
8
annotation
62
1
39
211
10
164.195583
20
159.519086
11
164.136071
21
159.535446
0
LINE
8
annotation
62
1
39
211
10
164.136071
20
159.535446
11
164.072825
21
159.541123
0
LINE
8
annotation
62
1
39
211
10
164.072825
20
159.541123
11
163.721172
21
159.541123
0
LINE
8
annotation
62
1
39
211
10
147.659506
20
116.081945
11
146.643965
21
116.081945
0
LINE
8
annotation
62
1
39
211
10
146.643965
20
116.081945
11
147.659506
21
117.910927
0
LINE
8
annotation
62
1
39
211
10
147.659506
20
117.910927
11
146.643965
21
117.910927
0
LINE
8
annotation
62
1
39
211
10
149.345603
20
116.996436
11
148.345547
21
116.996436
0
LINE
8
annotation
62
1
39
211
10
150.843733
20
116.081930
11
150.031438
21
116.081930
0
LINE
8
annotation
62
1
39
211
10
150.031438
20
116.081930
11
150.782025
21
117.290279
0
LINE
8
annotation
62
1
39
211
10
150.782025
20
117.290279
11
150.782025
21
117.290279
0
LINE
8
annotation
62
1
39
211
10
150.782025
20
117.290279
11
150.782922
21
117.291389
0
LINE
8
annotation
62
1
39
211
10
150.782922
20
117.291389
11
150.783783
21
117.292509
0
LINE
8
annotation
62
1
39
211
10
150.783783
20
117.292509
11
150.784612
21
117.293648
0
LINE
8
annotation
62
1
39
211
10
150.784612
20
117.293648
11
150.785416
21
117.294815
0
LINE
8
annotation
62
1
39
211
10
150.785416
20
117.294815
11
150.786200
21
117.296019
0
LINE
8
annotation
62
1
39
211
10
150.786200
20
117.296019
11
150.786970
21
117.297271
0
LINE
8
annotation
62
1
39
211
10
150.786970
20
117.297271
11
150.787731
21
117.298580
0
LINE
8
annotation
62
1
39
211
10
150.787731
20
117.298580
11
150.788489
21
117.299954
0
LINE
8
annotation
62
1
39
211
10
150.788489
20
117.299954
11
150.789251
21
117.301405
0
LINE
8
annotation
62
1
39
211
10
150.789251
20
117.301405
11
150.789251
21
117.301405
0
LINE
8
annotation
62
1
39
211
10
150.789251
20
117.301405
11
150.820242
21
117.367946
0
LINE
8
annotation
62
1
39
211
10
150.820242
20
117.367946
11
150.838347
21
117.436922
0
LINE
8
annotation
62
1
39
211
10
150.838347
20
117.436922
11
150.844009
21
117.506774
0
LINE
8
annotation
62
1
39
211
10
150.844009
20
117.506774
11
150.837671
21
117.575944
0
LINE
8
annotation
62
1
39
211
10
150.837671
20
117.575944
11
150.819777
21
117.642873
0
LINE
8
annotation
62
1
39
211
10
150.819777
20
117.642873
11
150.790772
21
117.706002
0
LINE
8
annotation
62
1
39
211
10
150.790772
20
117.706002
11
150.751098
21
117.763772
0
LINE
8
annotation
62
1
39
211
10
150.751098
20
117.763772
11
150.701199
21
117.814626
0
LINE
8
annotation
62
1
39
211
10
150.701199
20
117.814626
11
150.641519
21
117.857004
0
LINE
8
annotation
62
1
39
211
10
150.641519
20
117.857004
11
150.641519
21
117.857004
0
LINE
8
annotation
62
1
39
211
10
150.641519
20
117.857004
11
150.574793
21
117.887555
0
LINE
8
annotation
62
1
39
211
10
150.574793
20
117.887555
11
150.505711
21
117.905381
0
LINE
8
annotation
62
1
39
211
10
150.505711
20
117.905381
11
150.435818
21
117.910883
0
LINE
8
annotation
62
1
39
211
10
150.435818
20
117.910883
11
150.366659
21
117.904461
0
LINE
8
annotation
62
1
39
211
10
150.366659
20
117.904461
11
150.299777
21
117.886518
0
LINE
8
annotation
62
1
39
211
10
150.299777
20
117.886518
11
150.236718
21
117.857455
0
LINE
8
annotation
62
1
39
211
10
150.236718
20
117.857455
11
150.179026
21
117.817671
0
LINE
8
annotation
62
1
39
211
10
150.179026
20
117.817671
11
150.128245
21
117.767570
0
LINE
8
annotation
62
1
39
211
10
150.128245
20
117.767570
11
150.085919
21
117.707552
0
LINE
8
annotation
62
1
39
211
10
150.085919
20
117.707552
11
150.032585
21
117.605241
0
LINE
8
annotation
62
1
39
211
10
152.529968
20
116.996436
11
151.529911
21
116.996436
0
LINE
8
annotation
62
1
39
211
10
154.028097
20
116.081930
11
153.215802
21
116.081930
0
LINE
8
annotation
62
1
39
211
10
153.215802
20
116.081930
11
153.966389
21
117.290279
0
LINE
8
annotation
62
1
39
211
10
153.966389
20
117.290279
11
153.966389
21
117.290279
0
LINE
8
annotation
62
1
39
211
10
153.966389
20
117.290279
11
153.967287
21
117.291389
0
LINE
8
annotation
62
1
39
211
10
153.967287
20
117.291389
11
153.968147
21
117.292509
0
LINE
8
annotation
62
1
39
211
10
153.968147
20
117.292509
11
153.968976
21
117.293648
0
LINE
8
annotation
62
1
39
211
10
153.968976
20
117.293648
11
153.969780
21
117.294815
0
LINE
8
annotation
62
1
39
211
10
153.969780
20
117.294815
11
153.970564
21
117.296019
0
LINE
8
annotation
62
1
39
211
10
153.970564
20
117.296019
11
153.971334
21
117.297271
0
LINE
8
annotation
62
1
39
211
10
153.971334
20
117.297271
11
153.972095
21
117.298580
0
LINE
8
annotation
62
1
39
211
10
153.972095
20
117.298580
11
153.972854
21
117.299954
0
LINE
8
annotation
62
1
39
211
10
153.972854
20
117.299954
11
153.973615
21
117.301405
0
LINE
8
annotation
62
1
39
211
10
153.973615
20
117.301405
11
153.973615
21
117.301405
0
LINE
8
annotation
62
1
39
211
10
153.973615
20
117.301405
11
154.004607
21
117.367946
0
LINE
8
annotation
62
1
39
211
10
154.004607
20
117.367946
11
154.022712
21
117.436922
0
LINE
8
annotation
62
1
39
211
10
154.022712
20
117.436922
11
154.028373
21
117.506774
0
LINE
8
annotation
62
1
39
211
10
154.028373
20
117.506774
11
154.022035
21
117.575944
0
LINE
8
annotation
62
1
39
211
10
154.022035
20
117.575944
11
154.004142
21
117.642873
0
LINE
8
annotation
62
1
39
211
10
154.004142
20
117.642873
11
153.975136
21
117.706002
0
LINE
8
annotation
62
1
39
211
10
153.975136
20
117.706002
11
153.935462
21
117.763772
0
LINE
8
annotation
62
1
39
211
10
153.935462
20
117.763772
11
153.885563
21
117.814626
0
LINE
8
annotation
62
1
39
211
10
153.885563
20
117.814626
11
153.825884
21
117.857004
0
LINE
8
annotation
62
1
39
211
10
153.825884
20
117.857004
11
153.825884
21
117.857004
0
LINE
8
annotation
62
1
39
211
10
153.825884
20
117.857004
11
153.759157
21
117.887555
0
LINE
8
annotation
62
1
39
211
10
153.759157
20
117.887555
11
153.690075
21
117.905381
0
LINE
8
annotation
62
1
39
211
10
153.690075
20
117.905381
11
153.620182
21
117.910883
0
LINE
8
annotation
62
1
39
211
10
153.620182
20
117.910883
11
153.551023
21
117.904461
0
LINE
8
annotation
62
1
39
211
10
153.551023
20
117.904461
11
153.484142
21
117.886518
0
LINE
8
annotation
62
1
39
211
10
153.484142
20
117.886518
11
153.421083
21
117.857455
0
LINE
8
annotation
62
1
39
211
10
153.421083
20
117.857455
11
153.363390
21
117.817671
0
LINE
8
annotation
62
1
39
211
10
153.363390
20
117.817671
11
153.312609
21
117.767570
0
LINE
8
annotation
62
1
39
211
10
153.312609
20
117.767570
11
153.270284
21
117.707552
0
LINE
8
annotation
62
1
39
211
10
153.270284
20
117.707552
11
153.216949
21
117.605241
0
LINE
8
hole
62
5
39
2
10
122.237505
20
207.055339
11
122.237505
21
173.672484
0
LINE
8
hole
62
5
39
2
10
122.237505
20
173.672484
11
99.286793
21
173.672484
0
LINE
8
hole
62
5
39
2
10
99.286793
20
173.672484
11
94.297507
21
173.672484
0
LINE
8
hole
62
5
39
2
10
94.297507
20
173.672484
11
94.297508
21
174.710664
0
LINE
8
hole
62
5
39
2
10
94.297508
20
174.710664
11
91.884504
21
174.935708
0
LINE
8
hole
62
5
39
2
10
91.884504
20
174.935708
11
91.884504
21
179.182588
0
LINE
8
hole
62
5
39
2
10
91.884504
20
179.182588
11
94.212164
21
179.182588
0
LINE
8
hole
62
5
39
2
10
94.212164
20
179.182588
11
94.297508
21
180.929626
0
LINE
8
hole
62
5
39
2
10
94.297508
20
180.929626
11
94.297507
21
191.643996
0
LINE
8
hole
62
5
39
2
10
94.297507
20
191.643996
11
91.884504
21
191.869040
0
LINE
8
hole
62
5
39
2
10
91.884504
20
191.869040
11
91.884504
21
196.115920
0
LINE
8
hole
62
5
39
2
10
91.884504
20
196.115920
11
94.212163
21
196.115920
0
LINE
8
hole
62
5
39
2
10
94.212163
20
196.115920
11
94.297507
21
208.577327
0
LINE
8
hole
62
5
39
2
10
94.297507
20
208.577327
11
91.884504
21
208.802371
0
LINE
8
hole
62
5
39
2
10
91.884504
20
208.802371
11
91.884504
21
213.049251
0
LINE
8
hole
62
5
39
2
10
91.884504
20
213.049251
11
94.212163
21
213.049251
0
LINE
8
hole
62
5
39
2
10
94.212163
20
213.049251
11
94.297507
21
214.312481
0
LINE
8
hole
62
5
39
2
10
94.297507
20
214.312481
11
117.248220
21
214.312481
0
LINE
8
hole
62
5
39
2
10
117.248220
20
214.312481
11
122.237505
21
214.312481
0
LINE
8
hole
62
5
39
2
10
122.237505
20
214.312481
11
122.237505
21
207.055339
0
LINE
8
boundary
62
5
39
2
10
89.217500
20
168.592483
11
120.967500
21
168.592482
0
LINE
8
boundary
62
5
39
2
10
120.967500
20
168.592482
11
127.317500
21
168.592483
0
LINE
8
boundary
62
5
39
2
10
127.317500
20
168.592483
11
127.317500
21
174.710664
0
LINE
8
boundary
62
5
39
2
10
127.317500
20
174.710664
11
124.904503
21
174.935708
0
LINE
8
boundary
62
5
39
2
10
124.904503
20
174.935708
11
124.904503
21
179.182588
0
LINE
8
boundary
62
5
39
2
10
124.904503
20
179.182588
11
127.232156
21
179.182588
0
LINE
8
boundary
62
5
39
2
10
127.232156
20
179.182588
11
127.317500
21
191.643996
0
LINE
8
boundary
62
5
39
2
10
127.317500
20
191.643996
11
124.904503
21
191.869040
0
LINE
8
boundary
62
5
39
2
10
124.904503
20
191.869040
11
124.904503
21
196.115920
0
LINE
8
boundary
62
5
39
2
10
124.904503
20
196.115920
11
127.232156
21
196.115920
0
LINE
8
boundary
62
5
39
2
10
127.232156
20
196.115920
11
127.317500
21
208.577327
0
LINE
8
boundary
62
5
39
2
10
127.317500
20
208.577327
11
124.904503
21
208.802371
0
LINE
8
boundary
62
5
39
2
10
124.904503
20
208.802371
11
124.904503
21
213.049251
0
LINE
8
boundary
62
5
39
2
10
124.904503
20
213.049251
11
127.232156
21
213.049251
0
LINE
8
boundary
62
5
39
2
10
127.232156
20
213.049251
11
127.317500
21
219.392476
0
LINE
8
boundary
62
5
39
2
10
127.317500
20
219.392476
11
95.567500
21
219.392477
0
LINE
8
boundary
62
5
39
2
10
95.567500
20
219.392477
11
89.217500
21
219.392477
0
LINE
8
boundary
62
5
39
2
10
89.217500
20
219.392477
11
89.217500
21
210.925811
0
LINE
8
boundary
62
5
39
2
10
89.217500
20
210.925811
11
89.217500
21
168.592483
0
LINE
8
annotation
62
1
39
211
10
89.773878
20
177.988677
11
89.773878
21
179.730323
0
LINE
8
annotation
62
1
39
211
10
89.773878
20
179.730323
11
89.386688
21
179.343024
0
LINE
8
annotation
62
1
39
211
10
122.793881
20
176.188327
11
122.793881
21
177.929969
0
LINE
8
annotation
62
1
39
211
10
122.793881
20
177.929969
11
122.406692
21
177.542671
0
LINE
8
annotation
62
1
39
211
10
90.129577
20
195.001074
11
89.426312
21
195.001074
0
LINE
8
annotation
62
1
39
211
10
89.426312
20
195.001074
11
90.076152
21
196.047233
0
LINE
8
annotation
62
1
39
211
10
90.076152
20
196.047233
11
90.076152
21
196.047233
0
LINE
8
annotation
62
1
39
211
10
90.076152
20
196.047233
11
90.076929
21
196.048195
0
LINE
8
annotation
62
1
39
211
10
90.076929
20
196.048195
11
90.077674
21
196.049164
0
LINE
8
annotation
62
1
39
211
10
90.077674
20
196.049164
11
90.078392
21
196.050150
0
LINE
8
annotation
62
1
39
211
10
90.078392
20
196.050150
11
90.079088
21
196.051160
0
LINE
8
annotation
62
1
39
211
10
90.079088
20
196.051160
11
90.079766
21
196.052203
0
LINE
8
annotation
62
1
39
211
10
90.079766
20
196.052203
11
90.080433
21
196.053287
0
LINE
8
annotation
62
1
39
211
10
90.080433
20
196.053287
11
90.081092
21
196.054420
0
LINE
8
annotation
62
1
39
211
10
90.081092
20
196.054420
11
90.081749
21
196.055610
0
LINE
8
annotation
62
1
39
211
10
90.081749
20
196.055610
11
90.082408
21
196.056866
0
LINE
8
annotation
62
1
39
211
10
90.082408
20
196.056866
11
90.082408
21
196.056866
0
LINE
8
annotation
62
1
39
211
10
90.082408
20
196.056866
11
90.109240
21
196.114476
0
LINE
8
annotation
62
1
39
211
10
90.109240
20
196.114476
11
90.124914
21
196.174194
0
LINE
8
annotation
62
1
39
211
10
90.124914
20
196.174194
11
90.129816
21
196.234670
0
LINE
8
annotation
62
1
39
211
10
90.129816
20
196.234670
11
90.124329
21
196.294555
0
LINE
8
annotation
62
1
39
211
10
90.124329
20
196.294555
11
90.108837
21
196.352501
0
LINE
8
annotation
62
1
39
211
10
90.108837
20
196.352501
11
90.083725
21
196.407156
0
LINE
8
annotation
62
1
39
211
10
90.083725
20
196.407156
11
90.049376
21
196.457172
0
LINE
8
annotation
62
1
39
211
10
90.049376
20
196.457172
11
90.006175
21
196.501200
0
LINE
8
annotation
62
1
39
211
10
90.006175
20
196.501200
11
89.954505
21
196.537891
0
LINE
8
annotation
62
1
39
211
10
89.954505
20
196.537891
11
89.954505
21
196.537891
0
LINE
8
annotation
62
1
39
211
10
89.954505
20
196.537891
11
89.896735
21
196.564341
0
LINE
8
annotation
62
1
39
211
10
89.896735
20
196.564341
11
89.836926
21
196.579774
0
LINE
8
annotation
62
1
39
211
10
89.836926
20
196.579774
11
89.776414
21
196.584537
0
LINE
8
annotation
62
1
39
211
10
89.776414
20
196.584537
11
89.716538
21
196.578978
0
LINE
8
annotation
62
1
39
211
10
89.716538
20
196.578978
11
89.658634
21
196.563443
0
LINE
8
annotation
62
1
39
211
10
89.658634
20
196.563443
11
89.604039
21
196.538280
0
LINE
8
annotation
62
1
39
211
10
89.604039
20
196.538280
11
89.554090
21
196.503837
0
LINE
8
annotation
62
1
39
211
10
89.554090
20
196.503837
11
89.510125
21
196.460461
0
LINE
8
annotation
62
1
39
211
10
89.510125
20
196.460461
11
89.473481
21
196.408498
0
LINE
8
annotation
62
1
39
211
10
89.473481
20
196.408498
11
89.427305
21
196.319920
0
LINE
8
annotation
62
1
39
211
10
123.149580
20
193.200724
11
122.446316
21
193.200724
0
LINE
8
annotation
62
1
39
211
10
122.446316
20
193.200724
11
123.096155
21
194.246881
0
LINE
8
annotation
62
1
39
211
10
123.096155
20
194.246881
11
123.096155
21
194.246881
0
LINE
8
annotation
62
1
39
211
10
123.096155
20
194.246881
11
123.096931
21
194.247842
0
LINE
8
annotation
62
1
39
211
10
123.096931
20
194.247842
11
123.097676
21
194.248812
0
LINE
8
annotation
62
1
39
211
10
123.097676
20
194.248812
11
123.098394
21
194.249797
0
LINE
8
annotation
62
1
39
211
10
123.098394
20
194.249797
11
123.099090
21
194.250808
0
LINE
8
annotation
62
1
39
211
10
123.099090
20
194.250808
11
123.099769
21
194.251851
0
LINE
8
annotation
62
1
39
211
10
123.099769
20
194.251851
11
123.100436
21
194.252935
0
LINE
8
annotation
62
1
39
211
10
123.100436
20
194.252935
11
123.101095
21
194.254068
0
LINE
8
annotation
62
1
39
211
10
123.101095
20
194.254068
11
123.101751
21
194.255258
0
LINE
8
annotation
62
1
39
211
10
123.101751
20
194.255258
11
123.102411
21
194.256513
0
LINE
8
annotation
62
1
39
211
10
123.102411
20
194.256513
11
123.102411
21
194.256513
0
LINE
8
annotation
62
1
39
211
10
123.102411
20
194.256513
11
123.129242
21
194.314123
0
LINE
8
annotation
62
1
39
211
10
123.129242
20
194.314123
11
123.144917
21
194.373841
0
LINE
8
annotation
62
1
39
211
10
123.144917
20
194.373841
11
123.149819
21
194.434317
0
LINE
8
annotation
62
1
39
211
10
123.149819
20
194.434317
11
123.144331
21
194.494202
0
LINE
8
annotation
62
1
39
211
10
123.144331
20
194.494202
11
123.128840
21
194.552147
0
LINE
8
annotation
62
1
39
211
10
123.128840
20
194.552147
11
123.103727
21
194.606803
0
LINE
8
annotation
62
1
39
211
10
123.103727
20
194.606803
11
123.069379
21
194.656819
0
LINE
8
annotation
62
1
39
211
10
123.069379
20
194.656819
11
123.026178
21
194.700847
0
LINE
8
annotation
62
1
39
211
10
123.026178
20
194.700847
11
122.974508
21
194.737537
0
LINE
8
annotation
62
1
39
211
10
122.974508
20
194.737537
11
122.974508
21
194.737537
0
LINE
8
annotation
62
1
39
211
10
122.974508
20
194.737537
11
122.916738
21
194.763987
0
LINE
8
annotation
62
1
39
211
10
122.916738
20
194.763987
11
122.856929
21
194.779420
0
LINE
8
annotation
62
1
39
211
10
122.856929
20
194.779420
11
122.796418
21
194.784183
0
LINE
8
annotation
62
1
39
211
10
122.796418
20
194.784183
11
122.736541
21
194.778624
0
LINE
8
annotation
62
1
39
211
10
122.736541
20
194.778624
11
122.678637
21
194.763089
0
LINE
8
annotation
62
1
39
211
10
122.678637
20
194.763089
11
122.624043
21
194.737927
0
LINE
8
annotation
62
1
39
211
10
122.624043
20
194.737927
11
122.574094
21
194.703483
0
LINE
8
annotation
62
1
39
211
10
122.574094
20
194.703483
11
122.530129
21
194.660107
0
LINE
8
annotation
62
1
39
211
10
122.530129
20
194.660107
11
122.493485
21
194.608145
0
LINE
8
annotation
62
1
39
211
10
122.493485
20
194.608145
11
122.447309
21
194.519567
0
LINE
8
annotation
62
1
39
211
10
89.426168
20
210.134067
11
89.777822
21
210.134067
0
LINE
8
annotation
62
1
39
211
10
89.777822
20
210.134067
11
89.777822
21
210.134067
0
LINE
8
annotation
62
1
39
211
10
89.777822
20
210.134067
11
89.841068
21
210.139741
0
LINE
8
annotation
62
1
39
211
10
89.841068
20
210.139741
11
89.900580
21
210.156092
0
LINE
8
annotation
62
1
39
211
10
89.900580
20
210.156092
11
89.955369
21
210.182118
0
LINE
8
annotation
62
1
39
211
10
89.955369
20
210.182118
11
90.004444
21
210.216815
0
LINE
8
annotation
62
1
39
211
10
90.004444
20
210.216815
11
90.046816
21
210.259178
0
LINE
8
annotation
62
1
39
211
10
90.046816
20
210.259178
11
90.081495
21
210.308204
0
LINE
8
annotation
62
1
39
211
10
90.081495
20
210.308204
11
90.107492
21
210.362890
0
LINE
8
annotation
62
1
39
211
10
90.107492
20
210.362890
11
90.123815
21
210.422232
0
LINE
8
annotation
62
1
39
211
10
90.123815
20
210.422232
11
90.129476
21
210.485225
0
LINE
8
annotation
62
1
39
211
10
90.129476
20
210.485225
11
90.129476
21
210.661301
0
LINE
8
annotation
62
1
39
211
10
90.129476
20
210.661301
11
90.129476
21
210.661301
0
LINE
8
annotation
62
1
39
211
10
90.129476
20
210.661301
11
90.123815
21
210.724268
0
LINE
8
annotation
62
1
39
211
10
90.123815
20
210.724268
11
90.107492
21
210.783595
0
LINE
8
annotation
62
1
39
211
10
90.107492
20
210.783595
11
90.081495
21
210.838277
0
LINE
8
annotation
62
1
39
211
10
90.081495
20
210.838277
11
90.046816
21
210.887307
0
LINE
8
annotation
62
1
39
211
10
90.046816
20
210.887307
11
90.004444
21
210.929678
0
LINE
8
annotation
62
1
39
211
10
90.004444
20
210.929678
11
89.955369
21
210.964385
0
LINE
8
annotation
62
1
39
211
10
89.955369
20
210.964385
11
89.900580
21
210.990422
0
LINE
8
annotation
62
1
39
211
10
89.900580
20
210.990422
11
89.841068
21
211.006781
0
LINE
8
annotation
62
1
39
211
10
89.841068
20
211.006781
11
89.777822
21
211.012458
0
LINE
8
annotation
62
1
39
211
10
89.777822
20
211.012458
11
89.601747
21
211.012458
0
LINE
8
annotation
62
1
39
211
10
89.601747
20
211.012458
11
89.777822
21
211.012458
0
LINE
8
annotation
62
1
39
211
10
89.777822
20
211.012458
11
89.777822
21
211.012458
0
LINE
8
annotation
62
1
39
211
10
89.777822
20
211.012458
11
89.841068
21
211.018136
0
LINE
8
annotation
62
1
39
211
10
89.841068
20
211.018136
11
89.900580
21
211.034506
0
LINE
8
annotation
62
1
39
211
10
89.900580
20
211.034506
11
89.955369
21
211.060568
0
LINE
8
annotation
62
1
39
211
10
89.955369
20
211.060568
11
90.004444
21
211.095326
0
LINE
8
annotation
62
1
39
211
10
90.004444
20
211.095326
11
90.046816
21
211.137780
0
LINE
8
annotation
62
1
39
211
10
90.046816
20
211.137780
11
90.081495
21
211.186934
0
LINE
8
annotation
62
1
39
211
10
90.081495
20
211.186934
11
90.107492
21
211.241788
0
LINE
8
annotation
62
1
39
211
10
90.107492
20
211.241788
11
90.123815
21
211.301346
0
LINE
8
annotation
62
1
39
211
10
90.123815
20
211.301346
11
90.129476
21
211.364609
0
LINE
8
annotation
62
1
39
211
10
90.129476
20
211.364609
11
90.129476
21
211.364609
0
LINE
8
annotation
62
1
39
211
10
90.129476
20
211.364609
11
90.123815
21
211.427576
0
LINE
8
annotation
62
1
39
211
10
90.123815
20
211.427576
11
90.107492
21
211.486904
0
LINE
8
annotation
62
1
39
211
10
90.107492
20
211.486904
11
90.081495
21
211.541586
0
LINE
8
annotation
62
1
39
211
10
90.081495
20
211.541586
11
90.046816
21
211.590615
0
LINE
8
annotation
62
1
39
211
10
90.046816
20
211.590615
11
90.004444
21
211.632987
0
LINE
8
annotation
62
1
39
211
10
90.004444
20
211.632987
11
89.955369
21
211.667694
0
LINE
8
annotation
62
1
39
211
10
89.955369
20
211.667694
11
89.900580
21
211.693730
0
LINE
8
annotation
62
1
39
211
10
89.900580
20
211.693730
11
89.841068
21
211.710090
0
LINE
8
annotation
62
1
39
211
10
89.841068
20
211.710090
11
89.777822
21
211.715767
0
LINE
8
annotation
62
1
39
211
10
89.777822
20
211.715767
11
89.426168
21
211.715767
0
LINE
8
annotation
62
1
39
211
10
122.446172
20
211.934421
11
122.797825
21
211.934421
0
LINE
8
annotation
62
1
39
211
10
122.797825
20
211.934421
11
122.797825
21
211.934421
0
LINE
8
annotation
62
1
39
211
10
122.797825
20
211.934421
11
122.861071
21
211.940095
0
LINE
8
annotation
62
1
39
211
10
122.861071
20
211.940095
11
122.920583
21
211.956446
0
LINE
8
annotation
62
1
39
211
10
122.920583
20
211.956446
11
122.975372
21
211.982472
0
LINE
8
annotation
62
1
39
211
10
122.975372
20
211.982472
11
123.024447
21
212.017168
0
LINE
8
annotation
62
1
39
211
10
123.024447
20
212.017168
11
123.066819
21
212.059532
0
LINE
8
annotation
62
1
39
211
10
123.066819
20
212.059532
11
123.101498
21
212.108558
0
LINE
8
annotation
62
1
39
211
10
123.101498
20
212.108558
11
123.127494
21
212.163243
0
LINE
8
annotation
62
1
39
211
10
123.127494
20
212.163243
11
123.143818
21
212.222585
0
LINE
8
annotation
62
1
39
211
10
123.143818
20
212.222585
11
123.149479
21
212.285578
0
LINE
8
annotation
62
1
39
211
10
123.149479
20
212.285578
11
123.149479
21
212.461653
0
LINE
8
annotation
62
1
39
211
10
123.149479
20
212.461653
11
123.149479
21
212.461653
0
LINE
8
annotation
62
1
39
211
10
123.149479
20
212.461653
11
123.143818
21
212.524620
0
LINE
8
annotation
62
1
39
211
10
123.143818
20
212.524620
11
123.127494
21
212.583948
0
LINE
8
annotation
62
1
39
211
10
123.127494
20
212.583948
11
123.101498
21
212.638629
0
LINE
8
annotation
62
1
39
211
10
123.101498
20
212.638629
11
123.066819
21
212.687659
0
LINE
8
annotation
62
1
39
211
10
123.066819
20
212.687659
11
123.024447
21
212.730030
0
LINE
8
annotation
62
1
39
211
10
123.024447
20
212.730030
11
122.975372
21
212.764737
0
LINE
8
annotation
62
1
39
211
10
122.975372
20
212.764737
11
122.920583
21
212.790774
0
LINE
8
annotation
62
1
39
211
10
122.920583
20
212.790774
11
122.861071
21
212.807133
0
LINE
8
annotation
62
1
39
211
10
122.861071
20
212.807133
11
122.797825
21
212.812810
0
LINE
8
annotation
62
1
39
211
10
122.797825
20
212.812810
11
122.621750
21
212.812810
0
LINE
8
annotation
62
1
39
211
10
122.621750
20
212.812810
11
122.797825
21
212.812810
0
LINE
8
annotation
62
1
39
211
10
122.797825
20
212.812810
11
122.797825
21
212.812810
0
LINE
8
annotation
62
1
39
211
10
122.797825
20
212.812810
11
122.861071
21
212.818488
0
LINE
8
annotation
62
1
39
211
10
122.861071
20
212.818488
11
122.920583
21
212.834858
0
LINE
8
annotation
62
1
39
211
10
122.920583
20
212.834858
11
122.975372
21
212.860920
0
LINE
8
annotation
62
1
39
211
10
122.975372
20
212.860920
11
123.024447
21
212.895677
0
LINE
8
annotation
62
1
39
211
10
123.024447
20
212.895677
11
123.066819
21
212.938132
0
LINE
8
annotation
62
1
39
211
10
123.066819
20
212.938132
11
123.101498
21
212.987285
0
LINE
8
annotation
62
1
39
211
10
123.101498
20
212.987285
11
123.127494
21
213.042140
0
LINE
8
annotation
62
1
39
211
10
123.127494
20
213.042140
11
123.143818
21
213.101697
0
LINE
8
annotation
62
1
39
211
10
123.143818
20
213.101697
11
123.149479
21
213.164960
0
LINE
8
annotation
62
1
39
211
10
123.149479
20
213.164960
11
123.149479
21
213.164960
0
LINE
8
annotation
62
1
39
211
10
123.149479
20
213.164960
11
123.143818
21
213.227927
0
LINE
8
annotation
62
1
39
211
10
123.143818
20
213.227927
11
123.127494
21
213.287255
0
LINE
8
annotation
62
1
39
211
10
123.127494
20
213.287255
11
123.101498
21
213.341936
0
LINE
8
annotation
62
1
39
211
10
123.101498
20
213.341936
11
123.066819
21
213.390966
0
LINE
8
annotation
62
1
39
211
10
123.066819
20
213.390966
11
123.024447
21
213.433337
0
LINE
8
annotation
62
1
39
211
10
123.024447
20
213.433337
11
122.975372
21
213.468044
0
LINE
8
annotation
62
1
39
211
10
122.975372
20
213.468044
11
122.920583
21
213.494081
0
LINE
8
annotation
62
1
39
211
10
122.920583
20
213.494081
11
122.861071
21
213.510440
0
LINE
8
annotation
62
1
39
211
10
122.861071
20
213.510440
11
122.797825
21
213.516117
0
LINE
8
annotation
62
1
39
211
10
122.797825
20
213.516117
11
122.446172
21
213.516117
0
LINE
8
annotation
62
1
39
211
10
104.796986
20
216.099037
11
103.781445
21
216.099037
0
LINE
8
annotation
62
1
39
211
10
103.781445
20
216.099037
11
104.796986
21
217.928020
0
LINE
8
annotation
62
1
39
211
10
104.796986
20
217.928020
11
103.781445
21
217.928020
0
LINE
8
annotation
62
1
39
211
10
106.483083
20
217.013529
11
105.483026
21
217.013529
0
LINE
8
annotation
62
1
39
211
10
107.168779
20
216.099095
11
107.574926
21
216.099095
0
LINE
8
annotation
62
1
39
211
10
107.574926
20
216.099095
11
107.574926
21
216.099095
0
LINE
8
annotation
62
1
39
211
10
107.574926
20
216.099095
11
107.647973
21
216.105648
0
LINE
8
annotation
62
1
39
211
10
107.647973
20
216.105648
11
107.716707
21
216.124533
0
LINE
8
annotation
62
1
39
211
10
107.716707
20
216.124533
11
107.779986
21
216.154592
0
LINE
8
annotation
62
1
39
211
10
107.779986
20
216.154592
11
107.836666
21
216.194665
0
LINE
8
annotation
62
1
39
211
10
107.836666
20
216.194665
11
107.885604
21
216.243593
0
LINE
8
annotation
62
1
39
211
10
107.885604
20
216.243593
11
107.925658
21
216.300217
0
LINE
8
annotation
62
1
39
211
10
107.925658
20
216.300217
11
107.955682
21
216.363377
0
LINE
8
annotation
62
1
39
211
10
107.955682
20
216.363377
11
107.974535
21
216.431914
0
LINE
8
annotation
62
1
39
211
10
107.974535
20
216.431914
11
107.981074
21
216.504669
0
LINE
8
annotation
62
1
39
211
10
107.981074
20
216.504669
11
107.981074
21
216.708029
0
LINE
8
annotation
62
1
39
211
10
107.981074
20
216.708029
11
107.981074
21
216.708029
0
LINE
8
annotation
62
1
39
211
10
107.981074
20
216.708029
11
107.974535
21
216.780754
0
LINE
8
annotation
62
1
39
211
10
107.974535
20
216.780754
11
107.955682
21
216.849275
0
LINE
8
annotation
62
1
39
211
10
107.955682
20
216.849275
11
107.925658
21
216.912431
0
LINE
8
annotation
62
1
39
211
10
107.925658
20
216.912431
11
107.885604
21
216.969058
0
LINE
8
annotation
62
1
39
211
10
107.885604
20
216.969058
11
107.836666
21
217.017995
0
LINE
8
annotation
62
1
39
211
10
107.836666
20
217.017995
11
107.779986
21
217.058081
0
LINE
8
annotation
62
1
39
211
10
107.779986
20
217.058081
11
107.716707
21
217.088152
0
LINE
8
annotation
62
1
39
211
10
107.716707
20
217.088152
11
107.647973
21
217.107047
0
LINE
8
annotation
62
1
39
211
10
107.647973
20
217.107047
11
107.574926
21
217.113603
0
LINE
8
annotation
62
1
39
211
10
107.574926
20
217.113603
11
107.371566
21
217.113603
0
LINE
8
annotation
62
1
39
211
10
107.371566
20
217.113603
11
107.574926
21
217.113603
0
LINE
8
annotation
62
1
39
211
10
107.574926
20
217.113603
11
107.574926
21
217.113603
0
LINE
8
annotation
62
1
39
211
10
107.574926
20
217.113603
11
107.647973
21
217.120161
0
LINE
8
annotation
62
1
39
211
10
107.647973
20
217.120161
11
107.716707
21
217.139067
0
LINE
8
annotation
62
1
39
211
10
107.716707
20
217.139067
11
107.779986
21
217.169168
0
LINE
8
annotation
62
1
39
211
10
107.779986
20
217.169168
11
107.836666
21
217.209312
0
LINE
8
annotation
62
1
39
211
10
107.836666
20
217.209312
11
107.885604
21
217.258345
0
LINE
8
annotation
62
1
39
211
10
107.885604
20
217.258345
11
107.925658
21
217.315116
0
LINE
8
annotation
62
1
39
211
10
107.925658
20
217.315116
11
107.955682
21
217.378471
0
LINE
8
annotation
62
1
39
211
10
107.955682
20
217.378471
11
107.974535
21
217.447258
0
LINE
8
annotation
62
1
39
211
10
107.974535
20
217.447258
11
107.981074
21
217.520324
0
LINE
8
annotation
62
1
39
211
10
107.981074
20
217.520324
11
107.981074
21
217.520324
0
LINE
8
annotation
62
1
39
211
10
107.981074
20
217.520324
11
107.974535
21
217.593049
0
LINE
8
annotation
62
1
39
211
10
107.974535
20
217.593049
11
107.955682
21
217.661570
0
LINE
8
annotation
62
1
39
211
10
107.955682
20
217.661570
11
107.925658
21
217.724726
0
LINE
8
annotation
62
1
39
211
10
107.925658
20
217.724726
11
107.885604
21
217.781353
0
LINE
8
annotation
62
1
39
211
10
107.885604
20
217.781353
11
107.836666
21
217.830290
0
LINE
8
annotation
62
1
39
211
10
107.836666
20
217.830290
11
107.779986
21
217.870376
0
LINE
8
annotation
62
1
39
211
10
107.779986
20
217.870376
11
107.716707
21
217.900447
0
LINE
8
annotation
62
1
39
211
10
107.716707
20
217.900447
11
107.647973
21
217.919342
0
LINE
8
annotation
62
1
39
211
10
107.647973
20
217.919342
11
107.574926
21
217.925898
0
LINE
8
annotation
62
1
39
211
10
107.574926
20
217.925898
11
107.168779
21
217.925898
0
LINE
8
annotation
62
1
39
211
10
109.667171
20
217.013529
11
108.667114
21
217.013529
0
LINE
8
annotation
62
1
39
211
10
111.165300
20
216.099023
11
110.353005
21
216.099023
0
LINE
8
annotation
62
1
39
211
10
110.353005
20
216.099023
11
111.103593
21
217.307372
0
LINE
8
annotation
62
1
39
211
10
111.103593
20
217.307372
11
111.103593
21
217.307372
0
LINE
8
annotation
62
1
39
211
10
111.103593
20
217.307372
11
111.104490
21
217.308482
0
LINE
8
annotation
62
1
39
211
10
111.104490
20
217.308482
11
111.105350
21
217.309602
0
LINE
8
annotation
62
1
39
211
10
111.105350
20
217.309602
11
111.106180
21
217.310740
0
LINE
8
annotation
62
1
39
211
10
111.106180
20
217.310740
11
111.106983
21
217.311907
0
LINE
8
annotation
62
1
39
211
10
111.106983
20
217.311907
11
111.107768
21
217.313112
0
LINE
8
annotation
62
1
39
211
10
111.107768
20
217.313112
11
111.108537
21
217.314364
0
LINE
8
annotation
62
1
39
211
10
111.108537
20
217.314364
11
111.109299
21
217.315672
0
LINE
8
annotation
62
1
39
211
10
111.109299
20
217.315672
11
111.110057
21
217.317047
0
LINE
8
annotation
62
1
39
211
10
111.110057
20
217.317047
11
111.110819
21
217.318497
0
LINE
8
annotation
62
1
39
211
10
111.110819
20
217.318497
11
111.110819
21
217.318497
0
LINE
8
annotation
62
1
39
211
10
111.110819
20
217.318497
11
111.141810
21
217.385039
0
LINE
8
annotation
62
1
39
211
10
111.141810
20
217.385039
11
111.159915
21
217.454015
0
LINE
8
annotation
62
1
39
211
10
111.159915
20
217.454015
11
111.165577
21
217.523867
0
LINE
8
annotation
62
1
39
211
10
111.165577
20
217.523867
11
111.159239
21
217.593037
0
LINE
8
annotation
62
1
39
211
10
111.159239
20
217.593037
11
111.141345
21
217.659965
0
LINE
8
annotation
62
1
39
211
10
111.141345
20
217.659965
11
111.112339
21
217.723094
0
LINE
8
annotation
62
1
39
211
10
111.112339
20
217.723094
11
111.072665
21
217.780865
0
LINE
8
annotation
62
1
39
211
10
111.072665
20
217.780865
11
111.022767
21
217.831719
0
LINE
8
annotation
62
1
39
211
10
111.022767
20
217.831719
11
110.963087
21
217.874097
0
LINE
8
annotation
62
1
39
211
10
110.963087
20
217.874097
11
110.963087
21
217.874097
0
LINE
8
annotation
62
1
39
211
10
110.963087
20
217.874097
11
110.896360
21
217.904648
0
LINE
8
annotation
62
1
39
211
10
110.896360
20
217.904648
11
110.827278
21
217.922474
0
LINE
8
annotation
62
1
39
211
10
110.827278
20
217.922474
11
110.757386
21
217.927976
0
LINE
8
annotation
62
1
39
211
10
110.757386
20
217.927976
11
110.688226
21
217.921554
0
LINE
8
annotation
62
1
39
211
10
110.688226
20
217.921554
11
110.621345
21
217.903611
0
LINE
8
annotation
62
1
39
211
10
110.621345
20
217.903611
11
110.558286
21
217.874547
0
LINE
8
annotation
62
1
39
211
10
110.558286
20
217.874547
11
110.500594
21
217.834764
0
LINE
8
annotation
62
1
39
211
10
110.500594
20
217.834764
11
110.449813
21
217.784663
0
LINE
8
annotation
62
1
39
211
10
110.449813
20
217.784663
11
110.407487
21
217.724645
0
LINE
8
annotation
62
1
39
211
10
110.407487
20
217.724645
11
110.354152
21
217.622334
0
LINE
8
frame
62
5
39
2
10
0.000000
20
0.000000
11
215.900000
21
0.000000
0
LINE
8
frame
62
5
39
2
10
215.900000
20
0.000000
11
215.900000
21
279.400000
0
LINE
8
frame
62
5
39
2
10
215.900000
20
279.400000
11
0.000000
21
279.400000
0
LINE
8
frame
62
5
39
2
10
0.000000
20
279.400000
11
0.000000
21
0.000000
0
ENDSEC
0
EOF
