0
SECTION
2
HEADER
9
$INSUNITS
70
4
9
$ACADVER
1
AC1014
9
$HANDSEED
5
FFFF
0
ENDSEC
0
SECTION
2
TABLES
0
TABLE
2
VPORT
5
8
100
AcDbSymbolTable
0
ENDTAB
0
TABLE
2
LTYPE
5
5
100
AcDbSymbolTable
0
LTYPE
5
14
100
AcDbSymbolTableRecord
100
AcDbLinetypeTableRecord
2
BYBLOCK
70
0
0
LTYPE
5
15
100
AcDbSymbolTableRecord
100
AcDbLinetypeTableRecord
2
BYLAYER
70
0
0
ENDTAB
0
TABLE
2
LAYER
5
2
100
AcDbSymbolTable
70
2
0
LAYER
5
50
100
AcDbSymbolTableRecord
100
AcDbLayerTableRecord
2
0
70
0
6
CONTINUOUS
0
ENDTAB
0
TABLE
2
STYLE
5
3
100
AcDbSymbolTable
70
1
0
STYLE
5
11
100
AcDbSymbolTableRecord
100
AcDbTextStyleTableRecord
2
STANDARD
70
0
0
ENDTAB
0
TABLE
2
VIEW
5
6
100
AcDbSymbolTable
70
0
0
ENDTAB
0
TABLE
2
UCS
5
7
100
AcDbSymbolTable
70
0
0
ENDTAB
0
TABLE
2
APPID
5
9
100
AcDbSymbolTable
70
2
0
APPID
5
12
100
AcDbSymbolTableRecord
100
AcDbRegAppTableRecord
2
ACAD
70
0
0
ENDTAB
0
TABLE
2
DIMSTYLE
5
A
100
AcDbSymbolTable
70
1
0
ENDTAB
0
TABLE
2
BLOCK_RECORD
5
1
100
AcDbSymbolTable
70
1
0
BLOCK_RECORD
5
1F
100
AcDbSymbolTableRecord
100
AcDbBlockTableRecord
2
*MODEL_SPACE
0
BLOCK_RECORD
5
1B
100
AcDbSymbolTableRecord
100
AcDbBlockTableRecord
2
*PAPER_SPACE
0
ENDTAB
0
ENDSEC
0
SECTION
2
BLOCKS
0
BLOCK
5
20
100
AcDbEntity
100
AcDbBlockBegin
2
*MODEL_SPACE
0
ENDBLK
5
21
100
AcDbEntity
100
AcDbBlockEnd
0
BLOCK
5
1C
100
AcDbEntity
100
AcDbBlockBegin
2
*PAPER_SPACE
0
ENDBLK
5
1D
100
AcDbEntity
100
AcDbBlockEnd
0
ENDSEC
0
SECTION
2
ENTITIES
0
LINE
5
100
100
AcDbEntity
8
0
100
AcDbLine
10
0
20
0
30
0
11
30
21
0
31
0
0
LINE
5
101
100
AcDbEntity
8
0
100
AcDbLine
10
22
20
1.0846837446788918e-31
30
0
11
22
21
2
31
0
0
LINE
5
102
100
AcDbEntity
8
0
100
AcDbLine
10
22
20
2
30
0
11
30
21
2
31
0
0
LINE
5
103
100
AcDbEntity
8
0
100
AcDbLine
10
30
20
2
30
0
11
30
21
15
31
0
0
LINE
5
104
100
AcDbEntity
8
0
100
AcDbLine
10
30
20
-2
30
0
11
30
21
-14.999999999999991
31
0
0
LINE
5
105
100
AcDbEntity
8
0
100
AcDbLine
10
22
20
-2
30
0
11
30
21
-2
31
0
0
LINE
5
106
100
AcDbEntity
8
0
100
AcDbLine
10
22
20
1.0846837446788911e-31
30
0
11
22
21
-2
31
0
0
LINE
5
107
100
AcDbEntity
8
0
100
AcDbLine
10
17.141031090825948
20
24.701924077758363
30
0
11
6.97722181874156
21
32.807291501921902
31
0
0
LINE
5
108
100
AcDbEntity
8
0
100
AcDbLine
10
12.153112675956077
20
18.447272218014124
30
0
11
17.141031090825948
21
24.701924077758363
31
0
0
LINE
5
109
100
AcDbEntity
8
0
100
AcDbLine
10
13.716775640892141
20
17.200292614296657
30
0
11
12.153112675956077
21
18.447272218014124
31
0
0
LINE
5
110
100
AcDbEntity
8
0
100
AcDbLine
10
13.716775640892141
20
17.200292614296657
30
0
11
15.280438605828198
21
15.953313010579189
31
0
0
LINE
5
111
100
AcDbEntity
8
0
100
AcDbLine
10
15.280438605828198
20
15.953313010579189
30
0
11
20.268357020698065
21
22.207964870323423
31
0
0
LINE
5
112
100
AcDbEntity
8
0
100
AcDbLine
10
20.268357020698065
20
22.207964870323423
30
0
11
30.432166292782448
21
14.102597446159892
31
0
0
LINE
5
113
100
AcDbEntity
8
0
100
AcDbLine
10
-8.6254838430530771
20
28.802795497542078
30
0
11
-21.299546701416787
21
25.910023356109996
31
0
0
LINE
5
114
100
AcDbEntity
8
0
100
AcDbLine
10
-6.8453163714025633
20
21.003372200087487
30
0
11
-8.6254838430530771
21
28.802795497542078
31
0
0
LINE
5
115
100
AcDbEntity
8
0
100
AcDbLine
10
-4.8954605470389154
20
21.448414068000123
30
0
11
-6.8453163714025633
21
21.003372200087487
31
0
0
LINE
5
116
100
AcDbEntity
8
0
100
AcDbLine
10
-4.8954605470389154
20
21.448414068000123
30
0
11
-2.9456047226752684
21
21.893455935912751
31
0
0
LINE
5
117
100
AcDbEntity
8
0
100
AcDbLine
10
-2.9456047226752684
20
21.893455935912751
30
0
11
-4.7257721943257822
21
29.692879233367332
31
0
0
LINE
5
118
100
AcDbEntity
8
0
100
AcDbLine
10
-4.7257721943257822
20
29.692879233367332
30
0
11
7.9482906640379181
21
32.585651374799411
31
0
0
LINE
5
119
100
AcDbEntity
8
0
100
AcDbLine
10
-27.896833515307687
20
11.214574437721909
30
0
11
-33.537322123835949
21
-0.49802084500953692
31
0
0
LINE
5
120
100
AcDbEntity
8
0
100
AcDbLine
10
-20.689082572088338
20
7.7435045247814438
30
0
11
-27.896833515307687
21
11.214574437721909
31
0
0
LINE
5
121
100
AcDbEntity
8
0
100
AcDbLine
10
-19.821315093853222
20
9.5454422605862828
30
0
11
-20.689082572088338
21
7.7435045247814438
31
0
0
LINE
5
122
100
AcDbEntity
8
0
100
AcDbLine
10
-19.821315093853222
20
9.5454422605862828
30
0
11
-18.953547615618103
21
11.347379996391123
31
0
0
LINE
5
123
100
AcDbEntity
8
0
100
AcDbLine
10
-18.953547615618103
20
11.347379996391123
30
0
11
-26.161298558837458
21
14.818449909331584
31
0
0
LINE
5
124
100
AcDbEntity
8
0
100
AcDbLine
10
-26.161298558837458
20
14.818449909331584
30
0
11
-20.520809950309221
21
26.531045192063022
31
0
0
LINE
5
125
100
AcDbEntity
8
0
100
AcDbLine
10
-26.161298558837458
20
-14.818449909331584
30
0
11
-20.520809950309207
21
-26.531045192063026
31
0
0
LINE
5
126
100
AcDbEntity
8
0
100
AcDbLine
10
-18.953547615618106
20
-11.347379996391114
30
0
11
-26.161298558837458
21
-14.818449909331584
31
0
0
LINE
5
127
100
AcDbEntity
8
0
100
AcDbLine
10
-19.821315093853226
20
-9.5454422605862774
30
0
11
-18.953547615618106
21
-11.347379996391114
31
0
0
LINE
5
128
100
AcDbEntity
8
0
100
AcDbLine
10
-19.821315093853226
20
-9.5454422605862774
30
0
11
-20.689082572088331
21
-7.7435045247814376
31
0
0
LINE
5
129
100
AcDbEntity
8
0
100
AcDbLine
10
-20.689082572088331
20
-7.7435045247814376
30
0
11
-27.896833515307691
21
-11.214574437721902
31
0
0
LINE
5
130
100
AcDbEntity
8
0
100
AcDbLine
10
-27.896833515307691
20
-11.214574437721902
30
0
11
-33.537322123835949
21
0.49802084500954025
31
0
0
LINE
5
131
100
AcDbEntity
8
0
100
AcDbLine
10
-4.7257721943257911
20
-29.692879233367336
30
0
11
7.9482906640379163
21
-32.585651374799426
31
0
0
LINE
5
132
100
AcDbEntity
8
0
100
AcDbLine
10
-2.9456047226752737
20
-21.893455935912751
30
0
11
-4.7257721943257911
21
-29.692879233367336
31
0
0
LINE
5
133
100
AcDbEntity
8
0
100
AcDbLine
10
-4.8954605470389216
20
-21.448414068000123
30
0
11
-2.9456047226752737
21
-21.893455935912751
31
0
0
LINE
5
134
100
AcDbEntity
8
0
100
AcDbLine
10
-4.8954605470389216
20
-21.448414068000123
30
0
11
-6.8453163714025678
21
-21.003372200087487
31
0
0
LINE
5
135
100
AcDbEntity
8
0
100
AcDbLine
10
-6.8453163714025678
20
-21.003372200087487
30
0
11
-8.625483843053086
21
-28.802795497542078
31
0
0
LINE
5
136
100
AcDbEntity
8
0
100
AcDbLine
10
-8.625483843053086
20
-28.802795497542078
30
0
11
-21.299546701416787
21
-25.910023356109985
31
0
0
LINE
5
137
100
AcDbEntity
8
0
100
AcDbLine
10
20.268357020698062
20
-22.207964870323433
30
0
11
30.432166292782455
21
-14.1025974461599
31
0
0
LINE
5
138
100
AcDbEntity
8
0
100
AcDbLine
10
15.280438605828195
20
-15.95331301057919
30
0
11
20.268357020698062
21
-22.207964870323433
31
0
0
LINE
5
139
100
AcDbEntity
8
0
100
AcDbLine
10
13.716775640892136
20
-17.200292614296661
30
0
11
15.280438605828195
21
-15.95331301057919
31
0
0
LINE
5
140
100
AcDbEntity
8
0
100
AcDbLine
10
13.716775640892136
20
-17.200292614296661
30
0
11
12.153112675956075
21
-18.447272218014128
31
0
0
LINE
5
141
100
AcDbEntity
8
0
100
AcDbLine
10
12.153112675956075
20
-18.447272218014128
30
0
11
17.14103109082594
21
-24.701924077758363
31
0
0
LINE
5
142
100
AcDbEntity
8
0
100
AcDbLine
10
17.14103109082594
20
-24.701924077758363
30
0
11
6.9772218187415591
21
-32.807291501921888
31
0
0
ENDSEC
0
SECTION
2
OBJECTS
0
DICTIONARY
5
C
100
AcDbDictionary
3
ACAD_GROUP
350
D
3
ACAD_MLINESTYLE
350
17
0
DICTIONARY
5
D
100
AcDbDictionary
0
DICTIONARY
5
1A
330
C
100
AcDbDictionary
0
DICTIONARY
5
17
100
AcDbDictionary
0
ENDSEC
0
EOF
