0
SECTION
2
HEADER
9
$INSUNITS
70
4
9
$ACADVER
1
AC1014
9
$HANDSEED
5
FFFF
0
ENDSEC
0
SECTION
2
TABLES
0
TABLE
2
VPORT
5
8
100
AcDbSymbolTable
0
ENDTAB
0
TABLE
2
LTYPE
5
5
100
AcDbSymbolTable
0
LTYPE
5
14
100
AcDbSymbolTableRecord
100
AcDbLinetypeTableRecord
2
BYBLOCK
70
0
0
LTYPE
5
15
100
AcDbSymbolTableRecord
100
AcDbLinetypeTableRecord
2
BYLAYER
70
0
0
ENDTAB
0
TABLE
2
LAYER
5
2
100
AcDbSymbolTable
70
2
0
LAYER
5
50
100
AcDbSymbolTableRecord
100
AcDbLayerTableRecord
2
0
70
0
6
CONTINUOUS
0
ENDTAB
0
TABLE
2
STYLE
5
3
100
AcDbSymbolTable
70
1
0
STYLE
5
11
100
AcDbSymbolTableRecord
100
AcDbTextStyleTableRecord
2
STANDARD
70
0
0
ENDTAB
0
TABLE
2
VIEW
5
6
100
AcDbSymbolTable
70
0
0
ENDTAB
0
TABLE
2
UCS
5
7
100
AcDbSymbolTable
70
0
0
ENDTAB
0
TABLE
2
APPID
5
9
100
AcDbSymbolTable
70
2
0
APPID
5
12
100
AcDbSymbolTableRecord
100
AcDbRegAppTableRecord
2
ACAD
70
0
0
ENDTAB
0
TABLE
2
DIMSTYLE
5
A
100
AcDbSymbolTable
70
1
0
ENDTAB
0
TABLE
2
BLOCK_RECORD
5
1
100
AcDbSymbolTable
70
1
0
BLOCK_RECORD
5
1F
100
AcDbSymbolTableRecord
100
AcDbBlockTableRecord
2
*MODEL_SPACE
0
BLOCK_RECORD
5
1B
100
AcDbSymbolTableRecord
100
AcDbBlockTableRecord
2
*PAPER_SPACE
0
ENDTAB
0
ENDSEC
0
SECTION
2
BLOCKS
0
BLOCK
5
20
100
AcDbEntity
100
AcDbBlockBegin
2
*MODEL_SPACE
0
ENDBLK
5
21
100
AcDbEntity
100
AcDbBlockEnd
0
BLOCK
5
1C
100
AcDbEntity
100
AcDbBlockBegin
2
*PAPER_SPACE
0
ENDBLK
5
1D
100
AcDbEntity
100
AcDbBlockEnd
0
ENDSEC
0
SECTION
2
ENTITIES
0
LINE
5
100
100
AcDbEntity
8
0
100
AcDbLine
10
0
20
0
30
0
11
50
21
2.4651903288156619e-31
31
0
0
LINE
5
101
100
AcDbEntity
8
0
100
AcDbLine
10
42
20
-1.2942249226282225e-31
30
0
11
42
21
1.8999999999999999
31
0
0
LINE
5
102
100
AcDbEntity
8
0
100
AcDbLine
10
42
20
1.8999999999999999
30
0
11
50
21
1.8999999999999999
31
0
0
LINE
5
103
100
AcDbEntity
8
0
100
AcDbLine
10
50
20
1.8999999999999999
30
0
11
50
21
27.899999999999999
31
0
0
LINE
5
104
100
AcDbEntity
8
0
100
AcDbLine
10
50
20
-1.8999999999999999
30
0
11
50
21
-27.899999999999999
31
0
0
LINE
5
105
100
AcDbEntity
8
0
100
AcDbLine
10
42
20
-1.8999999999999999
30
0
11
50
21
-1.8999999999999999
31
0
0
LINE
5
106
100
AcDbEntity
8
0
100
AcDbLine
10
42
20
-1.2942249226282225e-31
30
0
11
42
21
-1.8999999999999999
31
0
0
LINE
5
107
100
AcDbEntity
8
0
100
AcDbLine
10
34.011836175072943
20
36.698841943581826
30
0
11
15.627059864222698
21
55.083618254432061
31
0
0
LINE
5
108
100
AcDbEntity
8
0
100
AcDbLine
10
28.35498192558056
20
31.041987694089428
30
0
11
34.011836175072943
21
36.698841943581826
31
0
0
LINE
5
109
100
AcDbEntity
8
0
100
AcDbLine
10
29.698484809835001
20
29.698484809835001
30
0
11
28.35498192558056
21
31.041987694089428
31
0
0
LINE
5
110
100
AcDbEntity
8
0
100
AcDbLine
10
29.698484809835001
20
29.698484809835001
30
0
11
31.041987694089439
21
28.354981925580564
31
0
0
LINE
5
111
100
AcDbEntity
8
0
100
AcDbLine
10
31.041987694089439
20
28.354981925580564
30
0
11
36.698841943581819
21
34.011836175072936
31
0
0
LINE
5
112
100
AcDbEntity
8
0
100
AcDbLine
10
36.698841943581819
20
34.011836175072936
30
0
11
55.083618254432068
21
15.627059864222705
31
0
0
LINE
5
113
100
AcDbEntity
8
0
100
AcDbLine
10
-1.8999999999999968
20
50
30
0
11
-27.899999999999995
21
50
31
0
0
LINE
5
114
100
AcDbEntity
8
0
100
AcDbLine
10
-1.8999999999999972
20
42
30
0
11
-1.8999999999999968
21
50
31
0
0
LINE
5
115
100
AcDbEntity
8
0
100
AcDbLine
10
2.5717582782094424e-15
20
42
30
0
11
-1.8999999999999972
21
42
31
0
0
LINE
5
116
100
AcDbEntity
8
0
100
AcDbLine
10
2.5717582782094424e-15
20
42
30
0
11
1.9000000000000026
21
42
31
0
0
LINE
5
117
100
AcDbEntity
8
0
100
AcDbLine
10
1.9000000000000026
20
42
30
0
11
1.900000000000003
21
50
31
0
0
LINE
5
118
100
AcDbEntity
8
0
100
AcDbLine
10
1.900000000000003
20
50
30
0
11
27.900000000000006
21
50
31
0
0
LINE
5
119
100
AcDbEntity
8
0
100
AcDbLine
10
-36.698841943581819
20
34.011836175072943
30
0
11
-55.083618254432061
21
15.627059864222701
31
0
0
LINE
5
120
100
AcDbEntity
8
0
100
AcDbLine
10
-31.041987694089425
20
28.35498192558056
30
0
11
-36.698841943581819
21
34.011836175072943
31
0
0
LINE
5
121
100
AcDbEntity
8
0
100
AcDbLine
10
-29.698484809835001
20
29.698484809835001
30
0
11
-31.041987694089425
21
28.35498192558056
31
0
0
LINE
5
122
100
AcDbEntity
8
0
100
AcDbLine
10
-29.698484809834994
20
29.698484809835001
30
0
11
-28.35498192558056
21
31.041987694089439
31
0
0
LINE
5
123
100
AcDbEntity
8
0
100
AcDbLine
10
-28.35498192558056
20
31.041987694089439
30
0
11
-34.011836175072929
21
36.698841943581819
31
0
0
LINE
5
124
100
AcDbEntity
8
0
100
AcDbLine
10
-34.011836175072929
20
36.698841943581819
30
0
11
-15.627059864222698
21
55.083618254432039
31
0
0
LINE
5
125
100
AcDbEntity
8
0
100
AcDbLine
10
-50
20
-1.8999999999999937
30
0
11
-50.000000000000007
21
-27.899999999999995
31
0
0
LINE
5
126
100
AcDbEntity
8
0
100
AcDbLine
10
-42
20
-1.8999999999999948
30
0
11
-50
21
-1.8999999999999937
31
0
0
LINE
5
127
100
AcDbEntity
8
0
100
AcDbLine
10
-42
20
5.1435165564188841e-15
30
0
11
-42
21
-1.8999999999999948
31
0
0
LINE
5
128
100
AcDbEntity
8
0
100
AcDbLine
10
-42
20
5.1435165564188841e-15
30
0
11
-42
21
1.9000000000000052
31
0
0
LINE
5
129
100
AcDbEntity
8
0
100
AcDbLine
10
-42
20
1.9000000000000052
30
0
11
-50
21
1.9000000000000061
31
0
0
LINE
5
130
100
AcDbEntity
8
0
100
AcDbLine
10
-50
20
1.9000000000000061
30
0
11
-50
21
27.900000000000009
31
0
0
LINE
5
131
100
AcDbEntity
8
0
100
AcDbLine
10
-34.011836175072943
20
-36.698841943581819
30
0
11
-15.627059864222709
21
-55.083618254432061
31
0
0
LINE
5
132
100
AcDbEntity
8
0
100
AcDbLine
10
-28.354981925580564
20
-31.041987694089425
30
0
11
-34.011836175072943
21
-36.698841943581819
31
0
0
LINE
5
133
100
AcDbEntity
8
0
100
AcDbLine
10
-29.698484809835001
20
-29.698484809835001
30
0
11
-28.354981925580564
21
-31.041987694089425
31
0
0
LINE
5
134
100
AcDbEntity
8
0
100
AcDbLine
10
-29.698484809835001
20
-29.698484809834994
30
0
11
-31.041987694089443
21
-28.35498192558056
31
0
0
LINE
5
135
100
AcDbEntity
8
0
100
AcDbLine
10
-31.041987694089443
20
-28.35498192558056
30
0
11
-36.698841943581819
21
-34.011836175072929
31
0
0
LINE
5
136
100
AcDbEntity
8
0
100
AcDbLine
10
-36.698841943581819
20
-34.011836175072929
30
0
11
-55.083618254432068
21
-15.627059864222696
31
0
0
LINE
5
137
100
AcDbEntity
8
0
100
AcDbLine
10
1.8999999999999908
20
-50
30
0
11
27.899999999999991
21
-50.000000000000007
31
0
0
LINE
5
138
100
AcDbEntity
8
0
100
AcDbLine
10
1.8999999999999926
20
-42
30
0
11
1.8999999999999908
21
-50
31
0
0
LINE
5
139
100
AcDbEntity
8
0
100
AcDbLine
10
-7.7152748346283254e-15
20
-42
30
0
11
1.8999999999999926
21
-42
31
0
0
LINE
5
140
100
AcDbEntity
8
0
100
AcDbLine
10
-7.7152748346283254e-15
20
-42
30
0
11
-1.9000000000000075
21
-42
31
0
0
LINE
5
141
100
AcDbEntity
8
0
100
AcDbLine
10
-1.9000000000000075
20
-42
30
0
11
-1.9000000000000088
21
-50
31
0
0
LINE
5
142
100
AcDbEntity
8
0
100
AcDbLine
10
-1.9000000000000088
20
-50
30
0
11
-27.900000000000009
21
-50
31
0
0
LINE
5
143
100
AcDbEntity
8
0
100
AcDbLine
10
36.698841943581812
20
-34.011836175072943
30
0
11
55.083618254432054
21
-15.627059864222712
31
0
0
LINE
5
144
100
AcDbEntity
8
0
100
AcDbLine
10
31.041987694089421
20
-28.354981925580564
30
0
11
36.698841943581812
21
-34.011836175072943
31
0
0
LINE
5
145
100
AcDbEntity
8
0
100
AcDbLine
10
29.698484809834991
20
-29.698484809835001
30
0
11
31.041987694089421
21
-28.354981925580564
31
0
0
LINE
5
146
100
AcDbEntity
8
0
100
AcDbLine
10
29.698484809834991
20
-29.698484809835001
30
0
11
28.354981925580557
21
-31.041987694089443
31
0
0
LINE
5
147
100
AcDbEntity
8
0
100
AcDbLine
10
28.354981925580557
20
-31.041987694089443
30
0
11
34.011836175072922
21
-36.698841943581819
31
0
0
LINE
5
148
100
AcDbEntity
8
0
100
AcDbLine
10
34.011836175072922
20
-36.698841943581819
30
0
11
15.627059864222691
21
-55.083618254432032
31
0
0
ENDSEC
0
SECTION
2
OBJECTS
0
DICTIONARY
5
C
100
AcDbDictionary
3
ACAD_GROUP
350
D
3
ACAD_MLINESTYLE
350
17
0
DICTIONARY
5
D
100
AcDbDictionary
0
DICTIONARY
5
1A
330
C
100
AcDbDictionary
0
DICTIONARY
5
17
100
AcDbDictionary
0
ENDSEC
0
EOF
