  0
SECTION
  2
HEADER
  9
$ACADVER
  1
AC1012
  9
$DWGCODEPAGE
  3
ansi_936
  9
$INSBASE
 10
0.0
 20
0.0
 30
0.0
  9
$EXTMIN
 10
1.000000000000000E+20
 20
1.000000000000000E+20
 30
1.000000000000000E+20
  9
$EXTMAX
 10
-1.000000000000000E+20
 20
-1.000000000000000E+20
 30
-1.000000000000000E+20
  9
$LIMMIN
 10
0.0
 20
0.0
  9
$LIMMAX
 10
12.0
 20
9.0
  9
$ORTHOMODE
 70
     0
  9
$REGENMODE
 70
     1
  9
$FILLMODE
 70
     1
  9
$QTEXTMODE
 70
     0
  9
$MIRRTEXT
 70
     1
  9
$DRAGMODE
 70
     2
  9
$LTSCALE
 40
1.0
  9
$OSMODE
 70
    37
  9
$ATTMODE
 70
     1
  9
$TEXTSIZE
 40
0.2
  9
$TRACEWID
 40
0.05
  9
$TEXTSTYLE
  7
STANDARD
  9
$CLAYER
  8
0
  9
$CELTYPE
  6
BYLAYER
  9
$CECOLOR
 62
   256
  9
$CELTSCALE
 40
1.0
  9
$DELOBJ
 70
     1
  9
$DISPSILH
 70
     0
  9
$DIMSCALE
 40
1.0
  9
$DIMASZ
 40
0.18
  9
$DIMEXO
 40
0.0625
  9
$DIMDLI
 40
0.38
  9
$DIMRND
 40
0.0
  9
$DIMDLE
 40
0.0
  9
$DIMEXE
 40
0.18
  9
$DIMTP
 40
0.0
  9
$DIMTM
 40
0.0
  9
$DIMTXT
 40
0.18
  9
$DIMCEN
 40
0.09
  9
$DIMTSZ
 40
0.0
  9
$DIMTOL
 70
     0
  9
$DIMLIM
 70
     0
  9
$DIMTIH
 70
     1
  9
$DIMTOH
 70
     1
  9
$DIMSE1
 70
     0
  9
$DIMSE2
 70
     0
  9
$DIMTAD
 70
     0
  9
$DIMZIN
 70
     0
  9
$DIMBLK
  1

  9
$DIMASO
 70
     1
  9
$DIMSHO
 70
     1
  9
$DIMPOST
  1

  9
$DIMAPOST
  1

  9
$DIMALT
 70
     0
  9
$DIMALTD
 70
     2
  9
$DIMALTF
 40
25.4
  9
$DIMLFAC
 40
1.0
  9
$DIMTOFL
 70
     0
  9
$DIMTVP
 40
0.0
  9
$DIMTIX
 70
     0
  9
$DIMSOXD
 70
     0
  9
$DIMSAH
 70
     0
  9
$DIMBLK1
  1

  9
$DIMBLK2
  1

  9
$DIMSTYLE
  2
STANDARD
  9
$DIMCLRD
 70
     0
  9
$DIMCLRE
 70
     0
  9
$DIMCLRT
 70
     0
  9
$DIMTFAC
 40
1.0
  9
$DIMGAP
 40
0.09
  9
$DIMJUST
 70
     0
  9
$DIMSD1
 70
     0
  9
$DIMSD2
 70
     0
  9
$DIMTOLJ
 70
     1
  9
$DIMTZIN
 70
     0
  9
$DIMALTZ
 70
     0
  9
$DIMALTTZ
 70
     0
  9
$DIMFIT
 70
     3
  9
$DIMUPT
 70
     0
  9
$DIMUNIT
 70
     2
  9
$DIMDEC
 70
     4
  9
$DIMTDEC
 70
     4
  9
$DIMALTU
 70
     2
  9
$DIMALTTD
 70
     2
  9
$DIMTXSTY
  7
STANDARD
  9
$DIMAUNIT
 70
     0
  9
$LUNITS
 70
     2
  9
$LUPREC
 70
     4
  9
$SKETCHINC
 40
0.1
  9
$FILLETRAD
 40
0.5
  9
$AUNITS
 70
     0
  9
$AUPREC
 70
     0
  9
$MENU
  1
.
  9
$ELEVATION
 40
0.0
  9
$PELEVATION
 40
0.0
  9
$THICKNESS
 40
0.0
  9
$LIMCHECK
 70
     0
  9
$CHAMFERA
 40
0.5
  9
$CHAMFERB
 40
0.5
  9
$CHAMFERC
 40
1.0
  9
$CHAMFERD
 40
0.0
  9
$SKPOLY
 70
     0
  9
$TDCREATE
 40
2458737.814586782
  9
$TDUPDATE
 40
2458737.814586921
  9
$TDINDWG
 40
0.0000000116
  9
$TDUSRTIMER
 40
0.0000000116
  9
$USRTIMER
 70
     1
  9
$ANGBASE
 50
0.0
  9
$ANGDIR
 70
     0
  9
$PDMODE
 70
     0
  9
$PDSIZE
 40
0.0
  9
$PLINEWID
 40
0.0
  9
$COORDS
 70
     1
  9
$SPLFRAME
 70
     0
  9
$SPLINETYPE
 70
     6
  9
$SPLINESEGS
 70
     8
  9
$ATTDIA
 70
     0
  9
$ATTREQ
 70
     1
  9
$HANDLING
 70
     1
  9
$HANDSEED
  5
DA
  9
$SURFTAB1
 70
     6
  9
$SURFTAB2
 70
     6
  9
$SURFTYPE
 70
     6
  9
$SURFU
 70
     6
  9
$SURFV
 70
     6
  9
$UCSNAME
  2

  9
$UCSORG
 10
0.0
 20
0.0
 30
0.0
  9
$UCSXDIR
 10
1.0
 20
0.0
 30
0.0
  9
$UCSYDIR
 10
0.0
 20
1.0
 30
0.0
  9
$PUCSNAME
  2

  9
$PUCSORG
 10
0.0
 20
0.0
 30
0.0
  9
$PUCSXDIR
 10
1.0
 20
0.0
 30
0.0
  9
$PUCSYDIR
 10
0.0
 20
1.0
 30
0.0
  9
$USERI1
 70
     0
  9
$USERI2
 70
     0
  9
$USERI3
 70
     0
  9
$USERI4
 70
     0
  9
$USERI5
 70
     0
  9
$USERR1
 40
0.0
  9
$USERR2
 40
0.0
  9
$USERR3
 40
0.0
  9
$USERR4
 40
0.0
  9
$USERR5
 40
0.0
  9
$WORLDVIEW
 70
     1
  9
$SHADEDGE
 70
     3
  9
$SHADEDIF
 70
    70
  9
$TILEMODE
 70
     1
  9
$MAXACTVP
 70
    64
  9
$PINSBASE
 10
0.0
 20
0.0
 30
0.0
  9
$PLIMCHECK
 70
     0
  9
$PEXTMIN
 10
1.000000000000000E+20
 20
1.000000000000000E+20
 30
1.000000000000000E+20
  9
$PEXTMAX
 10
-1.000000000000000E+20
 20
-1.000000000000000E+20
 30
-1.000000000000000E+20
  9
$PLIMMIN
 10
0.0
 20
0.0
  9
$PLIMMAX
 10
12.0
 20
9.0
  9
$UNITMODE
 70
     0
  9
$VISRETAIN
 70
     1
  9
$PLINEGEN
 70
     0
  9
$PSLTSCALE
 70
     1
  9
$TREEDEPTH
 70
  3020
  9
$PICKSTYLE
 70
     1
  9
$CMLSTYLE
  2
STANDARD
  9
$CMLJUST
 70
     0
  9
$CMLSCALE
 40
1.0
  9
$SAVEIMAGES
 70
     1
  0
ENDSEC
  0
SECTION
  2
CLASSES
  0
CLASS
  1
ACDBDICTIONARYWDFLT
  2
AcDbDictionaryWithDefault
  3
ObjectDBX Classes
 90
    32768
280
     0
281
     0
  0
CLASS
  1
VISUALSTYLE
  2
AcDbVisualStyle
  3
ObjectDBX Classes
 90
     4095
280
     0
281
     0
  0
CLASS
  1
MATERIAL
  2
AcDbMaterial
  3
ObjectDBX Classes
 90
     1153
280
     0
281
     0
  0
CLASS
  1
SUN
  2
AcDbSun
  3
SCENEOE
 90
     1024
280
     0
281
     0
  0
CLASS
  1
DICTIONARYVAR
  2
AcDbDictionaryVar
  3
ObjectDBX Classes
 90
        0
280
     0
281
     0
  0
CLASS
  1
XRECORD
  2
AcDbXrecord
  3
AutoCAD 2000
 90
    32768
280
     0
281
     0
  0
CLASS
  1
LWPOLYLINE
  2
AcDbPolyline
  3
AutoCAD 2000
 90
    32768
280
     0
281
     1
  0
CLASS
  1
HATCH
  2
AcDbHatch
  3
AutoCAD 2000
 90
    32768
280
     0
281
     1
  0
CLASS
  1
ACDBPLACEHOLDER
  2
AcDbPlaceHolder
  3
ObjectDBX Classes
 90
        0
280
     0
281
     0
  0
CLASS
  1
LAYOUT
  2
AcDbLayout
  3
ObjectDBX Classes
 90
        0
280
     0
281
     0
  0
ENDSEC
  0
SECTION
  2
TABLES
  0
TABLE
  2
VPORT
  5
8
330
0
100
AcDbSymbolTable
 70
     1
  0
VPORT
  5
29
330
8
100
AcDbSymbolTableRecord
100
AcDbViewportTableRecord
  2
*ACTIVE
 70
     0
 10
0.0
 20
0.0
 11
1.0
 21
1.0
 12
0.0
 22
0.0
 13
0.0
 23
0.0
 14
0.5
 24
0.5
 15
0.5
 25
0.5
 16
0.0
 26
0.0
 36
1.0
 17
33.86666665819999
 27
10.58333333068748
 37
0.0
 40
119.99999997
 41
2.0
 42
50.0
 43
0.0
 44
0.0
 50
0.0
 51
0.0
 71
     0
 72
   100
 73
     1
 74
     3
 75
     0
 76
     0
 77
     0
 78
     0
  0
ENDTAB
  0
TABLE
  2
LTYPE
  5
5
330
0
100
AcDbSymbolTable
 70
     1
  0
LTYPE
  5
14
330
5
100
AcDbSymbolTableRecord
100
AcDbLinetypeTableRecord
  2
BYBLOCK
 70
     0
  3

 72
    65
 73
     0
 40
0.0
  0
LTYPE
  5
15
330
5
100
AcDbSymbolTableRecord
100
AcDbLinetypeTableRecord
  2
BYLAYER
 70
     0
  3

 72
    65
 73
     0
 40
0.0
  0
LTYPE
  5
16
330
5
100
AcDbSymbolTableRecord
100
AcDbLinetypeTableRecord
  2
CONTINUOUS
 70
     0
  3
Solid line
 72
    65
 73
     0
 40
0.0
  0
ENDTAB
  0
TABLE
  2
LAYER
  5
2
330
0
100
AcDbSymbolTable
 70
     3
  0
LAYER
  5
10
330
2
100
AcDbSymbolTableRecord
100
AcDbLayerTableRecord
  2
0
 70
     0
 62
     7
  6
CONTINUOUS
  0
LAYER
  5
40
330
2
100
AcDbSymbolTableRecord
100
AcDbLayerTableRecord
  2
_U_7C97_U_5B9E_U_7EBF_U_5C
 70
     0
 62
     7
  6
CONTINUOUS
  0
LAYER
  5
CE
330
2
100
AcDbSymbolTableRecord
100
AcDbLayerTableRecord
  2
_U_5C3A_U_5BF8_U_7EBF_U_5C
 70
     0
 62
     7
  6
CONTINUOUS
  0
ENDTAB
  0
TABLE
  2
STYLE
  5
3
330
0
100
AcDbSymbolTable
 70
     1
  0
STYLE
  5
11
330
3
100
AcDbSymbolTableRecord
100
AcDbTextStyleTableRecord
  2
STANDARD
 70
     0
 40
0.0
 41
1.0
 50
0.0
 71
     0
 42
0.2
  3
txt
  4

  0
ENDTAB
  0
TABLE
  2
VIEW
  5
6
330
0
100
AcDbSymbolTable
 70
     0
  0
ENDTAB
  0
TABLE
  2
UCS
  5
7
330
0
100
AcDbSymbolTable
 70
     0
  0
ENDTAB
  0
TABLE
  2
APPID
  5
9
330
0
100
AcDbSymbolTable
 70
     1
  0
APPID
  5
12
330
9
100
AcDbSymbolTableRecord
100
AcDbRegAppTableRecord
  2
ACAD
 70
     0
  0
ENDTAB
  0
TABLE
  2
DIMSTYLE
  5
A
330
0
100
AcDbSymbolTable
 70
     1
  0
DIMSTYLE
105
27
330
A
100
AcDbSymbolTableRecord
100
AcDbDimStyleTableRecord
  2
STANDARD
 70
     0
  3

  4

  5

  6

  7

 40
1.0
 41
0.18
 42
0.0625
 43
0.38
 44
0.18
 45
0.0
 46
0.0
 47
0.0
 48
0.0
140
0.18
141
0.09
142
0.0
143
25.4
144
1.0
145
0.0
146
1.0
147
0.09
 71
     0
 72
     0
 73
     1
 74
     1
 75
     0
 76
     0
 77
     0
 78
     0
170
     0
171
     2
172
     0
173
     0
174
     0
175
     0
176
     0
177
     0
178
     0
270
     2
271
     4
272
     4
273
     2
274
     2
340
11
275
     0
280
     0
281
     0
282
     0
283
     1
284
     0
285
     0
286
     0
287
     3
288
     0
  0
ENDTAB
  0
TABLE
  2
BLOCK_RECORD
  5
1
330
0
100
AcDbSymbolTable
 70
    22
  0
BLOCK_RECORD
  5
1F
330
1
100
AcDbSymbolTableRecord
100
AcDbBlockTableRecord
  2
*MODEL_SPACE
  0
BLOCK_RECORD
  5
1B
330
1
100
AcDbSymbolTableRecord
100
AcDbBlockTableRecord
  2
*PAPER_SPACE
  0
BLOCK_RECORD
  5
42
330
1
100
AcDbSymbolTableRecord
100
AcDbBlockTableRecord
  2
BLOCK_2
  0
BLOCK_RECORD
  5
47
330
1
100
AcDbSymbolTableRecord
100
AcDbBlockTableRecord
  2
BLOCK_3
  0
BLOCK_RECORD
  5
4F
330
1
100
AcDbSymbolTableRecord
100
AcDbBlockTableRecord
  2
BLOCK_4
  0
BLOCK_RECORD
  5
57
330
1
100
AcDbSymbolTableRecord
100
AcDbBlockTableRecord
  2
BLOCK_5
  0
BLOCK_RECORD
  5
5F
330
1
100
AcDbSymbolTableRecord
100
AcDbBlockTableRecord
  2
BLOCK_6
  0
BLOCK_RECORD
  5
67
330
1
100
AcDbSymbolTableRecord
100
AcDbBlockTableRecord
  2
BLOCK_7
  0
BLOCK_RECORD
  5
6C
330
1
100
AcDbSymbolTableRecord
100
AcDbBlockTableRecord
  2
BLOCK_8
  0
BLOCK_RECORD
  5
71
330
1
100
AcDbSymbolTableRecord
100
AcDbBlockTableRecord
  2
BLOCK_9
  0
BLOCK_RECORD
  5
79
330
1
100
AcDbSymbolTableRecord
100
AcDbBlockTableRecord
  2
BLOCK_10
  0
BLOCK_RECORD
  5
81
330
1
100
AcDbSymbolTableRecord
100
AcDbBlockTableRecord
  2
BLOCK_11
  0
BLOCK_RECORD
  5
86
330
1
100
AcDbSymbolTableRecord
100
AcDbBlockTableRecord
  2
BLOCK_12
  0
BLOCK_RECORD
  5
8C
330
1
100
AcDbSymbolTableRecord
100
AcDbBlockTableRecord
  2
BLOCK_13
  0
BLOCK_RECORD
  5
90
330
1
100
AcDbSymbolTableRecord
100
AcDbBlockTableRecord
  2
BLOCK_14
  0
BLOCK_RECORD
  5
95
330
1
100
AcDbSymbolTableRecord
100
AcDbBlockTableRecord
  2
BLOCK_15
  0
BLOCK_RECORD
  5
9A
330
1
100
AcDbSymbolTableRecord
100
AcDbBlockTableRecord
  2
BLOCK_16
  0
BLOCK_RECORD
  5
A0
330
1
100
AcDbSymbolTableRecord
100
AcDbBlockTableRecord
  2
BLOCK_17
  0
BLOCK_RECORD
  5
A9
330
1
100
AcDbSymbolTableRecord
100
AcDbBlockTableRecord
  2
BLOCK_18
  0
BLOCK_RECORD
  5
AE
330
1
100
AcDbSymbolTableRecord
100
AcDbBlockTableRecord
  2
BLOCK_19
  0
BLOCK_RECORD
  5
B3
330
1
100
AcDbSymbolTableRecord
100
AcDbBlockTableRecord
  2
BLOCK_20
  0
BLOCK_RECORD
  5
B9
330
1
100
AcDbSymbolTableRecord
100
AcDbBlockTableRecord
  2
BLOCK_21
  0
BLOCK_RECORD
  5
C2
330
1
100
AcDbSymbolTableRecord
100
AcDbBlockTableRecord
  2
BLOCK_22
  0
ENDTAB
  0
ENDSEC
  0
SECTION
  2
BLOCKS
  0
BLOCK
  5
20
330
1F
100
AcDbEntity
  8
0
100
AcDbBlockBegin
  2
*MODEL_SPACE
 70
     0
 10
0.0
 20
0.0
 30
0.0
  3
*MODEL_SPACE
  1

  0
ENDBLK
  5
21
330
1F
100
AcDbEntity
  8
0
100
AcDbBlockEnd
  0
BLOCK
  5
1C
330
1B
100
AcDbEntity
 67
     1
  8
0
100
AcDbBlockBegin
  2
*PAPER_SPACE
 70
     0
 10
0.0
 20
0.0
 30
0.0
  3
*PAPER_SPACE
  1

  0
ENDBLK
  5
1D
330
1B
100
AcDbEntity
 67
     1
  8
0
100
AcDbBlockEnd
  0
BLOCK
  5
44
330
42
100
AcDbEntity
  8
0
100
AcDbBlockBegin
  2
BLOCK_2
 70
     0
 10
0.0
 20
0.0
 30
0.0
  3
BLOCK_2
  1

  0
SPLINE
  5
46
330
42
100
AcDbEntity
  8
0
 62
     7
100
AcDbSpline
210
0.0
220
0.0
230
1.0
 70
    11
 71
     3
 72
    41
 73
    37
 74
     0
 42
0.0000000001
 43
0.0000000001
 12
1.0
 22
0.0
 32
0.0
 13
1.0
 23
0.0
 33
0.0
 40
0.0
 40
0.0
 40
0.0
 40
0.0
 40
1.0
 40
1.0
 40
1.0
 40
2.0
 40
2.0
 40
2.0
 40
3.0
 40
3.0
 40
3.0
 40
4.0
 40
4.0
 40
4.0
 40
5.0
 40
5.0
 40
5.0
 40
6.0
 40
6.0
 40
6.0
 40
7.0
 40
7.0
 40
7.0
 40
8.0
 40
8.0
 40
8.0
 40
9.0
 40
9.0
 40
9.0
 40
10.0
 40
10.0
 40
10.0
 40
11.0
 40
11.0
 40
11.0
 40
12.0
 40
12.0
 40
12.0
 40
12.0
 10
-8.85147016629545
 20
64.26855490576182
 30
0.0
 10
-8.85147016629545
 20
64.26855490576182
 30
0.0
 10
-41.65147016629442
 20
64.26855490576169
 30
0.0
 10
-41.65147016629442
 20
64.26855490576169
 30
0.0
 10
-41.65147016629442
 20
64.26855490576169
 30
0.0
 10
-74.45147016629576
 20
64.26855490576162
 30
0.0
 10
-74.45147016629576
 20
64.26855490576162
 30
0.0
 10
-75.00375491612785
 20
64.26855490575322
 30
0.0
 10
-75.45147016629443
 20
63.82083965558106
 30
0.0
 10
-75.45147016629443
 20
63.26855490574895
 30
0.0
 10
-75.45147016629443
 20
63.26855490574895
 30
0.0
 10
-75.45147016629443
 20
52.46855490576153
 30
0.0
 10
-75.45147016629443
 20
52.46855490576153
 30
0.0
 10
-75.45147016629443
 20
52.46855490576153
 30
0.0
 10
-75.45147016629443
 20
41.66855490577507
 30
0.0
 10
-75.45147016629443
 20
41.66855490577507
 30
0.0
 10
-75.45147016629491
 20
41.11627015593109
 30
0.0
 10
-75.00375491612532
 20
40.66855490576157
 30
0.0
 10
-74.45147016629407
 20
40.66855490576157
 30
0.0
 10
-74.45147016629298
 20
40.66855490576157
 30
0.0
 10
-41.65147016629442
 20
40.66855490576163
 30
0.0
 10
-41.65147016629442
 20
40.66855490576163
 30
0.0
 10
-41.65147016629442
 20
40.66855490576163
 30
0.0
 10
-8.851470166304626
 20
40.66855490576176
 30
0.0
 10
-8.851470166304626
 20
40.66855490576176
 30
0.0
 10
-8.299185416469049
 20
40.66855490576708
 30
0.0
 10
-7.851470166297724
 20
41.1162701559397
 30
0.0
 10
-7.851470166294387
 20
41.66855490577527
 30
0.0
 10
-7.851470166294387
 20
41.66855490577527
 30
0.0
 10
-7.851470166294387
 20
52.46855490576178
 30
0.0
 10
-7.851470166294387
 20
52.46855490576178
 30
0.0
 10
-7.851470166294387
 20
52.46855490576178
 30
0.0
 10
-7.851470166294387
 20
63.26855490574279
 30
0.0
 10
-7.851470166294387
 20
63.26855490574279
 30
0.0
 10
-7.851470166294387
 20
63.82083965557727
 30
0.0
 10
-8.299185416461029
 20
64.26855490575245
 30
0.0
 10
-8.85147016629545
 20
64.26855490576182
 30
0.0
  0
ENDBLK
  5
45
330
42
100
AcDbEntity
  8
0
100
AcDbBlockEnd
  0
BLOCK
  5
49
330
47
100
AcDbEntity
  8
0
100
AcDbBlockBegin
  2
BLOCK_3
 70
     0
 10
0.0
 20
0.0
 30
0.0
  3
BLOCK_3
  1

  0
POLYLINE
  5
4B
330
47
100
AcDbEntity
  8
0
 62
     7
100
AcDb2dPolyline
 66
     1
 10
0.0
 20
0.0
 30
0.0
  0
VERTEX
  5
4C
330
4B
100
AcDbEntity
  8
0
 62
     7
100
AcDbVertex
100
AcDb2dVertex
 10
14.1515537439422
 20
-43.0280341393689
 30
0.0
  0
VERTEX
  5
4D
330
4B
100
AcDbEntity
  8
0
 62
     7
100
AcDbVertex
100
AcDb2dVertex
 10
31.35155374394139
 20
-43.0280341393689
 30
0.0
  0
SEQEND
  5
4E
330
4B
100
AcDbEntity
  8
0
 62
     7
  0
ENDBLK
  5
4A
330
47
100
AcDbEntity
  8
0
100
AcDbBlockEnd
  0
BLOCK
  5
51
330
4F
100
AcDbEntity
  8
0
100
AcDbBlockBegin
  2
BLOCK_4
 70
     0
 10
0.0
 20
0.0
 30
0.0
  3
BLOCK_4
  1

  0
POLYLINE
  5
53
330
4F
100
AcDbEntity
  8
0
 62
     7
100
AcDb2dPolyline
 66
     1
 10
0.0
 20
0.0
 30
0.0
  0
VERTEX
  5
54
330
53
100
AcDbEntity
  8
0
 62
     7
100
AcDbVertex
100
AcDb2dVertex
 10
32.3515537439422
 20
-42.02803413935474
 30
0.0
  0
VERTEX
  5
55
330
53
100
AcDbEntity
  8
0
 62
     7
100
AcDbVertex
100
AcDb2dVertex
 10
32.35155374394226
 20
-8.028034139368824
 30
0.0
  0
SEQEND
  5
56
330
53
100
AcDbEntity
  8
0
 62
     7
  0
ENDBLK
  5
52
330
4F
100
AcDbEntity
  8
0
100
AcDbBlockEnd
  0
BLOCK
  5
59
330
57
100
AcDbEntity
  8
0
100
AcDbBlockBegin
  2
BLOCK_5
 70
     0
 10
0.0
 20
0.0
 30
0.0
  3
BLOCK_5
  1

  0
POLYLINE
  5
5B
330
57
100
AcDbEntity
  8
0
 62
     7
100
AcDb2dPolyline
 66
     1
 10
0.0
 20
0.0
 30
0.0
  0
VERTEX
  5
5C
330
5B
100
AcDbEntity
  8
0
 62
     7
100
AcDbVertex
100
AcDb2dVertex
 10
14.1515537439422
 20
-43.0280341393689
 30
0.0
  0
VERTEX
  5
5D
330
5B
100
AcDbEntity
  8
0
 62
     7
100
AcDbVertex
100
AcDb2dVertex
 10
3.351553743954846
 20
-43.0280341393689
 30
0.0
  0
SEQEND
  5
5E
330
5B
100
AcDbEntity
  8
0
 62
     7
  0
ENDBLK
  5
5A
330
57
100
AcDbEntity
  8
0
100
AcDbBlockEnd
  0
BLOCK
  5
61
330
5F
100
AcDbEntity
  8
0
100
AcDbBlockBegin
  2
BLOCK_6
 70
     0
 10
0.0
 20
0.0
 30
0.0
  3
BLOCK_6
  1

  0
POLYLINE
  5
63
330
5F
100
AcDbEntity
  8
0
 62
     7
100
AcDb2dPolyline
 66
     1
 10
0.0
 20
0.0
 30
0.0
  0
VERTEX
  5
64
330
63
100
AcDbEntity
  8
0
 62
     7
100
AcDbVertex
100
AcDb2dVertex
 10
32.35155374394226
 20
35.97196586061707
 30
0.0
  0
VERTEX
  5
65
330
63
100
AcDbEntity
  8
0
 62
     7
100
AcDbVertex
100
AcDb2dVertex
 10
32.35155374394226
 20
-8.028034139368824
 30
0.0
  0
SEQEND
  5
66
330
63
100
AcDbEntity
  8
0
 62
     7
  0
ENDBLK
  5
62
330
5F
100
AcDbEntity
  8
0
100
AcDbBlockEnd
  0
BLOCK
  5
69
330
67
100
AcDbEntity
  8
0
100
AcDbBlockBegin
  2
BLOCK_7
 70
     0
 10
0.0
 20
0.0
 30
0.0
  3
BLOCK_7
  1

  0
SPLINE
  5
6B
330
67
100
AcDbEntity
  8
0
 62
     7
100
AcDbSpline
210
0.0
220
0.0
230
1.0
 70
     8
 71
     3
 72
     8
 73
     4
 74
     0
 42
0.0000000001
 43
0.0000000001
 12
1.0
 22
0.0
 32
0.0
 13
1.0
 23
0.0
 33
0.0
 40
0.0
 40
0.0
 40
0.0
 40
0.0
 40
1.0
 40
1.0
 40
1.0
 40
1.0
 10
2.351553743943581
 20
-42.02803413937021
 30
0.0
 10
2.351553743950511
 20
-42.58031888920226
 30
0.0
 10
2.799268994122736
 20
-43.0280341393689
 30
0.0
 10
3.351553743954846
 20
-43.0280341393689
 30
0.0
  0
ENDBLK
  5
6A
330
67
100
AcDbEntity
  8
0
100
AcDbBlockEnd
  0
BLOCK
  5
6E
330
6C
100
AcDbEntity
  8
0
100
AcDbBlockBegin
  2
BLOCK_8
 70
     0
 10
0.0
 20
0.0
 30
0.0
  3
BLOCK_8
  1

  0
SPLINE
  5
70
330
6C
100
AcDbEntity
  8
0
 62
     7
100
AcDbSpline
210
0.0
220
0.0
230
1.0
 70
     8
 71
     3
 72
     8
 73
     4
 74
     0
 42
0.0000000001
 43
0.0000000001
 12
1.0
 22
0.0
 32
0.0
 13
1.0
 23
0.0
 33
0.0
 40
0.0
 40
0.0
 40
0.0
 40
0.0
 40
1.0
 40
1.0
 40
1.0
 40
1.0
 10
31.35155374394139
 20
-43.02803413936935
 30
0.0
 10
31.9038384937726
 20
-43.02803413936935
 30
0.0
 10
32.3515537439422
 20
-42.58031888919975
 30
0.0
 10
32.3515537439422
 20
-42.02803413936848
 30
0.0
  0
ENDBLK
  5
6F
330
6C
100
AcDbEntity
  8
0
100
AcDbBlockEnd
  0
BLOCK
  5
73
330
71
100
AcDbEntity
  8
0
100
AcDbBlockBegin
  2
BLOCK_9
 70
     0
 10
0.0
 20
0.0
 30
0.0
  3
BLOCK_9
  1

  0
POLYLINE
  5
75
330
71
100
AcDbEntity
  8
0
 62
     7
100
AcDb2dPolyline
 66
     1
 10
0.0
 20
0.0
 30
0.0
  0
VERTEX
  5
76
330
75
100
AcDbEntity
  8
0
 62
     7
100
AcDbVertex
100
AcDb2dVertex
 10
14.15155374394226
 20
36.97196586063116
 30
0.0
  0
VERTEX
  5
77
330
75
100
AcDbEntity
  8
0
 62
     7
100
AcDbVertex
100
AcDb2dVertex
 10
31.35155374394146
 20
36.97196586063116
 30
0.0
  0
SEQEND
  5
78
330
75
100
AcDbEntity
  8
0
 62
     7
  0
ENDBLK
  5
74
330
71
100
AcDbEntity
  8
0
100
AcDbBlockEnd
  0
BLOCK
  5
7B
330
79
100
AcDbEntity
  8
0
100
AcDbBlockBegin
  2
BLOCK_10
 70
     0
 10
0.0
 20
0.0
 30
0.0
  3
BLOCK_10
  1

  0
POLYLINE
  5
7D
330
79
100
AcDbEntity
  8
0
 62
     7
100
AcDb2dPolyline
 66
     1
 10
0.0
 20
0.0
 30
0.0
  0
VERTEX
  5
7E
330
7D
100
AcDbEntity
  8
0
 62
     7
100
AcDbVertex
100
AcDb2dVertex
 10
14.15155374394226
 20
36.97196586063116
 30
0.0
  0
VERTEX
  5
7F
330
7D
100
AcDbEntity
  8
0
 62
     7
100
AcDbVertex
100
AcDb2dVertex
 10
3.351553743954846
 20
36.97196586063116
 30
0.0
  0
SEQEND
  5
80
330
7D
100
AcDbEntity
  8
0
 62
     7
  0
ENDBLK
  5
7C
330
79
100
AcDbEntity
  8
0
100
AcDbBlockEnd
  0
BLOCK
  5
83
330
81
100
AcDbEntity
  8
0
100
AcDbBlockBegin
  2
BLOCK_11
 70
     0
 10
0.0
 20
0.0
 30
0.0
  3
BLOCK_11
  1

  0
SPLINE
  5
85
330
81
100
AcDbEntity
  8
0
 62
     7
100
AcDbSpline
210
0.0
220
0.0
230
1.0
 70
     8
 71
     3
 72
     8
 73
     4
 74
     0
 42
0.0000000001
 43
0.0000000001
 12
1.0
 22
0.0
 32
0.0
 13
1.0
 23
0.0
 33
0.0
 40
0.0
 40
0.0
 40
0.0
 40
0.0
 40
1.0
 40
1.0
 40
1.0
 40
1.0
 10
3.351553743954846
 20
36.97196586063116
 30
0.0
 10
2.7992689941228
 20
36.97196586063116
 30
0.0
 10
2.351553743950576
 20
36.52425061046458
 30
0.0
 10
2.351553743943645
 20
35.97196586063247
 30
0.0
  0
ENDBLK
  5
84
330
81
100
AcDbEntity
  8
0
100
AcDbBlockEnd
  0
BLOCK
  5
88
330
86
100
AcDbEntity
  8
0
100
AcDbBlockBegin
  2
BLOCK_12
 70
     0
 10
0.0
 20
0.0
 30
0.0
  3
BLOCK_12
  1

  0
SPLINE
  5
8A
330
86
100
AcDbEntity
  8
0
 62
     7
100
AcDbSpline
210
0.0
220
0.0
230
1.0
 70
     8
 71
     3
 72
     8
 73
     4
 74
     0
 42
0.0000000001
 43
0.0000000001
 12
1.0
 22
0.0
 32
0.0
 13
1.0
 23
0.0
 33
0.0
 40
0.0
 40
0.0
 40
0.0
 40
0.0
 40
1.0
 40
1.0
 40
1.0
 40
1.0
 10
32.35155374394226
 20
35.97196586061707
 30
0.0
 10
32.3515537439499
 20
36.52425061044834
 30
0.0
 10
31.90383849378647
 20
36.97196586062403
 30
0.0
 10
31.35155374395519
 20
36.97196586063167
 30
0.0
  0
ENDBLK
  5
89
330
86
100
AcDbEntity
  8
0
100
AcDbBlockEnd
  0
BLOCK
  5
8E
330
8C
100
AcDbEntity
  8
0
100
AcDbBlockBegin
  2
BLOCK_13
 70
     0
 10
0.0
 20
0.0
 30
0.0
  3
BLOCK_13
  1

  0
INSERT
  5
91
330
8C
100
AcDbEntity
  8
0
100
AcDbBlockReference
  2
BLOCK_14
 10
0.0
 20
0.0
 30
0.0
  0
INSERT
  5
96
330
8C
100
AcDbEntity
  8
0
100
AcDbBlockReference
  2
BLOCK_15
 10
0.0
 20
0.0
 30
0.0
  0
INSERT
  5
9B
330
8C
100
AcDbEntity
  8
0
100
AcDbBlockReference
  2
BLOCK_16
 10
0.0
 20
0.0
 30
0.0
  0
SPLINE
  5
9F
330
8C
100
AcDbEntity
  8
0
 62
     7
100
AcDbSpline
210
0.0
220
0.0
230
1.0
 70
    11
 71
     3
 72
   113
 73
   109
 74
     0
 42
0.0000000001
 43
0.0000000001
 12
1.0
 22
0.0
 32
0.0
 13
1.0
 23
0.0
 33
0.0
 40
0.0
 40
0.0
 40
0.0
 40
0.0
 40
1.0
 40
1.0
 40
1.0
 40
2.0
 40
2.0
 40
2.0
 40
3.0
 40
3.0
 40
3.0
 40
4.0
 40
4.0
 40
4.0
 40
5.0
 40
5.0
 40
5.0
 40
6.0
 40
6.0
 40
6.0
 40
7.0
 40
7.0
 40
7.0
 40
8.0
 40
8.0
 40
8.0
 40
9.0
 40
9.0
 40
9.0
 40
10.0
 40
10.0
 40
10.0
 40
11.0
 40
11.0
 40
11.0
 40
12.0
 40
12.0
 40
12.0
 40
13.0
 40
13.0
 40
13.0
 40
14.0
 40
14.0
 40
14.0
 40
15.0
 40
15.0
 40
15.0
 40
16.0
 40
16.0
 40
16.0
 40
17.0
 40
17.0
 40
17.0
 40
18.0
 40
18.0
 40
18.0
 40
19.0
 40
19.0
 40
19.0
 40
20.0
 40
20.0
 40
20.0
 40
21.0
 40
21.0
 40
21.0
 40
22.0
 40
22.0
 40
22.0
 40
23.0
 40
23.0
 40
23.0
 40
24.0
 40
24.0
 40
24.0
 40
25.0
 40
25.0
 40
25.0
 40
26.0
 40
26.0
 40
26.0
 40
27.0
 40
27.0
 40
27.0
 40
28.0
 40
28.0
 40
28.0
 40
29.0
 40
29.0
 40
29.0
 40
30.0
 40
30.0
 40
30.0
 40
31.0
 40
31.0
 40
31.0
 40
32.0
 40
32.0
 40
32.0
 40
33.0
 40
33.0
 40
33.0
 40
34.0
 40
34.0
 40
34.0
 40
35.0
 40
35.0
 40
35.0
 40
36.0
 40
36.0
 40
36.0
 40
36.0
 10
4.35155525986696
 20
104.2685530927153
 30
0.0
 10
4.35155525986696
 20
104.2685530927153
 30
0.0
 10
4.35155525986696
 20
102.468559603582
 30
0.0
 10
4.35155525986696
 20
102.468559603582
 30
0.0
 10
4.35155525986696
 20
102.2476428555903
 30
0.0
 10
4.172468430620282
 20
102.0685581795283
 30
0.0
 10
3.951553835813315
 20
102.0685581795283
 30
0.0
 10
3.730641394191025
 20
102.0685581795283
 30
0.0
 10
3.551554564944348
 20
102.2476428555903
 30
0.0
 10
3.551554564944348
 20
102.468559603582
 30
0.0
 10
3.551554564944348
 20
102.468559603582
 30
0.0
 10
-3.648445229805131
 20
102.468559603582
 30
0.0
 10
-3.648445229805131
 20
102.468559603582
 30
0.0
 10
-3.648445229805131
 20
102.468559603582
 30
0.0
 10
-3.648445229805131
 20
42.46855270126426
 30
0.0
 10
-3.648445229805131
 20
42.46855270126426
 30
0.0
 10
-3.648445229805131
 20
42.46855270126426
 30
0.0
 10
3.551554564944348
 20
42.46855270126426
 30
0.0
 10
3.551554564944348
 20
42.46855270126426
 30
0.0
 10
3.551554564944348
 20
42.6894694492559
 30
0.0
 10
3.730641394191025
 20
42.8685541253179
 30
0.0
 10
3.951553835813315
 20
42.8685541253179
 30
0.0
 10
4.172468430620282
 20
42.8685541253179
 30
0.0
 10
4.35155525986696
 20
42.6894694492559
 30
0.0
 10
4.35155525986696
 20
42.46855270126426
 30
0.0
 10
4.35155525986696
 20
42.46855270126426
 30
0.0
 10
4.35155525986696
 20
40.66855490576157
 30
0.0
 10
4.35155525986696
 20
40.66855490576157
 30
0.0
 10
4.35155525986696
 20
40.66855490576157
 30
0.0
 10
9.351553681875425
 20
40.66855490576157
 30
0.0
 10
9.351553681875425
 20
40.66855490576157
 30
0.0
 10
9.351553681875425
 20
40.66855490576157
 30
0.0
 10
9.351553681875425
 20
42.46855270126426
 30
0.0
 10
9.351553681875425
 20
42.46855270126426
 30
0.0
 10
9.351553681875425
 20
42.6894694492559
 30
0.0
 10
9.530640511122101
 20
42.8685541253179
 30
0.0
 10
9.75155510592907
 20
42.8685541253179
 30
0.0
 10
9.972467547551359
 20
42.8685541253179
 30
0.0
 10
10.15155437679804
 20
42.6894694492559
 30
0.0
 10
10.15155437679804
 20
42.46855270126426
 30
0.0
 10
10.15155437679804
 20
42.46855270126426
 30
0.0
 10
18.5515541373391
 20
42.46855270126426
 30
0.0
 10
18.5515541373391
 20
42.46855270126426
 30
0.0
 10
18.5515541373391
 20
42.6894694492559
 30
0.0
 10
18.73064096658577
 20
42.8685541253179
 30
0.0
 10
18.95155340820806
 20
42.8685541253179
 30
0.0
 10
19.17246800301503
 20
42.8685541253179
 30
0.0
 10
19.35155483226171
 20
42.6894694492559
 30
0.0
 10
19.35155483226171
 20
42.46855270126426
 30
0.0
 10
19.35155483226171
 20
42.46855270126426
 30
0.0
 10
19.35155483226171
 20
40.66855490576157
 30
0.0
 10
19.35155483226171
 20
40.66855490576157
 30
0.0
 10
19.35155483226171
 20
40.66855490576157
 30
0.0
 10
24.35155325427017
 20
40.66855490576157
 30
0.0
 10
24.35155325427017
 20
40.66855490576157
 30
0.0
 10
24.35155325427017
 20
40.66855490576157
 30
0.0
 10
24.35155325427017
 20
42.46855270126426
 30
0.0
 10
24.35155325427017
 20
42.46855270126426
 30
0.0
 10
24.35155325427017
 20
42.6894694492559
 30
0.0
 10
24.53064008351685
 20
42.8685541253179
 30
0.0
 10
24.75155467832382
 20
42.8685541253179
 30
0.0
 10
24.97246927313078
 20
42.8685541253179
 30
0.0
 10
25.15155394919278
 20
42.6894694492559
 30
0.0
 10
25.15155394919278
 20
42.46855270126426
 30
0.0
 10
25.15155394919278
 20
42.46855270126426
 30
0.0
 10
32.35155374394226
 20
42.46855270126426
 30
0.0
 10
32.35155374394226
 20
42.46855270126426
 30
0.0
 10
32.35155374394226
 20
42.46855270126426
 30
0.0
 10
32.35155374394226
 20
102.468559603582
 30
0.0
 10
32.35155374394226
 20
102.468559603582
 30
0.0
 10
32.35155374394226
 20
102.468559603582
 30
0.0
 10
25.15155394919278
 20
102.468559603582
 30
0.0
 10
25.15155394919278
 20
102.468559603582
 30
0.0
 10
25.15155394919278
 20
102.2476428555903
 30
0.0
 10
24.97246927313078
 20
102.0685581795283
 30
0.0
 10
24.75155467832382
 20
102.0685581795283
 30
0.0
 10
24.53064008351685
 20
102.0685581795283
 30
0.0
 10
24.35155325427017
 20
102.2476428555903
 30
0.0
 10
24.35155325427017
 20
102.468559603582
 30
0.0
 10
24.35155325427017
 20
102.468559603582
 30
0.0
 10
24.35155325427017
 20
104.2685530927153
 30
0.0
 10
24.35155325427017
 20
104.2685530927153
 30
0.0
 10
24.35155325427017
 20
104.2685530927153
 30
0.0
 10
19.35155483226171
 20
104.2685530927153
 30
0.0
 10
19.35155483226171
 20
104.2685530927153
 30
0.0
 10
19.35155483226171
 20
104.2685530927153
 30
0.0
 10
19.35155483226171
 20
102.468559603582
 30
0.0
 10
19.35155483226171
 20
102.468559603582
 30
0.0
 10
19.35155483226171
 20
102.2476428555903
 30
0.0
 10
19.17246800301503
 20
102.0685581795283
 30
0.0
 10
18.95155340820806
 20
102.0685581795283
 30
0.0
 10
18.73064096658577
 20
102.0685581795283
 30
0.0
 10
18.5515541373391
 20
102.2476428555903
 30
0.0
 10
18.5515541373391
 20
102.468559603582
 30
0.0
 10
18.5515541373391
 20
102.468559603582
 30
0.0
 10
10.15155437679804
 20
102.468559603582
 30
0.0
 10
10.15155437679804
 20
102.468559603582
 30
0.0
 10
10.15155437679804
 20
102.2476428555903
 30
0.0
 10
9.972467547551359
 20
102.0685581795283
 30
0.0
 10
9.75155510592907
 20
102.0685581795283
 30
0.0
 10
9.530640511122101
 20
102.0685581795283
 30
0.0
 10
9.351553681875425
 20
102.2476428555903
 30
0.0
 10
9.351553681875425
 20
102.468559603582
 30
0.0
 10
9.351553681875425
 20
102.468559603582
 30
0.0
 10
9.351553681875425
 20
104.2685530927153
 30
0.0
 10
9.351553681875425
 20
104.2685530927153
 30
0.0
 10
9.351553681875425
 20
104.2685530927153
 30
0.0
 10
4.35155525986696
 20
104.2685530927153
 30
0.0
 10
4.35155525986696
 20
104.2685530927153
 30
0.0
  0
ENDBLK
  5
8F
330
8C
100
AcDbEntity
  8
0
100
AcDbBlockEnd
  0
BLOCK
  5
92
330
90
100
AcDbEntity
  8
0
100
AcDbBlockBegin
  2
BLOCK_14
 70
     0
 10
0.0
 20
0.0
 30
0.0
  3
BLOCK_14
  1

  0
SPLINE
  5
94
330
90
100
AcDbEntity
  8
0
 62
     7
100
AcDbSpline
210
0.0
220
0.0
230
1.0
 70
    11
 71
     3
 72
    20
 73
    16
 74
     0
 42
0.0000000001
 43
0.0000000001
 12
1.0
 22
0.0
 32
0.0
 13
1.0
 23
0.0
 33
0.0
 40
0.0
 40
0.0
 40
0.0
 40
0.0
 40
1.0
 40
1.0
 40
1.0
 40
2.0
 40
2.0
 40
2.0
 40
3.0
 40
3.0
 40
3.0
 40
4.0
 40
4.0
 40
4.0
 40
5.0
 40
5.0
 40
5.0
 40
5.0
 10
9.975849467287597
 20
59.02369542485145
 30
0.0
 10
9.699707092372185
 20
59.02369542485145
 30
0.0
 10
9.47584946728758
 20
59.24755304993606
 30
0.0
 10
9.47584946728758
 20
59.52369542485147
 30
0.0
 10
9.47584946728758
 20
59.79983779976688
 30
0.0
 10
9.699707092372185
 20
60.02369542485143
 30
0.0
 10
9.975849467287597
 20
60.02369542485143
 30
0.0
 10
10.25199184220295
 20
60.02369542485143
 30
0.0
 10
10.47584946728755
 20
59.79983779976688
 30
0.0
 10
10.47584946728755
 20
59.52369542485147
 30
0.0
 10
10.47584946728755
 20
59.24755304993606
 30
0.0
 10
10.25199184220295
 20
59.02369542485145
 30
0.0
 10
9.975849467287597
 20
59.02369542485145
 30
0.0
 10
9.975849467287597
 20
59.02369542485145
 30
0.0
 10
9.975849467287597
 20
59.02369542485145
 30
0.0
 10
9.975849467287597
 20
59.02369542485145
 30
0.0
  0
ENDBLK
  5
93
330
90
100
AcDbEntity
  8
0
100
AcDbBlockEnd
  0
BLOCK
  5
97
330
95
100
AcDbEntity
  8
0
100
AcDbBlockBegin
  2
BLOCK_15
 70
     0
 10
0.0
 20
0.0
 30
0.0
  3
BLOCK_15
  1

  0
SPLINE
  5
99
330
95
100
AcDbEntity
  8
0
 62
     7
100
AcDbSpline
210
0.0
220
0.0
230
1.0
 70
    11
 71
     3
 72
    20
 73
    16
 74
     0
 42
0.0000000001
 43
0.0000000001
 12
1.0
 22
0.0
 32
0.0
 13
1.0
 23
0.0
 33
0.0
 40
0.0
 40
0.0
 40
0.0
 40
0.0
 40
1.0
 40
1.0
 40
1.0
 40
2.0
 40
2.0
 40
2.0
 40
3.0
 40
3.0
 40
3.0
 40
4.0
 40
4.0
 40
4.0
 40
5.0
 40
5.0
 40
5.0
 40
5.0
 10
9.975849467287597
 20
84.91341458739515
 30
0.0
 10
9.699707092372185
 20
84.91341458739515
 30
0.0
 10
9.47584946728758
 20
85.13727221247976
 30
0.0
 10
9.47584946728758
 20
85.41341458739517
 30
0.0
 10
9.47584946728758
 20
85.68955696231052
 30
0.0
 10
9.699707092372185
 20
85.91341458739512
 30
0.0
 10
9.975849467287597
 20
85.91341458739512
 30
0.0
 10
10.25199184220295
 20
85.91341458739512
 30
0.0
 10
10.47584946728755
 20
85.68955696231052
 30
0.0
 10
10.47584946728755
 20
85.41341458739517
 30
0.0
 10
10.47584946728755
 20
85.13727221247976
 30
0.0
 10
10.25199184220295
 20
84.91341458739515
 30
0.0
 10
9.975849467287597
 20
84.91341458739515
 30
0.0
 10
9.975849467287597
 20
84.91341458739515
 30
0.0
 10
9.975849467287597
 20
84.91341458739515
 30
0.0
 10
9.975849467287597
 20
84.91341458739515
 30
0.0
  0
ENDBLK
  5
98
330
95
100
AcDbEntity
  8
0
100
AcDbBlockEnd
  0
BLOCK
  5
9C
330
9A
100
AcDbEntity
  8
0
100
AcDbBlockBegin
  2
BLOCK_16
 70
     0
 10
0.0
 20
0.0
 30
0.0
  3
BLOCK_16
  1

  0
SPLINE
  5
9E
330
9A
100
AcDbEntity
  8
0
 62
     7
100
AcDbSpline
210
0.0
220
0.0
230
1.0
 70
    11
 71
     3
 72
    23
 73
    19
 74
     0
 42
0.0000000001
 43
0.0000000001
 12
1.0
 22
0.0
 32
0.0
 13
1.0
 23
0.0
 33
0.0
 40
0.0
 40
0.0
 40
0.0
 40
0.0
 40
1.0
 40
1.0
 40
1.0
 40
2.0
 40
2.0
 40
2.0
 40
3.0
 40
3.0
 40
3.0
 40
4.0
 40
4.0
 40
4.0
 40
5.0
 40
5.0
 40
5.0
 40
6.0
 40
6.0
 40
6.0
 40
6.0
 10
21.49325052410268
 20
59.52369542485147
 30
0.0
 10
21.49325052410268
 20
59.52369542485147
 30
0.0
 10
21.49325052410268
 20
85.41341458739517
 30
0.0
 10
21.49325052410268
 20
85.41341458739517
 30
0.0
 10
21.49325052410082
 20
85.68955696231077
 30
0.0
 10
21.26939289901448
 20
85.9134145873941
 30
0.0
 10
20.99325052409882
 20
85.91341458739224
 30
0.0
 10
20.71710814918314
 20
85.91341458739038
 30
0.0
 10
20.49325052409982
 20
85.68955696230404
 30
0.0
 10
20.49325052410271
 20
85.41341458739517
 30
0.0
 10
20.49325052410271
 20
85.41341458739517
 30
0.0
 10
20.49325052410271
 20
59.52369542485147
 30
0.0
 10
20.49325052410271
 20
59.52369542485147
 30
0.0
 10
20.49325052410335
 20
59.24755304993504
 30
0.0
 10
20.7171081491893
 20
59.02369542485011
 30
0.0
 10
20.99325052410568
 20
59.02369542485075
 30
0.0
 10
21.26939289902212
 20
59.02369542485139
 30
0.0
 10
21.49325052410704
 20
59.24755304993734
 30
0.0
 10
21.49325052410268
 20
59.52369542485147
 30
0.0
  0
ENDBLK
  5
9D
330
9A
100
AcDbEntity
  8
0
100
AcDbBlockEnd
  0
BLOCK
  5
A2
330
A0
100
AcDbEntity
  8
0
100
AcDbBlockBegin
  2
BLOCK_17
 70
     0
 10
0.0
 20
0.0
 30
0.0
  3
BLOCK_17
  1

  0
SPLINE
  5
A4
330
A0
100
AcDbEntity
  8
0
 62
     7
100
AcDbSpline
210
0.0
220
0.0
230
1.0
 70
    11
 71
     3
 72
    47
 73
    43
 74
     0
 42
0.0000000001
 43
0.0000000001
 12
1.0
 22
0.0
 32
0.0
 13
1.0
 23
0.0
 33
0.0
 40
0.0
 40
0.0
 40
0.0
 40
0.0
 40
1.0
 40
1.0
 40
1.0
 40
2.0
 40
2.0
 40
2.0
 40
3.0
 40
3.0
 40
3.0
 40
4.0
 40
4.0
 40
4.0
 40
5.0
 40
5.0
 40
5.0
 40
6.0
 40
6.0
 40
6.0
 40
7.0
 40
7.0
 40
7.0
 40
8.0
 40
8.0
 40
8.0
 40
9.0
 40
9.0
 40
9.0
 40
10.0
 40
10.0
 40
10.0
 40
11.0
 40
11.0
 40
11.0
 40
12.0
 40
12.0
 40
12.0
 40
13.0
 40
13.0
 40
13.0
 40
14.0
 40
14.0
 40
14.0
 40
14.0
 10
-41.65147016629442
 20
31.50375423541733
 30
0.0
 10
-41.65147016629442
 20
31.28284179379504
 30
0.0
 10
-41.47238549023242
 20
31.10375711773304
 30
0.0
 10
-41.25146874224077
 20
31.10375711773304
 30
0.0
 10
-41.25146874224077
 20
31.10375711773304
 30
0.0
 10
-41.25146874224077
 20
19.90375600155518
 30
0.0
 10
-41.25146874224077
 20
19.90375600155518
 30
0.0
 10
-41.25146874224077
 20
19.90375600155518
 30
0.0
 10
-41.25146874224077
 20
8.703759191746673
 30
0.0
 10
-41.25146874224077
 20
8.703759191746673
 30
0.0
 10
-41.47238549023242
 20
8.703759191746673
 30
0.0
 10
-41.65147016629442
 20
8.524670209315317
 30
0.0
 10
-41.65147016629442
 20
8.303757767693028
 30
0.0
 10
-41.65147016629442
 20
8.082841019701382
 30
0.0
 10
-41.47238549023242
 20
7.903756343639382
 30
0.0
 10
-41.25146874224077
 20
7.903756343639382
 30
0.0
 10
-41.25146874224077
 20
7.903756343639382
 30
0.0
 10
-39.38091101427523
 20
7.903756343639382
 30
0.0
 10
-39.38091101427523
 20
7.903756343639382
 30
0.0
 10
-39.15999857265295
 20
7.903756343639382
 30
0.0
 10
-38.98091389659094
 20
8.082841019701382
 30
0.0
 10
-38.98091389659094
 20
8.303757767693028
 30
0.0
 10
-38.98091389659094
 20
8.524670209315317
 30
0.0
 10
-39.15999857265295
 20
8.703759191746673
 30
0.0
 10
-39.38091101427523
 20
8.703759191746673
 30
0.0
 10
-39.38091101427523
 20
8.703759191746673
 30
0.0
 10
-39.38091101427523
 20
19.90375600155518
 30
0.0
 10
-39.38091101427523
 20
19.90375600155518
 30
0.0
 10
-39.38091101427523
 20
19.90375600155518
 30
0.0
 10
-39.38091101427523
 20
31.10375711773304
 30
0.0
 10
-39.38091101427523
 20
31.10375711773304
 30
0.0
 10
-39.15999857265295
 20
31.10375711773304
 30
0.0
 10
-38.98091389659094
 20
31.28284179379504
 30
0.0
 10
-38.98091389659094
 20
31.50375423541733
 30
0.0
 10
-38.98091389659094
 20
31.72467098340898
 30
0.0
 10
-39.15999857265295
 20
31.90375565947098
 30
0.0
 10
-39.38091101427523
 20
31.90375565947098
 30
0.0
 10
-39.38091101427523
 20
31.90375565947098
 30
0.0
 10
-41.25146874224077
 20
31.90375565947098
 30
0.0
 10
-41.25146874224077
 20
31.90375565947098
 30
0.0
 10
-41.47238549023242
 20
31.90375565947098
 30
0.0
 10
-41.65147016629442
 20
31.72467098340898
 30
0.0
 10
-41.65147016629442
 20
31.50375423541733
 30
0.0
  0
SPLINE
  5
A5
330
A0
100
AcDbEntity
  8
0
 62
     7
100
AcDbSpline
210
0.0
220
0.0
230
1.0
 70
    11
 71
     3
 72
    47
 73
    43
 74
     0
 42
0.0000000001
 43
0.0000000001
 12
1.0
 22
0.0
 32
0.0
 13
1.0
 23
0.0
 33
0.0
 40
0.0
 40
0.0
 40
0.0
 40
0.0
 40
1.0
 40
1.0
 40
1.0
 40
2.0
 40
2.0
 40
2.0
 40
3.0
 40
3.0
 40
3.0
 40
4.0
 40
4.0
 40
4.0
 40
5.0
 40
5.0
 40
5.0
 40
6.0
 40
6.0
 40
6.0
 40
7.0
 40
7.0
 40
7.0
 40
8.0
 40
8.0
 40
8.0
 40
9.0
 40
9.0
 40
9.0
 40
10.0
 40
10.0
 40
10.0
 40
11.0
 40
11.0
 40
11.0
 40
12.0
 40
12.0
 40
12.0
 40
13.0
 40
13.0
 40
13.0
 40
14.0
 40
14.0
 40
14.0
 40
14.0
 10
-48.45146853699026
 20
31.50375423541733
 30
0.0
 10
-48.45146853699026
 20
31.28284179379504
 30
0.0
 10
-48.27238386092826
 20
31.10375711773304
 30
0.0
 10
-48.05146711293661
 20
31.10375711773304
 30
0.0
 10
-48.05146711293661
 20
31.10375711773304
 30
0.0
 10
-48.05146711293661
 20
19.90375600155518
 30
0.0
 10
-48.05146711293661
 20
19.90375600155518
 30
0.0
 10
-48.05146711293661
 20
19.90375600155518
 30
0.0
 10
-48.05146711293661
 20
8.703759191746673
 30
0.0
 10
-48.05146711293661
 20
8.703759191746673
 30
0.0
 10
-48.27238386092826
 20
8.703759191746673
 30
0.0
 10
-48.45146853699026
 20
8.524670209315317
 30
0.0
 10
-48.45146853699026
 20
8.303757767693028
 30
0.0
 10
-48.45146853699026
 20
8.082841019701382
 30
0.0
 10
-48.27238386092826
 20
7.903756343639382
 30
0.0
 10
-48.05146711293661
 20
7.903756343639382
 30
0.0
 10
-48.05146711293661
 20
7.903756343639382
 30
0.0
 10
-46.18091369134042
 20
7.903756343639382
 30
0.0
 10
-46.18091369134042
 20
7.903756343639382
 30
0.0
 10
-45.96000124971813
 20
7.903756343639382
 30
0.0
 10
-45.78091226728677
 20
8.082841019701382
 30
0.0
 10
-45.78091226728677
 20
8.303757767693028
 30
0.0
 10
-45.78091226728677
 20
8.524670209315317
 30
0.0
 10
-45.96000124971813
 20
8.703759191746673
 30
0.0
 10
-46.18091369134042
 20
8.703759191746673
 30
0.0
 10
-46.18091369134042
 20
8.703759191746673
 30
0.0
 10
-46.18091369134042
 20
19.90375600155518
 30
0.0
 10
-46.18091369134042
 20
19.90375600155518
 30
0.0
 10
-46.18091369134042
 20
19.90375600155518
 30
0.0
 10
-46.18091369134042
 20
31.10375711773304
 30
0.0
 10
-46.18091369134042
 20
31.10375711773304
 30
0.0
 10
-45.96000124971813
 20
31.10375711773304
 30
0.0
 10
-45.78091226728677
 20
31.28284179379504
 30
0.0
 10
-45.78091226728677
 20
31.50375423541733
 30
0.0
 10
-45.78091226728677
 20
31.72467098340898
 30
0.0
 10
-45.96000124971813
 20
31.90375565947098
 30
0.0
 10
-46.18091369134042
 20
31.90375565947098
 30
0.0
 10
-46.18091369134042
 20
31.90375565947098
 30
0.0
 10
-48.05146711293661
 20
31.90375565947098
 30
0.0
 10
-48.05146711293661
 20
31.90375565947098
 30
0.0
 10
-48.27238386092826
 20
31.90375565947098
 30
0.0
 10
-48.45146853699026
 20
31.72467098340898
 30
0.0
 10
-48.45146853699026
 20
31.50375423541733
 30
0.0
  0
SPLINE
  5
A6
330
A0
100
AcDbEntity
  8
0
 62
     7
100
AcDbSpline
210
0.0
220
0.0
230
1.0
 70
    11
 71
     3
 72
    47
 73
    43
 74
     0
 42
0.0000000001
 43
0.0000000001
 12
1.0
 22
0.0
 32
0.0
 13
1.0
 23
0.0
 33
0.0
 40
0.0
 40
0.0
 40
0.0
 40
0.0
 40
1.0
 40
1.0
 40
1.0
 40
2.0
 40
2.0
 40
2.0
 40
3.0
 40
3.0
 40
3.0
 40
4.0
 40
4.0
 40
4.0
 40
5.0
 40
5.0
 40
5.0
 40
6.0
 40
6.0
 40
6.0
 40
7.0
 40
7.0
 40
7.0
 40
8.0
 40
8.0
 40
8.0
 40
9.0
 40
9.0
 40
9.0
 40
10.0
 40
10.0
 40
10.0
 40
11.0
 40
11.0
 40
11.0
 40
12.0
 40
12.0
 40
12.0
 40
13.0
 40
13.0
 40
13.0
 40
14.0
 40
14.0
 40
14.0
 40
14.0
 10
-55.25146690768609
 20
31.50375423541733
 30
0.0
 10
-55.25146690768609
 20
31.28284179379504
 30
0.0
 10
-55.07238223162409
 20
31.10375711773304
 30
0.0
 10
-54.85146548363245
 20
31.10375711773304
 30
0.0
 10
-54.85146548363245
 20
31.10375711773304
 30
0.0
 10
-54.85146548363245
 20
19.90375600155518
 30
0.0
 10
-54.85146548363245
 20
19.90375600155518
 30
0.0
 10
-54.85146548363245
 20
19.90375600155518
 30
0.0
 10
-54.85146548363245
 20
8.703759191746673
 30
0.0
 10
-54.85146548363245
 20
8.703759191746673
 30
0.0
 10
-55.07238223162409
 20
8.703759191746673
 30
0.0
 10
-55.25146690768609
 20
8.524670209315317
 30
0.0
 10
-55.25146690768609
 20
8.303757767693028
 30
0.0
 10
-55.25146690768609
 20
8.082841019701382
 30
0.0
 10
-55.07238223162409
 20
7.903756343639382
 30
0.0
 10
-54.85146548363245
 20
7.903756343639382
 30
0.0
 10
-54.85146548363245
 20
7.903756343639382
 30
0.0
 10
-52.98091206203625
 20
7.903756343639382
 30
0.0
 10
-52.98091206203625
 20
7.903756343639382
 30
0.0
 10
-52.75999962041396
 20
7.903756343639382
 30
0.0
 10
-52.58091494435197
 20
8.082841019701382
 30
0.0
 10
-52.58091494435197
 20
8.303757767693028
 30
0.0
 10
-52.58091494435197
 20
8.524670209315317
 30
0.0
 10
-52.75999962041396
 20
8.703759191746673
 30
0.0
 10
-52.98091206203625
 20
8.703759191746673
 30
0.0
 10
-52.98091206203625
 20
8.703759191746673
 30
0.0
 10
-52.98091206203625
 20
19.90375600155518
 30
0.0
 10
-52.98091206203625
 20
19.90375600155518
 30
0.0
 10
-52.98091206203625
 20
19.90375600155518
 30
0.0
 10
-52.98091206203625
 20
31.10375711773304
 30
0.0
 10
-52.98091206203625
 20
31.10375711773304
 30
0.0
 10
-52.75999962041396
 20
31.10375711773304
 30
0.0
 10
-52.58091494435197
 20
31.28284179379504
 30
0.0
 10
-52.58091494435197
 20
31.50375423541733
 30
0.0
 10
-52.58091494435197
 20
31.72467098340898
 30
0.0
 10
-52.75999962041396
 20
31.90375565947098
 30
0.0
 10
-52.98091206203625
 20
31.90375565947098
 30
0.0
 10
-52.98091206203625
 20
31.90375565947098
 30
0.0
 10
-54.85146548363245
 20
31.90375565947098
 30
0.0
 10
-54.85146548363245
 20
31.90375565947098
 30
0.0
 10
-55.07238223162409
 20
31.90375565947098
 30
0.0
 10
-55.25146690768609
 20
31.72467098340898
 30
0.0
 10
-55.25146690768609
 20
31.50375423541733
 30
0.0
  0
SPLINE
  5
A7
330
A0
100
AcDbEntity
  8
0
 62
     7
100
AcDbSpline
210
0.0
220
0.0
230
1.0
 70
    11
 71
     3
 72
    41
 73
    37
 74
     0
 42
0.0000000001
 43
0.0000000001
 12
1.0
 22
0.0
 32
0.0
 13
1.0
 23
0.0
 33
0.0
 40
0.0
 40
0.0
 40
0.0
 40
0.0
 40
1.0
 40
1.0
 40
1.0
 40
2.0
 40
2.0
 40
2.0
 40
3.0
 40
3.0
 40
3.0
 40
4.0
 40
4.0
 40
4.0
 40
5.0
 40
5.0
 40
5.0
 40
6.0
 40
6.0
 40
6.0
 40
7.0
 40
7.0
 40
7.0
 40
8.0
 40
8.0
 40
8.0
 40
9.0
 40
9.0
 40
9.0
 40
10.0
 40
10.0
 40
10.0
 40
11.0
 40
11.0
 40
11.0
 40
12.0
 40
12.0
 40
12.0
 40
12.0
 10
-30.18091271199624
 20
32.50375348918209
 30
0.0
 10
-30.18091271199624
 20
32.28284535392915
 30
0.0
 10
-30.00182803593424
 20
32.1037563714978
 30
0.0
 10
-29.78091128794259
 20
32.1037563714978
 30
0.0
 10
-29.78091128794259
 20
32.1037563714978
 30
0.0
 10
-29.78091128794259
 20
31.90375565947098
 30
0.0
 10
-29.78091128794259
 20
31.90375565947098
 30
0.0
 10
-30.00182803593424
 20
31.90375565947098
 30
0.0
 10
-30.18091271199624
 20
31.72467098340898
 30
0.0
 10
-30.18091271199624
 20
31.50375423541733
 30
0.0
 10
-30.18091271199624
 20
31.28284179379504
 30
0.0
 10
-30.00182803593424
 20
31.10375711773304
 30
0.0
 10
-29.78091128794259
 20
31.10375711773304
 30
0.0
 10
-29.78091128794259
 20
31.10375711773304
 30
0.0
 10
-24.78091286593413
 20
31.10375711773304
 30
0.0
 10
-24.78091286593413
 20
31.10375711773304
 30
0.0
 10
-24.55999827112716
 20
31.10375711773304
 30
0.0
 10
-24.38091359506516
 20
31.28284179379504
 30
0.0
 10
-24.38091359506516
 20
31.50375423541733
 30
0.0
 10
-24.38091359506516
 20
31.72467098340898
 30
0.0
 10
-24.55999827112716
 20
31.90375565947098
 30
0.0
 10
-24.78091286593413
 20
31.90375565947098
 30
0.0
 10
-24.78091286593413
 20
31.90375565947098
 30
0.0
 10
-24.78091286593413
 20
32.1037563714978
 30
0.0
 10
-24.78091286593413
 20
32.1037563714978
 30
0.0
 10
-24.55999827112716
 20
32.1037563714978
 30
0.0
 10
-24.38091359506516
 20
32.28284535392915
 30
0.0
 10
-24.38091359506516
 20
32.50375348918209
 30
0.0
 10
-24.38091359506516
 20
32.72467023717373
 30
0.0
 10
-24.55999827112716
 20
32.90375491323574
 30
0.0
 10
-24.78091286593413
 20
32.90375491323574
 30
0.0
 10
-24.78091286593413
 20
32.90375491323574
 30
0.0
 10
-29.78091128794259
 20
32.90375491323574
 30
0.0
 10
-29.78091128794259
 20
32.90375491323574
 30
0.0
 10
-30.00182803593424
 20
32.90375491323574
 30
0.0
 10
-30.18091271199624
 20
32.72467023717373
 30
0.0
 10
-30.18091271199624
 20
32.50375348918209
 30
0.0
  0
SPLINE
  5
A8
330
A0
100
AcDbEntity
  8
0
 62
     7
100
AcDbSpline
210
0.0
220
0.0
230
1.0
 70
    11
 71
     3
 72
    41
 73
    37
 74
     0
 42
0.0000000001
 43
0.0000000001
 12
1.0
 22
0.0
 32
0.0
 13
1.0
 23
0.0
 33
0.0
 40
0.0
 40
0.0
 40
0.0
 40
0.0
 40
1.0
 40
1.0
 40
1.0
 40
2.0
 40
2.0
 40
2.0
 40
3.0
 40
3.0
 40
3.0
 40
4.0
 40
4.0
 40
4.0
 40
5.0
 40
5.0
 40
5.0
 40
6.0
 40
6.0
 40
6.0
 40
7.0
 40
7.0
 40
7.0
 40
8.0
 40
8.0
 40
8.0
 40
9.0
 40
9.0
 40
9.0
 40
10.0
 40
10.0
 40
10.0
 40
11.0
 40
11.0
 40
11.0
 40
12.0
 40
12.0
 40
12.0
 40
12.0
 10
-15.18091313960149
 20
32.50375348918209
 30
0.0
 10
-15.18091313960149
 20
32.28284535392915
 30
0.0
 10
-15.00182631035481
 20
32.1037563714978
 30
0.0
 10
-14.78091386873252
 20
32.1037563714978
 30
0.0
 10
-14.78091386873252
 20
32.1037563714978
 30
0.0
 10
-14.78091386873252
 20
31.90375565947098
 30
0.0
 10
-14.78091386873252
 20
31.90375565947098
 30
0.0
 10
-15.00182631035481
 20
31.90375565947098
 30
0.0
 10
-15.18091313960149
 20
31.72467098340898
 30
0.0
 10
-15.18091313960149
 20
31.50375423541733
 30
0.0
 10
-15.18091313960149
 20
31.28284179379504
 30
0.0
 10
-15.00182631035481
 20
31.10375711773304
 30
0.0
 10
-14.78091386873252
 20
31.10375711773304
 30
0.0
 10
-14.78091386873252
 20
31.10375711773304
 30
0.0
 10
-9.780913293539383
 20
31.10375711773304
 30
0.0
 10
-9.780913293539383
 20
31.10375711773304
 30
0.0
 10
-9.559998698732414
 20
31.10375711773304
 30
0.0
 10
-9.380914022670416
 20
31.28284179379504
 30
0.0
 10
-9.380914022670416
 20
31.50375423541733
 30
0.0
 10
-9.380914022670416
 20
31.72467098340898
 30
0.0
 10
-9.559998698732414
 20
31.90375565947098
 30
0.0
 10
-9.780913293539383
 20
31.90375565947098
 30
0.0
 10
-9.780913293539383
 20
31.90375565947098
 30
0.0
 10
-9.780913293539383
 20
32.1037563714978
 30
0.0
 10
-9.780913293539383
 20
32.1037563714978
 30
0.0
 10
-9.559998698732414
 20
32.1037563714978
 30
0.0
 10
-9.380914022670416
 20
32.28284535392915
 30
0.0
 10
-9.380914022670416
 20
32.50375348918209
 30
0.0
 10
-9.380914022670416
 20
32.72467023717373
 30
0.0
 10
-9.559998698732414
 20
32.90375491323574
 30
0.0
 10
-9.780913293539383
 20
32.90375491323574
 30
0.0
 10
-9.780913293539383
 20
32.90375491323574
 30
0.0
 10
-14.78091386873252
 20
32.90375491323574
 30
0.0
 10
-14.78091386873252
 20
32.90375491323574
 30
0.0
 10
-15.00182631035481
 20
32.90375491323574
 30
0.0
 10
-15.18091313960149
 20
32.72467023717373
 30
0.0
 10
-15.18091313960149
 20
32.50375348918209
 30
0.0
  0
INSERT
  5
AA
330
A0
100
AcDbEntity
  8
0
100
AcDbBlockReference
  2
BLOCK_18
 10
0.0
 20
0.0
 30
0.0
  0
INSERT
  5
AF
330
A0
100
AcDbEntity
  8
0
100
AcDbBlockReference
  2
BLOCK_19
 10
0.0
 20
0.0
 30
0.0
  0
INSERT
  5
B4
330
A0
100
AcDbEntity
  8
0
100
AcDbBlockReference
  2
BLOCK_20
 10
0.0
 20
0.0
 30
0.0
  0
SPLINE
  5
B8
330
A0
100
AcDbEntity
  8
0
 62
     7
100
AcDbSpline
210
0.0
220
0.0
230
1.0
 70
    11
 71
     3
 72
   212
 73
   208
 74
     0
 42
0.0000000001
 43
0.0000000001
 12
1.0
 22
0.0
 32
0.0
 13
1.0
 23
0.0
 33
0.0
 40
0.0
 40
0.0
 40
0.0
 40
0.0
 40
1.0
 40
1.0
 40
1.0
 40
2.0
 40
2.0
 40
2.0
 40
3.0
 40
3.0
 40
3.0
 40
4.0
 40
4.0
 40
4.0
 40
5.0
 40
5.0
 40
5.0
 40
6.0
 40
6.0
 40
6.0
 40
7.0
 40
7.0
 40
7.0
 40
8.0
 40
8.0
 40
8.0
 40
9.0
 40
9.0
 40
9.0
 40
10.0
 40
10.0
 40
10.0
 40
11.0
 40
11.0
 40
11.0
 40
12.0
 40
12.0
 40
12.0
 40
13.0
 40
13.0
 40
13.0
 40
14.0
 40
14.0
 40
14.0
 40
15.0
 40
15.0
 40
15.0
 40
16.0
 40
16.0
 40
16.0
 40
17.0
 40
17.0
 40
17.0
 40
18.0
 40
18.0
 40
18.0
 40
19.0
 40
19.0
 40
19.0
 40
20.0
 40
20.0
 40
20.0
 40
21.0
 40
21.0
 40
21.0
 40
22.0
 40
22.0
 40
22.0
 40
23.0
 40
23.0
 40
23.0
 40
24.0
 40
24.0
 40
24.0
 40
25.0
 40
25.0
 40
25.0
 40
26.0
 40
26.0
 40
26.0
 40
27.0
 40
27.0
 40
27.0
 40
28.0
 40
28.0
 40
28.0
 40
29.0
 40
29.0
 40
29.0
 40
30.0
 40
30.0
 40
30.0
 40
31.0
 40
31.0
 40
31.0
 40
32.0
 40
32.0
 40
32.0
 40
33.0
 40
33.0
 40
33.0
 40
34.0
 40
34.0
 40
34.0
 40
35.0
 40
35.0
 40
35.0
 40
36.0
 40
36.0
 40
36.0
 40
37.0
 40
37.0
 40
37.0
 40
38.0
 40
38.0
 40
38.0
 40
39.0
 40
39.0
 40
39.0
 40
40.0
 40
40.0
 40
40.0
 40
41.0
 40
41.0
 40
41.0
 40
42.0
 40
42.0
 40
42.0
 40
43.0
 40
43.0
 40
43.0
 40
44.0
 40
44.0
 40
44.0
 40
45.0
 40
45.0
 40
45.0
 40
46.0
 40
46.0
 40
46.0
 40
47.0
 40
47.0
 40
47.0
 40
48.0
 40
48.0
 40
48.0
 40
49.0
 40
49.0
 40
49.0
 40
50.0
 40
50.0
 40
50.0
 40
51.0
 40
51.0
 40
51.0
 40
52.0
 40
52.0
 40
52.0
 40
53.0
 40
53.0
 40
53.0
 40
54.0
 40
54.0
 40
54.0
 40
55.0
 40
55.0
 40
55.0
 40
56.0
 40
56.0
 40
56.0
 40
57.0
 40
57.0
 40
57.0
 40
58.0
 40
58.0
 40
58.0
 40
59.0
 40
59.0
 40
59.0
 40
60.0
 40
60.0
 40
60.0
 40
61.0
 40
61.0
 40
61.0
 40
62.0
 40
62.0
 40
62.0
 40
63.0
 40
63.0
 40
63.0
 40
64.0
 40
64.0
 40
64.0
 40
65.0
 40
65.0
 40
65.0
 40
66.0
 40
66.0
 40
66.0
 40
67.0
 40
67.0
 40
67.0
 40
68.0
 40
68.0
 40
68.0
 40
69.0
 40
69.0
 40
69.0
 40
69.0
 10
-57.78091623157193
 20
33.9025742217968
 30
0.0
 10
-57.78091623157193
 20
33.9025742217968
 30
0.0
 10
-57.78091623157193
 20
5.90493347494421
 30
0.0
 10
-57.78091623157193
 20
5.90493347494421
 30
0.0
 10
-57.78091623157193
 20
5.351998660677178
 30
0.0
 10
-57.33267400005519
 20
4.903756429160433
 30
0.0
 10
-56.77973918578815
 20
4.903756429160433
 30
0.0
 10
-56.77973918578815
 20
4.903756429160433
 30
0.0
 10
-37.91640522986489
 20
4.903756429160433
 30
0.0
 10
-37.91640522986489
 20
4.903756429160433
 30
0.0
 10
-37.82767248927291
 20
4.903756429160433
 30
0.0
 10
-37.74052449260417
 20
4.880196282410681
 30
0.0
 10
-37.66387542442671
 20
4.835485402566173
 30
0.0
 10
-37.66387542442671
 20
4.835485402566173
 30
0.0
 10
-36.76198423031421
 20
4.309737982795589
 30
0.0
 10
-35.96713015167513
 20
3.846546027159542
 30
0.0
 10
-35.45021526572148
 20
3.545319898544528
 30
0.0
 10
-34.80149633995272
 20
3.918281751474364
 30
0.0
 10
-34.80149636489489
 20
4.516561100842843
 30
0.0
 10
-34.80149636489489
 20
4.516561100842843
 30
0.0
 10
-34.80149651426031
 20
8.099341100397336
 30
0.0
 10
-34.80149651426031
 20
8.099341100397336
 30
0.0
 10
-34.8014965234421
 20
8.319581815888002
 30
0.0
 10
-34.62919370550669
 20
8.508509045545342
 30
0.0
 10
-34.40898986420863
 20
8.512539062597915
 30
0.0
 10
-34.18464733327705
 20
8.516644823060362
 30
0.0
 10
-34.00149776692217
 20
8.336016525099781
 30
0.0
 10
-34.00149776692217
 20
8.11260664469394
 30
0.0
 10
-34.00149776692217
 20
8.11260664469394
 30
0.0
 10
-33.78149396923411
 20
8.11260664469394
 30
0.0
 10
-33.78149396923411
 20
8.11260664469394
 30
0.0
 10
-33.78149396923411
 20
8.336013397536759
 30
0.0
 10
-33.59834953074384
 20
8.516639765742962
 30
0.0
 10
-33.37400684027806
 20
8.512539233970317
 30
0.0
 10
-33.15380213013669
 20
8.508514336129585
 30
0.0
 10
-32.98149521234264
 20
8.31958903856446
 30
0.0
 10
-32.98149521996882
 20
8.099347547988561
 30
0.0
 10
-32.98149521996882
 20
8.099347547988561
 30
0.0
 10
-32.98149541207589
 20
2.55136270747618
 30
0.0
 10
-32.98149541207589
 20
2.55136270747618
 30
0.0
 10
-32.98149542162466
 20
2.275598150293768
 30
0.0
 10
-32.83503094782301
 20
2.020584058032805
 30
0.0
 10
-32.59683793777684
 20
1.881622980881226
 30
0.0
 10
-32.59683793777684
 20
1.881622980881226
 30
0.0
 10
-29.16708260281764
 20
-0.1192858435207951
 30
0.0
 10
-29.16708260281764
 20
-0.1192858435207951
 30
0.0
 10
-28.65016948122471
 20
-0.420851385500377
 30
0.0
 10
-28.00097689851151
 20
-0.0479948991502129
 30
0.0
 10
-28.00097692338556
 20
0.550453888453522
 30
0.0
 10
-28.00097692338556
 20
0.550453888453522
 30
0.0
 10
-28.00097707233864
 20
4.134139937786163
 30
0.0
 10
-28.00097707233864
 20
4.134139937786163
 30
0.0
 10
-28.0009770814926
 20
4.354376949991567
 30
0.0
 10
-27.82868100082734
 20
4.543303702810499
 30
0.0
 10
-27.60848096875479
 20
4.547339470445549
 30
0.0
 10
-27.38413811704819
 20
4.551451166577203
 30
0.0
 10
-27.20097832553419
 20
4.370820653497142
 30
0.0
 10
-27.20097832553419
 20
4.147409400405293
 30
0.0
 10
-27.20097832553419
 20
4.147409400405293
 30
0.0
 10
-26.9809788342155
 20
4.147409400405293
 30
0.0
 10
-26.9809788342155
 20
4.147409400405293
 30
0.0
 10
-26.9809788342155
 20
4.370816158488609
 30
0.0
 10
-26.79782861497435
 20
4.551443898029852
 30
0.0
 10
-26.57348520411367
 20
4.547339716881017
 30
0.0
 10
-26.35328164624214
 20
4.543311270992414
 30
0.0
 10
-26.18097792443469
 20
4.354385270657882
 30
0.0
 10
-26.18097793204767
 20
4.134144867290205
 30
0.0
 10
-26.18097793204767
 20
4.134144867290205
 30
0.0
 10
-26.18097812389923
 20
-1.416039328674526
 30
0.0
 10
-26.18097812389923
 20
-1.416039328674526
 30
0.0
 10
-26.18097813343151
 20
-1.691803923041408
 30
0.0
 10
-26.03451362044251
 20
-1.946818043843026
 30
0.0
 10
-25.79632055960554
 20
-2.085779107725745
 30
0.0
 10
-25.79632055960554
 20
-2.085779107725745
 30
0.0
 10
-22.36656737790828
 20
-4.086686058200499
 30
0.0
 10
-22.36656737790828
 20
-4.086686058200499
 30
0.0
 10
-21.84965425582018
 20
-4.388251507369609
 30
0.0
 10
-21.20046176355071
 20
-4.015395014927026
 30
0.0
 10
-21.20046178847083
 20
-3.416946273663972
 30
0.0
 10
-21.20046178847083
 20
-3.416946273663972
 30
0.0
 10
-21.20046193779125
 20
0.1689422452396769
 30
0.0
 10
-21.20046193779125
 20
0.1689422452396769
 30
0.0
 10
-21.20046194696228
 20
0.3891822611572379
 30
0.0
 10
-21.02816027533587
 20
0.5781092280564669
 30
0.0
 10
-20.80795715182278
 20
0.5821402336958214
 30
0.0
 10
-20.58361382070158
 20
0.5862470293600576
 30
0.0
 10
-20.40046103733089
 20
0.4056183248732532
 30
0.0
 10
-20.40046103733089
 20
0.1822100029319659
 30
0.0
 10
-20.40046103733089
 20
0.1822100029319659
 30
0.0
 10
-20.18046154601219
 20
0.1822100029319659
 30
0.0
 10
-20.18046154601219
 20
0.1822100029319659
 30
0.0
 10
-20.18046154601219
 20
0.4056167610152189
 30
0.0
 10
-19.99731132677115
 20
0.5862445005563974
 30
0.0
 10
-19.7729679159105
 20
0.5821403194076904
 30
0.0
 10
-19.55276435803942
 20
0.5781118735192157
 30
0.0
 10
-19.38046063623155
 20
0.3891858731863519
 30
0.0
 10
-19.38046064384184
 20
0.1689454698191246
 30
0.0
 10
-19.38046064384184
 20
0.1689454698191246
 30
0.0
 10
-19.38046083570138
 20
-5.383439368808048
 30
0.0
 10
-19.38046083570138
 20
-5.383439368808048
 30
0.0
 10
-19.38046084523029
 20
-5.65920391596494
 30
0.0
 10
-19.23399638197166
 20
-5.914218000518006
 30
0.0
 10
-18.99580338560721
 20
-6.053179081226074
 30
0.0
 10
-18.99580338560721
 20
-6.053179081226074
 30
0.0
 10
-15.56701913699182
 20
-8.053521542905253
 30
0.0
 10
-15.56701913699182
 20
-8.053521542905253
 30
0.0
 10
-15.05010601550692
 20
-8.355087109861815
 30
0.0
 10
-14.40091340844269
 20
-7.982230625099214
 30
0.0
 10
-14.40091343335486
 20
-7.383781825002561
 30
0.0
 10
-14.40091343335486
 20
-7.383781825002561
 30
0.0
 10
-14.40091358269587
 20
-3.796257152231275
 30
0.0
 10
-14.40091358269587
 20
-3.796257152231275
 30
0.0
 10
-14.40091359186408
 20
-3.576017136314164
 30
0.0
 10
-14.22861192023715
 20
-3.387090169416731
 30
0.0
 10
-14.00840879672458
 20
-3.383059163777505
 30
0.0
 10
-13.78406546560344
 20
-3.378952368113333
 30
0.0
 10
-13.60091268223282
 20
-3.559581072600138
 30
0.0
 10
-13.60091268223282
 20
-3.782989394541361
 30
0.0
 10
-13.60091268223282
 20
-3.782989394541361
 30
0.0
 10
-13.38091319091412
 20
-3.782989394541361
 30
0.0
 10
-13.38091319091412
 20
-3.782989394541361
 30
0.0
 10
-13.38091319091412
 20
-3.559582636458172
 30
0.0
 10
-13.19776297167314
 20
-3.378954896916993
 30
0.0
 10
-12.97341956081262
 20
-3.383059078065636
 30
0.0
 10
-12.75321600294186
 20
-3.387087523954111
 30
0.0
 10
-12.5809122811336
 20
-3.576013524285627
 30
0.0
 10
-12.58091228874191
 20
-3.796253927652534
 30
0.0
 10
-12.58091228874191
 20
-3.796253927652534
 30
0.0
 10
-12.58091248060742
 20
-9.350275246379692
 30
0.0
 10
-12.58091248060742
 20
-9.350275246379692
 30
0.0
 10
-12.58091249013376
 20
-9.62603976145638
 30
0.0
 10
-12.43444806066777
 20
-9.881053821377572
 30
0.0
 10
-12.19625510811372
 20
-10.02001491351873
 30
0.0
 10
-12.19625510811372
 20
-10.02001491351873
 30
0.0
 10
-8.765530840068866
 20
-12.0214897095218
 30
0.0
 10
-8.765530840068866
 20
-12.0214897095218
 30
0.0
 10
-8.248617718997862
 20
-12.32305535651466
 30
0.0
 10
-7.599425033932608
 20
-11.95019887697883
 30
0.0
 10
-7.599425058831429
 20
-11.35175003690837
 30
0.0
 10
-7.599425058831429
 20
-11.35175003690837
 30
0.0
 10
-7.599425208207286
 20
-7.761456549700495
 30
0.0
 10
-7.599425208207286
 20
-7.761456549700495
 30
0.0
 10
-7.599425217370492
 20
-7.541216533784217
 30
0.0
 10
-7.427123545742793
 20
-7.352289566889866
 30
0.0
 10
-7.206920422230987
 20
-7.348258561250832
 30
0.0
 10
-6.982577091110044
 20
-7.344151765586917
 30
0.0
 10
-6.799424307739616
 20
-7.524780470073592
 30
0.0
 10
-6.799424307739616
 20
-7.748188792014687
 30
0.0
 10
-6.799424307739616
 20
-7.748188792014687
 30
0.0
 10
-6.579424816420918
 20
-7.748188792014687
 30
0.0
 10
-6.579424816420918
 20
-7.748188792014687
 30
0.0
 10
-6.579424816420918
 20
-7.524782033931563
 30
0.0
 10
-6.396274597180068
 20
-7.344154294390385
 30
0.0
 10
-6.171931186319613
 20
-7.348258475538962
 30
0.0
 10
-5.951727628449427
 20
-7.352286921427309
 30
0.0
 10
-5.779423906640655
 20
-7.541212921756708
 30
0.0
 10
-5.779423914245558
 20
-7.761453325123036
 30
0.0
 10
-5.779423914245558
 20
-7.761453325123036
 30
0.0
 10
-5.779424106121015
 20
-13.3182434661184
 30
0.0
 10
-5.779424106121015
 20
-13.3182434661184
 30
0.0
 10
-5.779424115643187
 20
-13.59400807421514
 30
0.0
 10
-5.632959588181087
 20
-13.84902220555294
 30
0.0
 10
-5.394766508588148
 20
-13.98798326453269
 30
0.0
 10
-5.394766508588148
 20
-13.98798326453269
 30
0.0
 10
-2.543361958000681
 20
-15.65148329823114
 30
0.0
 10
-2.543361958000681
 20
-15.65148329823114
 30
0.0
 10
-2.371346187237478
 20
-15.75182385742372
 30
0.0
 10
-2.153730271357637
 20
-15.74990967624472
 30
0.0
 10
-1.991797864442825
 20
-15.63399728545882
 30
0.0
 10
-1.855757503284344
 20
-15.53661735519887
 30
0.0
 10
-1.780912803867291
 20
-15.38369817934735
 30
0.0
 10
-1.780912803867291
 20
-15.22572547905589
 30
0.0
 10
-1.780912803867291
 20
-15.22572547905589
 30
0.0
 10
-1.780912803867291
 20
-2.159832902298346
 30
0.0
 10
-1.780912803867291
 20
-2.159832902298346
 30
0.0
 10
-1.780912803867291
 20
-1.856973981710974
 30
0.0
 10
-1.941775238694736
 20
-1.576906572174918
 30
0.0
 10
-2.203378403669444
 20
-1.42430477056506
 30
0.0
 10
-2.203378403669444
 20
-1.42430477056506
 30
0.0
 10
-9.56644185944091
 20
2.870814322611155
 30
0.0
 10
-9.56644185944091
 20
2.870814322611155
 30
0.0
 10
-9.885017079849455
 20
3.056649813505537
 30
0.0
 10
-10.08091220839494
 20
3.397710429996379
 30
0.0
 10
-10.08091220839494
 20
3.766526103110106
 30
0.0
 10
-10.08091220839494
 20
3.766526103110106
 30
0.0
 10
-10.08091220839494
 20
25.57672583520638
 30
0.0
 10
-10.08091220839494
 20
25.57672583520638
 30
0.0
 10
-10.08091220839494
 20
26.04762732434647
 30
0.0
 10
-9.763610301464716
 20
26.45941097495967
 30
0.0
 10
-9.308259112071175
 20
26.57943810166577
 30
0.0
 10
-9.308259112071175
 20
26.57943810166577
 30
0.0
 10
-2.415389579831719
 20
28.39637715421718
 30
0.0
 10
-2.415389579831719
 20
28.39637715421718
 30
0.0
 10
-2.041471357203891
 20
28.49494083919275
 30
0.0
 10
-1.780912803867291
 20
28.83308204921362
 30
0.0
 10
-1.780912803867291
 20
29.21977267129948
 30
0.0
 10
-1.780912803867291
 20
29.21977267129948
 30
0.0
 10
-1.780912803867291
 20
33.90258283453551
 30
0.0
 10
-1.780912803867291
 20
33.90258283453551
 30
0.0
 10
-1.780912803867291
 20
34.45551408128937
 30
0.0
 10
-2.22915214334317
 20
34.90375342076525
 30
0.0
 10
-2.782083390097033
 20
34.90375342076525
 30
0.0
 10
-2.782083390097033
 20
34.90375342076525
 30
0.0
 10
-56.77973703260348
 20
34.90375342076525
 30
0.0
 10
-56.77973703260348
 20
34.90375342076525
 30
0.0
 10
-57.33267303604156
 20
34.90375342076525
 30
0.0
 10
-57.78091623157193
 20
34.45551022523488
 30
0.0
 10
-57.78091623157193
 20
33.9025742217968
 30
0.0
  0
ENDBLK
  5
A3
330
A0
100
AcDbEntity
  8
0
100
AcDbBlockEnd
  0
BLOCK
  5
AB
330
A9
100
AcDbEntity
  8
0
100
AcDbBlockBegin
  2
BLOCK_18
 70
     0
 10
0.0
 20
0.0
 30
0.0
  3
BLOCK_18
  1

  0
SPLINE
  5
AD
330
A9
100
AcDbEntity
  8
0
 62
     7
100
AcDbSpline
210
0.0
220
0.0
230
1.0
 70
     8
 71
     3
 72
    38
 73
    34
 74
     0
 42
0.0000000001
 43
0.0000000001
 12
1.0
 22
0.0
 32
0.0
 13
1.0
 23
0.0
 33
0.0
 40
0.0
 40
0.0
 40
0.0
 40
0.0
 40
1.0
 40
1.0
 40
1.0
 40
2.0
 40
2.0
 40
2.0
 40
3.0
 40
3.0
 40
3.0
 40
4.0
 40
4.0
 40
4.0
 40
5.0
 40
5.0
 40
5.0
 40
6.0
 40
6.0
 40
6.0
 40
7.0
 40
7.0
 40
7.0
 40
8.0
 40
8.0
 40
8.0
 40
9.0
 40
9.0
 40
9.0
 40
10.0
 40
10.0
 40
10.0
 40
11.0
 40
11.0
 40
11.0
 40
11.0
 10
-25.07386423890162
 20
6.829569311025455
 30
0.0
 10
-23.53644251527383
 20
6.513881486335923
 30
0.0
 10
-21.94258409307965
 20
6.932537558886212
 30
0.0
 10
-20.76002931660613
 20
7.956326932515328
 30
0.0
 10
-20.69467770635111
 20
8.012904678814909
 30
0.0
 10
-20.66582721576613
 20
8.100794851318662
 30
0.0
 10
-20.68464832510811
 20
8.185160959338454
 30
0.0
 10
-20.82593219801839
 20
8.818469563352293
 30
0.0
 10
-20.95238164732203
 20
9.454967822618208
 30
0.0
 10
-21.06389686647175
 20
10.09413309594155
 30
0.0
 10
-21.10086966440406
 20
10.30604792403496
 30
0.0
 10
-21.38015956445813
 20
10.36076581230452
 30
0.0
 10
-21.49348127051045
 20
10.17791868191908
 30
0.0
 10
-21.78924870113094
 20
9.70069125714433
 30
0.0
 10
-22.21392528041856
 20
9.312964906889652
 30
0.0
 10
-22.72132686181975
 20
9.062056719644882
 30
0.0
 10
-22.87807352047632
 20
8.984546082268508
 30
0.0
 10
-23.06190021362277
 20
9.096825368405982
 30
0.0
 10
-23.06190021362483
 20
9.271689355282897
 30
0.0
 10
-23.06190021362483
 20
9.271689355282897
 30
0.0
 10
-23.06190021365216
 20
11.54610616841603
 30
0.0
 10
-23.06190021365216
 20
11.54610616841603
 30
0.0
 10
-23.0619002136537
 20
11.67570624281302
 30
0.0
 10
-23.16696183222748
 20
11.78076786138552
 30
0.0
 10
-23.29656190662448
 20
11.78076786138552
 30
0.0
 10
-23.29656190662448
 20
11.78076786138552
 30
0.0
 10
-24.83920254588317
 20
11.78076786138552
 30
0.0
 10
-24.83920254588317
 20
11.78076786138552
 30
0.0
 10
-24.96880262028126
 20
11.78076786138552
 30
0.0
 10
-25.07386423885548
 20
11.67570624281129
 30
0.0
 10
-25.07386423885548
 20
11.54610616841321
 30
0.0
 10
-25.07386423885548
 20
11.54610616841321
 30
0.0
 10
-25.07386423885542
 20
6.828668642422513
 30
0.0
 10
-25.07386423885542
 20
6.828668642422513
 30
0.0
  0
ENDBLK
  5
AC
330
A9
100
AcDbEntity
  8
0
100
AcDbBlockEnd
  0
BLOCK
  5
B0
330
AE
100
AcDbEntity
  8
0
100
AcDbBlockBegin
  2
BLOCK_19
 70
     0
 10
0.0
 20
0.0
 30
0.0
  3
BLOCK_19
  1

  0
SPLINE
  5
B2
330
AE
100
AcDbEntity
  8
0
 62
     7
100
AcDbSpline
210
0.0
220
0.0
230
1.0
 70
     8
 71
     3
 72
    74
 73
    70
 74
     0
 42
0.0000000001
 43
0.0000000001
 12
1.0
 22
0.0
 32
0.0
 13
1.0
 23
0.0
 33
0.0
 40
0.0
 40
0.0
 40
0.0
 40
0.0
 40
1.0
 40
1.0
 40
1.0
 40
2.0
 40
2.0
 40
2.0
 40
3.0
 40
3.0
 40
3.0
 40
4.0
 40
4.0
 40
4.0
 40
5.0
 40
5.0
 40
5.0
 40
6.0
 40
6.0
 40
6.0
 40
7.0
 40
7.0
 40
7.0
 40
8.0
 40
8.0
 40
8.0
 40
9.0
 40
9.0
 40
9.0
 40
10.0
 40
10.0
 40
10.0
 40
11.0
 40
11.0
 40
11.0
 40
12.0
 40
12.0
 40
12.0
 40
13.0
 40
13.0
 40
13.0
 40
14.0
 40
14.0
 40
14.0
 40
15.0
 40
15.0
 40
15.0
 40
16.0
 40
16.0
 40
16.0
 40
17.0
 40
17.0
 40
17.0
 40
18.0
 40
18.0
 40
18.0
 40
19.0
 40
19.0
 40
19.0
 40
20.0
 40
20.0
 40
20.0
 40
21.0
 40
21.0
 40
21.0
 40
22.0
 40
22.0
 40
22.0
 40
23.0
 40
23.0
 40
23.0
 40
23.0
 10
-25.99848703270901
 20
19.3027501476334
 30
0.0
 10
-25.99848703270901
 20
19.3027501476334
 30
0.0
 10
-23.18638758828897
 20
22.11191121875732
 30
0.0
 10
-23.18638758828897
 20
22.11191121875732
 30
0.0
 10
-23.06908241321943
 20
22.22909382120779
 30
0.0
 10
-23.06908241321943
 20
22.41921440034636
 30
0.0
 10
-23.18638758828897
 20
22.53639700279683
 30
0.0
 10
-23.18638758828897
 20
22.53639700279683
 30
0.0
 10
-25.99711990430555
 20
25.3441923740349
 30
0.0
 10
-25.99711990430555
 20
25.3441923740349
 30
0.0
 10
-25.99711990430555
 20
25.3441923740349
 30
0.0
 10
-21.27404263491549
 20
25.34419239582687
 30
0.0
 10
-21.27404263491549
 20
25.34419239582687
 30
0.0
 10
-21.12926927144918
 20
25.34419239649488
 30
0.0
 10
-21.0056301708459
 20
25.44767294998839
 30
0.0
 10
-20.97911267584266
 20
25.58999704924114
 30
0.0
 10
-20.88886494291127
 20
26.07437263967678
 30
0.0
 10
-20.79002421209006
 20
26.55710558320067
 30
0.0
 10
-20.68263744365925
 20
27.03796766948968
 30
0.0
 10
-20.64585449105026
 20
27.20267629784206
 30
0.0
 10
-20.77164703921243
 20
27.35888643973624
 30
0.0
 10
-20.94041290618906
 20
27.35888643964037
 30
0.0
 10
-20.94041290618906
 20
27.35888643964037
 30
0.0
 10
-28.36056919408404
 20
27.35888643542389
 30
0.0
 10
-28.36056919408404
 20
27.35888643542389
 30
0.0
 10
-28.52625461902576
 20
27.35888643532976
 30
0.0
 10
-28.66056919402049
 20
27.22457186025869
 30
0.0
 10
-28.66056919402049
 20
27.05888643531697
 30
0.0
 10
-28.66056919402049
 20
27.05888643531697
 30
0.0
 10
-28.66056919402049
 20
25.07928464500222
 30
0.0
 10
-28.66056919402049
 20
25.07928464500222
 30
0.0
 10
-28.66056919402049
 20
24.99966535594378
 30
0.0
 10
-28.62891907330019
 20
24.92331165543028
 30
0.0
 10
-28.57259031271837
 20
24.86704175298247
 30
0.0
 10
-28.57259031271837
 20
24.86704175298247
 30
0.0
 10
-26.23950170092472
 20
22.53639099426224
 30
0.0
 10
-26.23950170092472
 20
22.53639099426224
 30
0.0
 10
-26.12219652585517
 20
22.41920839181177
 30
0.0
 10
-26.12219652585517
 20
22.22908781267315
 30
0.0
 10
-26.23950170092472
 20
22.11190521022267
 30
0.0
 10
-26.23950170092472
 20
22.11190521022267
 30
0.0
 10
-28.57259031271834
 20
19.78125445150297
 30
0.0
 10
-28.57259031271834
 20
19.78125445150297
 30
0.0
 10
-28.62891907330015
 20
19.72498454905515
 30
0.0
 10
-28.66056919402046
 20
19.64863084854171
 30
0.0
 10
-28.66056919402046
 20
19.56901155948328
 30
0.0
 10
-28.66056919402046
 20
19.56901155948328
 30
0.0
 10
-28.66056919402046
 20
17.58325897389568
 30
0.0
 10
-28.66056919402046
 20
17.58325897389568
 30
0.0
 10
-28.66056919402046
 20
17.41757354898791
 30
0.0
 10
-28.52625461900333
 20
17.28325897397075
 30
0.0
 10
-28.36056919409553
 20
17.28325897397068
 30
0.0
 10
-28.36056919409553
 20
17.28325897397068
 30
0.0
 10
-25.54922414767027
 20
17.28325897396998
 30
0.0
 10
-25.54922414767027
 20
17.28325897396998
 30
0.0
 10
-25.54922414767027
 20
17.28325897396998
 30
0.0
 10
-21.98143721196177
 20
17.28325896938074
 30
0.0
 10
-21.98143721196177
 20
17.28325896938074
 30
0.0
 10
-21.81430175674118
 20
17.28325896916577
 30
0.0
 10
-21.68005760164827
 20
17.41983780180356
 30
0.0
 10
-21.68157924252306
 20
17.58696633019065
 30
0.0
 10
-21.68584655068197
 20
18.05566360600118
 30
0.0
 10
-21.68219666806489
 20
18.52439941679624
 30
0.0
 10
-21.67063119812704
 20
18.99297318053055
 30
0.0
 10
-21.66644403306881
 20
19.16261572002371
 30
0.0
 10
-21.80071576261109
 20
19.30138445301257
 30
0.0
 10
-21.97040996863152
 20
19.30138445279978
 30
0.0
 10
-21.97040996863152
 20
19.30138445279978
 30
0.0
 10
-25.99962833659998
 20
19.30138444774724
 30
0.0
 10
-25.99962833659998
 20
19.30138444774724
 30
0.0
  0
ENDBLK
  5
B1
330
AE
100
AcDbEntity
  8
0
100
AcDbBlockEnd
  0
BLOCK
  5
B5
330
B3
100
AcDbEntity
  8
0
100
AcDbBlockBegin
  2
BLOCK_20
 70
     0
 10
0.0
 20
0.0
 30
0.0
  3
BLOCK_20
  1

  0
SPLINE
  5
B7
330
B3
100
AcDbEntity
  8
0
 62
     7
100
AcDbSpline
210
0.0
220
0.0
230
1.0
 70
    11
 71
     3
 72
   167
 73
   163
 74
     0
 42
0.0000000001
 43
0.0000000001
 12
1.0
 22
0.0
 32
0.0
 13
1.0
 23
0.0
 33
0.0
 40
0.0
 40
0.0
 40
0.0
 40
0.0
 40
1.0
 40
1.0
 40
1.0
 40
2.0
 40
2.0
 40
2.0
 40
3.0
 40
3.0
 40
3.0
 40
4.0
 40
4.0
 40
4.0
 40
5.0
 40
5.0
 40
5.0
 40
6.0
 40
6.0
 40
6.0
 40
7.0
 40
7.0
 40
7.0
 40
8.0
 40
8.0
 40
8.0
 40
9.0
 40
9.0
 40
9.0
 40
10.0
 40
10.0
 40
10.0
 40
11.0
 40
11.0
 40
11.0
 40
12.0
 40
12.0
 40
12.0
 40
13.0
 40
13.0
 40
13.0
 40
14.0
 40
14.0
 40
14.0
 40
15.0
 40
15.0
 40
15.0
 40
16.0
 40
16.0
 40
16.0
 40
17.0
 40
17.0
 40
17.0
 40
18.0
 40
18.0
 40
18.0
 40
19.0
 40
19.0
 40
19.0
 40
20.0
 40
20.0
 40
20.0
 40
21.0
 40
21.0
 40
21.0
 40
22.0
 40
22.0
 40
22.0
 40
23.0
 40
23.0
 40
23.0
 40
24.0
 40
24.0
 40
24.0
 40
25.0
 40
25.0
 40
25.0
 40
26.0
 40
26.0
 40
26.0
 40
27.0
 40
27.0
 40
27.0
 40
28.0
 40
28.0
 40
28.0
 40
29.0
 40
29.0
 40
29.0
 40
30.0
 40
30.0
 40
30.0
 40
31.0
 40
31.0
 40
31.0
 40
32.0
 40
32.0
 40
32.0
 40
33.0
 40
33.0
 40
33.0
 40
34.0
 40
34.0
 40
34.0
 40
35.0
 40
35.0
 40
35.0
 40
36.0
 40
36.0
 40
36.0
 40
37.0
 40
37.0
 40
37.0
 40
38.0
 40
38.0
 40
38.0
 40
39.0
 40
39.0
 40
39.0
 40
40.0
 40
40.0
 40
40.0
 40
41.0
 40
41.0
 40
41.0
 40
42.0
 40
42.0
 40
42.0
 40
43.0
 40
43.0
 40
43.0
 40
44.0
 40
44.0
 40
44.0
 40
45.0
 40
45.0
 40
45.0
 40
46.0
 40
46.0
 40
46.0
 40
47.0
 40
47.0
 40
47.0
 40
48.0
 40
48.0
 40
48.0
 40
49.0
 40
49.0
 40
49.0
 40
50.0
 40
50.0
 40
50.0
 40
51.0
 40
51.0
 40
51.0
 40
52.0
 40
52.0
 40
52.0
 40
53.0
 40
53.0
 40
53.0
 40
54.0
 40
54.0
 40
54.0
 40
54.0
 10
-26.85332082887448
 20
15.71443440735248
 30
0.0
 10
-26.85332082887448
 20
15.71443440735248
 30
0.0
 10
-26.45793217257731
 20
15.25959478568387
 30
0.0
 10
-26.45793217257731
 20
15.25959478568387
 30
0.0
 10
-26.3867370077321
 20
15.17769465696979
 30
0.0
 10
-26.2664900457061
 20
15.15776648184582
 30
0.0
 10
-26.17399059378034
 20
15.21451358727123
 30
0.0
 10
-25.96887577035055
 20
15.34034863025962
 30
0.0
 10
-25.75293385772322
 20
15.44762153016453
 30
0.0
 10
-25.52873949562081
 20
15.53505280031368
 30
0.0
 10
-25.42813229016533
 20
15.57428757712358
 30
0.0
 10
-25.37141208735047
 20
15.68140454606455
 30
0.0
 10
-25.39292182892501
 20
15.78722755168375
 30
0.0
 10
-25.39292182892501
 20
15.78722755168375
 30
0.0
 10
-25.51353037134067
 20
16.38059397673031
 30
0.0
 10
-25.51353037134067
 20
16.38059397673031
 30
0.0
 10
-25.53701368015927
 20
16.49612648150065
 30
0.0
 10
-25.46710059758742
 20
16.61105162044247
 30
0.0
 10
-25.35315095896534
 20
16.64129571589073
 30
0.0
 10
-25.15034575996156
 20
16.69512352851263
 30
0.0
 10
-24.94437902022104
 20
16.73623804686527
 30
0.0
 10
-24.73645356469304
 20
16.76439975996957
 30
0.0
 10
-24.6176648859331
 20
16.78048866396059
 30
0.0
 10
-24.50776918904237
 20
16.69816610681555
 30
0.0
 10
-24.48752547036543
 20
16.58001453091707
 30
0.0
 10
-24.48752547036543
 20
16.58001453091707
 30
0.0
 10
-24.38744664425614
 20
15.99590885312206
 30
0.0
 10
-24.38744664425614
 20
15.99590885312206
 30
0.0
 10
-24.36880164620128
 20
15.88708813999339
 30
0.0
 10
-24.27355932936537
 20
15.80720629370847
 30
0.0
 10
-24.16318900694811
 20
15.81003038432562
 30
0.0
 10
-23.92484576189192
 20
15.81612897049707
 30
0.0
 10
-23.68642609113628
 20
15.8011328314023
 30
0.0
 10
-23.4507210800323
 20
15.76521632377105
 30
0.0
 10
-23.34303273898465
 20
15.74880687577113
 30
0.0
 10
-23.23965970354742
 20
15.81437628732792
 30
0.0
 10
-23.20623367102603
 20
15.91805246169374
 30
0.0
 10
-23.20623367102603
 20
15.91805246169374
 30
0.0
 10
-23.02198819436892
 20
16.48951921150339
 30
0.0
 10
-23.02198819436892
 20
16.48951921150339
 30
0.0
 10
-22.98558452947072
 20
16.60243098789011
 30
0.0
 10
-22.86711561012199
 20
16.66835754298802
 30
0.0
 10
-22.75253759773208
 20
16.63759758294884
 30
0.0
 10
-22.55282818312944
 20
16.58398298897501
 30
0.0
 10
-22.35660558883477
 20
16.51813268737316
 30
0.0
 10
-22.16498269600565
 20
16.44042004989582
 30
0.0
 10
-22.0553567769283
 20
16.39596127369435
 30
0.0
 10
-22.0005645379829
 20
16.27246819592211
 30
0.0
 10
-22.03907824574583
 20
16.16061508139579
 30
0.0
 10
-22.03907824574583
 20
16.16061508139579
 30
0.0
 10
-22.23529182780736
 20
15.59076342231842
 30
0.0
 10
-22.23529182780736
 20
15.59076342231842
 30
0.0
 10
-22.2711603792766
 20
15.48659248089487
 30
0.0
 10
-22.22529025853053
 20
15.37289718461236
 30
0.0
 10
-22.1284989625378
 20
15.32027035645781
 30
0.0
 10
-21.98424597009588
 20
15.24183791719593
 30
0.0
 10
-21.84488262023269
 20
15.15467864219921
 30
0.0
 10
-21.71118879945903
 20
15.05926955230867
 30
0.0
 10
-21.65544506829822
 20
15.01948866620352
 30
0.0
 10
-21.62025983542015
 20
14.95712636665874
 30
0.0
 10
-21.61637789898658
 20
14.88875376225786
 30
0.0
 10
-21.60141594915018
 20
14.6252287162535
 30
0.0
 10
-21.58394797401116
 20
14.36185663712667
 30
0.0
 10
-21.5639766114206
 20
14.0986732473488
 30
0.0
 10
-21.54844581062097
 20
13.89400775285143
 30
0.0
 10
-21.79578058099636
 20
13.77686606946774
 30
0.0
 10
-21.94197515690045
 20
13.92093659520959
 30
0.0
 10
-22.91619006044858
 20
14.88099720260039
 30
0.0
 10
-24.45563989500243
 20
15.08418511939698
 30
0.0
 10
-25.66457354007425
 20
14.32551691635471
 30
0.0
 10
-27.07690028080644
 20
13.43920905746782
 30
0.0
 10
-27.5033228379226
 20
11.57579753808159
 30
0.0
 10
-26.61701497903574
 20
10.16347079734936
 30
0.0
 10
-26.48273769838503
 20
9.94950068275064
 30
0.0
 10
-26.32231399365627
 20
9.753509764107024
 30
0.0
 10
-26.13968265166477
 20
9.579927854598452
 30
0.0
 10
-26.04359512955852
 20
9.488601495249192
 30
0.0
 10
-26.0443080481671
 20
9.3354763473966
 30
0.0
 10
-26.1437746386812
 20
9.247842374600513
 30
0.0
 10
-26.1437746386812
 20
9.247842374600513
 30
0.0
 10
-27.32869195868373
 20
8.203883678017501
 30
0.0
 10
-27.32869195868373
 20
8.203883678017501
 30
0.0
 10
-27.41700184079862
 20
8.12607920350126
 30
0.0
 10
-27.55123898618363
 20
8.12922310919244
 30
0.0
 10
-27.63424162864481
 20
8.212666100979368
 30
0.0
 10
-27.77752394665743
 20
8.356708566744588
 30
0.0
 10
-27.91196844209226
 20
8.509280290539984
 30
0.0
 10
-28.03683910986635
 20
8.669545804597062
 30
0.0
 10
-28.10952359335916
 20
8.76283285365825
 30
0.0
 10
-28.09518442734251
 20
8.897137454483826
 30
0.0
 10
-28.00593247005007
 20
8.974723508531104
 30
0.0
 10
-28.00593247005007
 20
8.974723508531104
 30
0.0
 10
-27.55109284838091
 20
9.370112164872104
 30
0.0
 10
-27.55109284838091
 20
9.370112164872104
 30
0.0
 10
-27.46919271967466
 20
9.441307329718276
 30
0.0
 10
-27.44926454455452
 20
9.561554291737824
 30
0.0
 10
-27.50601164997646
 20
9.654053743659508
 30
0.0
 10
-27.63191113199162
 20
9.859273604602885
 30
0.0
 10
-27.73922945503123
 20
10.07533164649879
 30
0.0
 10
-27.82668516577444
 20
10.29964927224755
 30
0.0
 10
-27.86585288924304
 20
10.4001116738424
 30
0.0
 10
-27.97274206618256
 20
10.45682765710741
 30
0.0
 10
-28.07844935867738
 20
10.43554919359772
 30
0.0
 10
-28.07844935867738
 20
10.43554919359772
 30
0.0
 10
-28.67293434963011
 20
10.31588169584522
 30
0.0
 10
-28.67293434963011
 20
10.31588169584522
 30
0.0
 10
-28.78831518820612
 20
10.29265598543856
 30
0.0
 10
-28.90299601339976
 20
10.36249726032536
 30
0.0
 10
-28.93315691446119
 20
10.47626233221283
 30
0.0
 10
-28.98522180889834
 20
10.67264792581273
 30
0.0
 10
-29.02536829545168
 20
10.87200116225406
 30
0.0
 10
-29.05337670890633
 20
11.07323050268333
 30
0.0
 10
-29.06967979354271
 20
11.19036169876685
 30
0.0
 10
-28.99010941108175
 20
11.29950331192304
 30
0.0
 10
-28.87402192169779
 20
11.32206882705431
 30
0.0
 10
-28.87402192169779
 20
11.32206882705431
 30
0.0
 10
-28.28242492654399
 20
11.43706563693133
 30
0.0
 10
-28.28242492654399
 20
11.43706563693133
 30
0.0
 10
-28.17589975208003
 20
11.45777239395562
 30
0.0
 10
-28.09851796515684
 20
11.55194523023716
 30
0.0
 10
-28.10141267408401
 20
11.66042565815512
 30
0.0
 10
-28.10783489336383
 20
11.90110101211764
 30
0.0
 10
-28.0927462664603
 20
12.14187192662843
 30
0.0
 10
-28.05632632079371
 20
12.37986454443214
 30
0.0
 10
-28.04001536352855
 20
12.48645139807405
 30
0.0
 10
-28.10422611451791
 20
12.58901346885262
 30
0.0
 10
-28.20641054694046
 20
12.62343942514544
 30
0.0
 10
-28.20641054694046
 20
12.62343942514544
 30
0.0
 10
-28.78108340014618
 20
12.81704682754629
 30
0.0
 10
-28.78108340014618
 20
12.81704682754629
 30
0.0
 10
-28.89261899266859
 20
12.85462319159938
 30
0.0
 10
-28.95701486317225
 20
12.97244792248206
 30
0.0
 10
-28.92625243374857
 20
13.0860518153323
 30
0.0
 10
-28.87314915817521
 20
13.28215917555236
 30
0.0
 10
-28.80824041718025
 20
13.47487738592038
 30
0.0
 10
-28.73188174453396
 20
13.66315131345235
 30
0.0
 10
-28.68743503194778
 20
13.77274144715271
 30
0.0
 10
-28.56395425277254
 20
13.82747566552566
 30
0.0
 10
-28.45213678033974
 20
13.78897423018968
 30
0.0
 10
-28.45213678033974
 20
13.78897423018968
 30
0.0
 10
-27.88230034878048
 20
13.59276589132799
 30
0.0
 10
-27.88230034878048
 20
13.59276589132799
 30
0.0
 10
-27.77969346304121
 20
13.55743588171172
 30
0.0
 10
-27.6655924516376
 20
13.60030105681628
 30
0.0
 10
-27.61385912914665
 20
13.69569521766825
 30
0.0
 10
-27.49908325721168
 20
13.90733729789992
 30
0.0
 10
-27.36563066575179
 20
14.10830671290284
 30
0.0
 10
-27.21509375870124
 20
14.29620439299724
 30
0.0
 10
-27.14767462852927
 20
14.38035583732742
 30
0.0
 10
-27.15200173469211
 20
14.50128257157979
 30
0.0
 10
-27.22328307089345
 20
14.58218854049032
 30
0.0
 10
-27.22328307089345
 20
14.58218854049032
 30
0.0
 10
-27.62416065943371
 20
15.03719389594167
 30
0.0
 10
-27.62416065943371
 20
15.03719389594167
 30
0.0
 10
-27.70196513395614
 20
15.12550377805479
 30
0.0
 10
-27.69882122826923
 20
15.25974092344372
 30
0.0
 10
-27.61537823648188
 20
15.34274356590833
 30
0.0
 10
-27.47133577070309
 20
15.48602588393969
 30
0.0
 10
-27.31876404689146
 20
15.62047037939081
 30
0.0
 10
-27.15849853281597
 20
15.74534104717838
 30
0.0
 10
-27.06521148375109
 20
15.81802553067357
 30
0.0
 10
-26.93090688291977
 20
15.80368636465243
 30
0.0
 10
-26.85332082887448
 20
15.71443440735248
 30
0.0
  0
ENDBLK
  5
B6
330
B3
100
AcDbEntity
  8
0
100
AcDbBlockEnd
  0
BLOCK
  5
BB
330
B9
100
AcDbEntity
  8
0
100
AcDbBlockBegin
  2
BLOCK_21
 70
     0
 10
0.0
 20
0.0
 30
0.0
  3
BLOCK_21
  1

  0
SPLINE
  5
BD
330
B9
100
AcDbEntity
  8
0
 62
     7
100
AcDbSpline
210
0.0
220
0.0
230
1.0
 70
    11
 71
     3
 72
    47
 73
    43
 74
     0
 42
0.0000000001
 43
0.0000000001
 12
1.0
 22
0.0
 32
0.0
 13
1.0
 23
0.0
 33
0.0
 40
0.0
 40
0.0
 40
0.0
 40
0.0
 40
1.0
 40
1.0
 40
1.0
 40
2.0
 40
2.0
 40
2.0
 40
3.0
 40
3.0
 40
3.0
 40
4.0
 40
4.0
 40
4.0
 40
5.0
 40
5.0
 40
5.0
 40
6.0
 40
6.0
 40
6.0
 40
7.0
 40
7.0
 40
7.0
 40
8.0
 40
8.0
 40
8.0
 40
9.0
 40
9.0
 40
9.0
 40
10.0
 40
10.0
 40
10.0
 40
11.0
 40
11.0
 40
11.0
 40
12.0
 40
12.0
 40
12.0
 40
13.0
 40
13.0
 40
13.0
 40
14.0
 40
14.0
 40
14.0
 40
14.0
 10
-37.08466982256142
 20
-39.12893725427334
 30
0.0
 10
-37.08466982256142
 20
-38.90802481265105
 30
0.0
 10
-37.26375449862342
 20
-38.72894013658905
 30
0.0
 10
-37.48467124661507
 20
-38.72894013658905
 30
0.0
 10
-37.48467124661507
 20
-38.72894013658905
 30
0.0
 10
-37.48467124661507
 20
-27.52893902041119
 30
0.0
 10
-37.48467124661507
 20
-27.52893902041119
 30
0.0
 10
-37.48467124661507
 20
-27.52893902041119
 30
0.0
 10
-37.48467124661507
 20
-16.32894221060268
 30
0.0
 10
-37.48467124661507
 20
-16.32894221060268
 30
0.0
 10
-37.26375449862342
 20
-16.32894221060268
 30
0.0
 10
-37.08466982256142
 20
-16.14985322817132
 30
0.0
 10
-37.08466982256142
 20
-15.92894078654903
 30
0.0
 10
-37.08466982256142
 20
-15.70802403855739
 30
0.0
 10
-37.26375449862342
 20
-15.52893936249539
 30
0.0
 10
-37.48467124661507
 20
-15.52893936249539
 30
0.0
 10
-37.48467124661507
 20
-15.52893936249539
 30
0.0
 10
-39.28467334848712
 20
-15.52893936249539
 30
0.0
 10
-39.28467334848712
 20
-15.52893936249539
 30
0.0
 10
-39.50558579010941
 20
-15.52893936249539
 30
0.0
 10
-39.6846704661714
 20
-15.70802403855739
 30
0.0
 10
-39.6846704661714
 20
-15.92894078654903
 30
0.0
 10
-39.6846704661714
 20
-16.14985322817132
 30
0.0
 10
-39.50558579010941
 20
-16.32894221060268
 30
0.0
 10
-39.28467334848712
 20
-16.32894221060268
 30
0.0
 10
-39.28467334848712
 20
-16.32894221060268
 30
0.0
 10
-39.28467334848712
 20
-27.52893902041119
 30
0.0
 10
-39.28467334848712
 20
-27.52893902041119
 30
0.0
 10
-39.28467334848712
 20
-27.52893902041119
 30
0.0
 10
-39.28467334848712
 20
-38.72894013658905
 30
0.0
 10
-39.28467334848712
 20
-38.72894013658905
 30
0.0
 10
-39.50558579010941
 20
-38.72894013658905
 30
0.0
 10
-39.6846704661714
 20
-38.90802481265105
 30
0.0
 10
-39.6846704661714
 20
-39.12893725427334
 30
0.0
 10
-39.6846704661714
 20
-39.34985400226498
 30
0.0
 10
-39.50558579010941
 20
-39.52893867832698
 30
0.0
 10
-39.28467334848712
 20
-39.52893867832698
 30
0.0
 10
-39.28467334848712
 20
-39.52893867832698
 30
0.0
 10
-37.48467124661507
 20
-39.52893867832698
 30
0.0
 10
-37.48467124661507
 20
-39.52893867832698
 30
0.0
 10
-37.26375449862342
 20
-39.52893867832698
 30
0.0
 10
-37.08466982256142
 20
-39.34985400226498
 30
0.0
 10
-37.08466982256142
 20
-39.12893725427334
 30
0.0
  0
SPLINE
  5
BE
330
B9
100
AcDbEntity
  8
0
 62
     7
100
AcDbSpline
210
0.0
220
0.0
230
1.0
 70
    11
 71
     3
 72
    47
 73
    43
 74
     0
 42
0.0000000001
 43
0.0000000001
 12
1.0
 22
0.0
 32
0.0
 13
1.0
 23
0.0
 33
0.0
 40
0.0
 40
0.0
 40
0.0
 40
0.0
 40
1.0
 40
1.0
 40
1.0
 40
2.0
 40
2.0
 40
2.0
 40
3.0
 40
3.0
 40
3.0
 40
4.0
 40
4.0
 40
4.0
 40
5.0
 40
5.0
 40
5.0
 40
6.0
 40
6.0
 40
6.0
 40
7.0
 40
7.0
 40
7.0
 40
8.0
 40
8.0
 40
8.0
 40
9.0
 40
9.0
 40
9.0
 40
10.0
 40
10.0
 40
10.0
 40
11.0
 40
11.0
 40
11.0
 40
12.0
 40
12.0
 40
12.0
 40
13.0
 40
13.0
 40
13.0
 40
14.0
 40
14.0
 40
14.0
 40
14.0
 10
-30.28467145186559
 20
-39.12893725427334
 30
0.0
 10
-30.28467145186559
 20
-38.90802481265105
 30
0.0
 10
-30.46375612792759
 20
-38.72894013658905
 30
0.0
 10
-30.68467287591924
 20
-38.72894013658905
 30
0.0
 10
-30.68467287591924
 20
-38.72894013658905
 30
0.0
 10
-30.68467287591924
 20
-27.52893902041119
 30
0.0
 10
-30.68467287591924
 20
-27.52893902041119
 30
0.0
 10
-30.68467287591924
 20
-27.52893902041119
 30
0.0
 10
-30.68467287591924
 20
-16.32894221060268
 30
0.0
 10
-30.68467287591924
 20
-16.32894221060268
 30
0.0
 10
-30.46375612792759
 20
-16.32894221060268
 30
0.0
 10
-30.28467145186559
 20
-16.14985322817132
 30
0.0
 10
-30.28467145186559
 20
-15.92894078654903
 30
0.0
 10
-30.28467145186559
 20
-15.70802403855739
 30
0.0
 10
-30.46375612792759
 20
-15.52893936249539
 30
0.0
 10
-30.68467287591924
 20
-15.52893936249539
 30
0.0
 10
-30.68467287591924
 20
-15.52893936249539
 30
0.0
 10
-32.48467067142192
 20
-15.52893936249539
 30
0.0
 10
-32.48467067142192
 20
-15.52893936249539
 30
0.0
 10
-32.70558311304421
 20
-15.52893936249539
 30
0.0
 10
-32.88467209547557
 20
-15.70802403855739
 30
0.0
 10
-32.88467209547557
 20
-15.92894078654903
 30
0.0
 10
-32.88467209547557
 20
-16.14985322817132
 30
0.0
 10
-32.70558311304421
 20
-16.32894221060268
 30
0.0
 10
-32.48467067142192
 20
-16.32894221060268
 30
0.0
 10
-32.48467067142192
 20
-16.32894221060268
 30
0.0
 10
-32.48467067142192
 20
-27.52893902041119
 30
0.0
 10
-32.48467067142192
 20
-27.52893902041119
 30
0.0
 10
-32.48467067142192
 20
-27.52893902041119
 30
0.0
 10
-32.48467067142192
 20
-38.72894013658905
 30
0.0
 10
-32.48467067142192
 20
-38.72894013658905
 30
0.0
 10
-32.70558311304421
 20
-38.72894013658905
 30
0.0
 10
-32.88467209547557
 20
-38.90802481265105
 30
0.0
 10
-32.88467209547557
 20
-39.12893725427334
 30
0.0
 10
-32.88467209547557
 20
-39.34985400226498
 30
0.0
 10
-32.70558311304421
 20
-39.52893867832698
 30
0.0
 10
-32.48467067142192
 20
-39.52893867832698
 30
0.0
 10
-32.48467067142192
 20
-39.52893867832698
 30
0.0
 10
-30.68467287591924
 20
-39.52893867832698
 30
0.0
 10
-30.68467287591924
 20
-39.52893867832698
 30
0.0
 10
-30.46375612792759
 20
-39.52893867832698
 30
0.0
 10
-30.28467145186559
 20
-39.34985400226498
 30
0.0
 10
-30.28467145186559
 20
-39.12893725427334
 30
0.0
  0
SPLINE
  5
BF
330
B9
100
AcDbEntity
  8
0
 62
     7
100
AcDbSpline
210
0.0
220
0.0
230
1.0
 70
    11
 71
     3
 72
    47
 73
    43
 74
     0
 42
0.0000000001
 43
0.0000000001
 12
1.0
 22
0.0
 32
0.0
 13
1.0
 23
0.0
 33
0.0
 40
0.0
 40
0.0
 40
0.0
 40
0.0
 40
1.0
 40
1.0
 40
1.0
 40
2.0
 40
2.0
 40
2.0
 40
3.0
 40
3.0
 40
3.0
 40
4.0
 40
4.0
 40
4.0
 40
5.0
 40
5.0
 40
5.0
 40
6.0
 40
6.0
 40
6.0
 40
7.0
 40
7.0
 40
7.0
 40
8.0
 40
8.0
 40
8.0
 40
9.0
 40
9.0
 40
9.0
 40
10.0
 40
10.0
 40
10.0
 40
11.0
 40
11.0
 40
11.0
 40
12.0
 40
12.0
 40
12.0
 40
13.0
 40
13.0
 40
13.0
 40
14.0
 40
14.0
 40
14.0
 40
14.0
 10
-23.48467308116976
 20
-39.12893725427334
 30
0.0
 10
-23.48467308116976
 20
-38.90802481265105
 30
0.0
 10
-23.66375775723176
 20
-38.72894013658905
 30
0.0
 10
-23.8846745052234
 20
-38.72894013658905
 30
0.0
 10
-23.8846745052234
 20
-38.72894013658905
 30
0.0
 10
-23.8846745052234
 20
-27.52893902041119
 30
0.0
 10
-23.8846745052234
 20
-27.52893902041119
 30
0.0
 10
-23.8846745052234
 20
-27.52893902041119
 30
0.0
 10
-23.8846745052234
 20
-16.32894221060268
 30
0.0
 10
-23.8846745052234
 20
-16.32894221060268
 30
0.0
 10
-23.66375775723176
 20
-16.32894221060268
 30
0.0
 10
-23.48467308116976
 20
-16.14985322817132
 30
0.0
 10
-23.48467308116976
 20
-15.92894078654903
 30
0.0
 10
-23.48467308116976
 20
-15.70802403855739
 30
0.0
 10
-23.66375775723176
 20
-15.52893936249539
 30
0.0
 10
-23.8846745052234
 20
-15.52893936249539
 30
0.0
 10
-23.8846745052234
 20
-15.52893936249539
 30
0.0
 10
-25.68467230072609
 20
-15.52893936249539
 30
0.0
 10
-25.68467230072609
 20
-15.52893936249539
 30
0.0
 10
-25.90558474234838
 20
-15.52893936249539
 30
0.0
 10
-26.08466941841038
 20
-15.70802403855739
 30
0.0
 10
-26.08466941841038
 20
-15.92894078654903
 30
0.0
 10
-26.08466941841038
 20
-16.14985322817132
 30
0.0
 10
-25.90558474234838
 20
-16.32894221060268
 30
0.0
 10
-25.68467230072609
 20
-16.32894221060268
 30
0.0
 10
-25.68467230072609
 20
-16.32894221060268
 30
0.0
 10
-25.68467230072609
 20
-27.52893902041119
 30
0.0
 10
-25.68467230072609
 20
-27.52893902041119
 30
0.0
 10
-25.68467230072609
 20
-27.52893902041119
 30
0.0
 10
-25.68467230072609
 20
-38.72894013658905
 30
0.0
 10
-25.68467230072609
 20
-38.72894013658905
 30
0.0
 10
-25.90558474234838
 20
-38.72894013658905
 30
0.0
 10
-26.08466941841038
 20
-38.90802481265105
 30
0.0
 10
-26.08466941841038
 20
-39.12893725427334
 30
0.0
 10
-26.08466941841038
 20
-39.34985400226498
 30
0.0
 10
-25.90558474234838
 20
-39.52893867832698
 30
0.0
 10
-25.68467230072609
 20
-39.52893867832698
 30
0.0
 10
-25.68467230072609
 20
-39.52893867832698
 30
0.0
 10
-23.8846745052234
 20
-39.52893867832698
 30
0.0
 10
-23.8846745052234
 20
-39.52893867832698
 30
0.0
 10
-23.66375775723176
 20
-39.52893867832698
 30
0.0
 10
-23.48467308116976
 20
-39.34985400226498
 30
0.0
 10
-23.48467308116976
 20
-39.12893725427334
 30
0.0
  0
SPLINE
  5
C0
330
B9
100
AcDbEntity
  8
0
 62
     7
100
AcDbSpline
210
0.0
220
0.0
230
1.0
 70
    11
 71
     3
 72
    41
 73
    37
 74
     0
 42
0.0000000001
 43
0.0000000001
 12
1.0
 22
0.0
 32
0.0
 13
1.0
 23
0.0
 33
0.0
 40
0.0
 40
0.0
 40
0.0
 40
0.0
 40
1.0
 40
1.0
 40
1.0
 40
2.0
 40
2.0
 40
2.0
 40
3.0
 40
3.0
 40
3.0
 40
4.0
 40
4.0
 40
4.0
 40
5.0
 40
5.0
 40
5.0
 40
6.0
 40
6.0
 40
6.0
 40
7.0
 40
7.0
 40
7.0
 40
8.0
 40
8.0
 40
8.0
 40
9.0
 40
9.0
 40
9.0
 40
10.0
 40
10.0
 40
10.0
 40
11.0
 40
11.0
 40
11.0
 40
12.0
 40
12.0
 40
12.0
 40
12.0
 10
-48.48467165076611
 20
-40.12893650803809
 30
0.0
 10
-48.48467165076611
 20
-39.90802837278516
 30
0.0
 10
-48.66375632682811
 20
-39.72893939035381
 30
0.0
 10
-48.88467307481975
 20
-39.72893939035381
 30
0.0
 10
-48.88467307481975
 20
-39.72893939035381
 30
0.0
 10
-48.88467307481975
 20
-39.52893867832698
 30
0.0
 10
-48.88467307481975
 20
-39.52893867832698
 30
0.0
 10
-48.66375632682811
 20
-39.52893867832698
 30
0.0
 10
-48.48467165076611
 20
-39.34985400226498
 30
0.0
 10
-48.48467165076611
 20
-39.12893725427334
 30
0.0
 10
-48.48467165076611
 20
-38.90802481265105
 30
0.0
 10
-48.66375632682811
 20
-38.72894013658905
 30
0.0
 10
-48.88467307481975
 20
-38.72894013658905
 30
0.0
 10
-48.88467307481975
 20
-38.72894013658905
 30
0.0
 10
-53.88467149682822
 20
-38.72894013658905
 30
0.0
 10
-53.88467149682822
 20
-38.72894013658905
 30
0.0
 10
-54.10558609163519
 20
-38.72894013658905
 30
0.0
 10
-54.28467076769719
 20
-38.90802481265105
 30
0.0
 10
-54.28467076769719
 20
-39.12893725427334
 30
0.0
 10
-54.28467076769719
 20
-39.34985400226498
 30
0.0
 10
-54.10558609163519
 20
-39.52893867832698
 30
0.0
 10
-53.88467149682822
 20
-39.52893867832698
 30
0.0
 10
-53.88467149682822
 20
-39.52893867832698
 30
0.0
 10
-53.88467149682822
 20
-39.72893939035381
 30
0.0
 10
-53.88467149682822
 20
-39.72893939035381
 30
0.0
 10
-54.10558609163519
 20
-39.72893939035381
 30
0.0
 10
-54.28467076769719
 20
-39.90802837278516
 30
0.0
 10
-54.28467076769719
 20
-40.12893650803809
 30
0.0
 10
-54.28467076769719
 20
-40.34985325602974
 30
0.0
 10
-54.10558609163519
 20
-40.52893793209174
 30
0.0
 10
-53.88467149682822
 20
-40.52893793209174
 30
0.0
 10
-53.88467149682822
 20
-40.52893793209174
 30
0.0
 10
-48.88467307481975
 20
-40.52893793209174
 30
0.0
 10
-48.88467307481975
 20
-40.52893793209174
 30
0.0
 10
-48.66375632682811
 20
-40.52893793209174
 30
0.0
 10
-48.48467165076611
 20
-40.34985325602974
 30
0.0
 10
-48.48467165076611
 20
-40.12893650803809
 30
0.0
  0
SPLINE
  5
C1
330
B9
100
AcDbEntity
  8
0
 62
     7
100
AcDbSpline
210
0.0
220
0.0
230
1.0
 70
    11
 71
     3
 72
    41
 73
    37
 74
     0
 42
0.0000000001
 43
0.0000000001
 12
1.0
 22
0.0
 32
0.0
 13
1.0
 23
0.0
 33
0.0
 40
0.0
 40
0.0
 40
0.0
 40
0.0
 40
1.0
 40
1.0
 40
1.0
 40
2.0
 40
2.0
 40
2.0
 40
3.0
 40
3.0
 40
3.0
 40
4.0
 40
4.0
 40
4.0
 40
5.0
 40
5.0
 40
5.0
 40
6.0
 40
6.0
 40
6.0
 40
7.0
 40
7.0
 40
7.0
 40
8.0
 40
8.0
 40
8.0
 40
9.0
 40
9.0
 40
9.0
 40
10.0
 40
10.0
 40
10.0
 40
11.0
 40
11.0
 40
11.0
 40
12.0
 40
12.0
 40
12.0
 40
12.0
 10
-63.48467122316086
 20
-40.12893650803809
 30
0.0
 10
-63.48467122316086
 20
-39.90802837278516
 30
0.0
 10
-63.66375805240754
 20
-39.72893939035381
 30
0.0
 10
-63.88467049402983
 20
-39.72893939035381
 30
0.0
 10
-63.88467049402983
 20
-39.72893939035381
 30
0.0
 10
-63.88467049402983
 20
-39.52893867832698
 30
0.0
 10
-63.88467049402983
 20
-39.52893867832698
 30
0.0
 10
-63.66375805240754
 20
-39.52893867832698
 30
0.0
 10
-63.48467122316086
 20
-39.34985400226498
 30
0.0
 10
-63.48467122316086
 20
-39.12893725427334
 30
0.0
 10
-63.48467122316086
 20
-38.90802481265105
 30
0.0
 10
-63.66375805240754
 20
-38.72894013658905
 30
0.0
 10
-63.88467049402983
 20
-38.72894013658905
 30
0.0
 10
-63.88467049402983
 20
-38.72894013658905
 30
0.0
 10
-68.88467106922296
 20
-38.72894013658905
 30
0.0
 10
-68.88467106922296
 20
-38.72894013658905
 30
0.0
 10
-69.10558566402993
 20
-38.72894013658905
 30
0.0
 10
-69.28467034009194
 20
-38.90802481265105
 30
0.0
 10
-69.28467034009194
 20
-39.12893725427334
 30
0.0
 10
-69.28467034009194
 20
-39.34985400226498
 30
0.0
 10
-69.10558566402993
 20
-39.52893867832698
 30
0.0
 10
-68.88467106922296
 20
-39.52893867832698
 30
0.0
 10
-68.88467106922296
 20
-39.52893867832698
 30
0.0
 10
-68.88467106922296
 20
-39.72893939035381
 30
0.0
 10
-68.88467106922296
 20
-39.72893939035381
 30
0.0
 10
-69.10558566402993
 20
-39.72893939035381
 30
0.0
 10
-69.28467034009194
 20
-39.90802837278516
 30
0.0
 10
-69.28467034009194
 20
-40.12893650803809
 30
0.0
 10
-69.28467034009194
 20
-40.34985325602974
 30
0.0
 10
-69.10558566402993
 20
-40.52893793209174
 30
0.0
 10
-68.88467106922296
 20
-40.52893793209174
 30
0.0
 10
-68.88467106922296
 20
-40.52893793209174
 30
0.0
 10
-63.88467049402983
 20
-40.52893793209174
 30
0.0
 10
-63.88467049402983
 20
-40.52893793209174
 30
0.0
 10
-63.66375805240754
 20
-40.52893793209174
 30
0.0
 10
-63.48467122316086
 20
-40.34985325602974
 30
0.0
 10
-63.48467122316086
 20
-40.12893650803809
 30
0.0
  0
INSERT
  5
C3
330
B9
100
AcDbEntity
  8
0
100
AcDbBlockReference
  2
BLOCK_22
 10
0.0
 20
0.0
 30
0.0
  0
SPLINE
  5
C7
330
B9
100
AcDbEntity
  8
0
 62
     7
100
AcDbSpline
210
0.0
220
0.0
230
1.0
 70
    11
 71
     3
 72
   212
 73
   208
 74
     0
 42
0.0000000001
 43
0.0000000001
 12
1.0
 22
0.0
 32
0.0
 13
1.0
 23
0.0
 33
0.0
 40
0.0
 40
0.0
 40
0.0
 40
0.0
 40
1.0
 40
1.0
 40
1.0
 40
2.0
 40
2.0
 40
2.0
 40
3.0
 40
3.0
 40
3.0
 40
4.0
 40
4.0
 40
4.0
 40
5.0
 40
5.0
 40
5.0
 40
6.0
 40
6.0
 40
6.0
 40
7.0
 40
7.0
 40
7.0
 40
8.0
 40
8.0
 40
8.0
 40
9.0
 40
9.0
 40
9.0
 40
10.0
 40
10.0
 40
10.0
 40
11.0
 40
11.0
 40
11.0
 40
12.0
 40
12.0
 40
12.0
 40
13.0
 40
13.0
 40
13.0
 40
14.0
 40
14.0
 40
14.0
 40
15.0
 40
15.0
 40
15.0
 40
16.0
 40
16.0
 40
16.0
 40
17.0
 40
17.0
 40
17.0
 40
18.0
 40
18.0
 40
18.0
 40
19.0
 40
19.0
 40
19.0
 40
20.0
 40
20.0
 40
20.0
 40
21.0
 40
21.0
 40
21.0
 40
22.0
 40
22.0
 40
22.0
 40
23.0
 40
23.0
 40
23.0
 40
24.0
 40
24.0
 40
24.0
 40
25.0
 40
25.0
 40
25.0
 40
26.0
 40
26.0
 40
26.0
 40
27.0
 40
27.0
 40
27.0
 40
28.0
 40
28.0
 40
28.0
 40
29.0
 40
29.0
 40
29.0
 40
30.0
 40
30.0
 40
30.0
 40
31.0
 40
31.0
 40
31.0
 40
32.0
 40
32.0
 40
32.0
 40
33.0
 40
33.0
 40
33.0
 40
34.0
 40
34.0
 40
34.0
 40
35.0
 40
35.0
 40
35.0
 40
36.0
 40
36.0
 40
36.0
 40
37.0
 40
37.0
 40
37.0
 40
38.0
 40
38.0
 40
38.0
 40
39.0
 40
39.0
 40
39.0
 40
40.0
 40
40.0
 40
40.0
 40
41.0
 40
41.0
 40
41.0
 40
42.0
 40
42.0
 40
42.0
 40
43.0
 40
43.0
 40
43.0
 40
44.0
 40
44.0
 40
44.0
 40
45.0
 40
45.0
 40
45.0
 40
46.0
 40
46.0
 40
46.0
 40
47.0
 40
47.0
 40
47.0
 40
48.0
 40
48.0
 40
48.0
 40
49.0
 40
49.0
 40
49.0
 40
50.0
 40
50.0
 40
50.0
 40
51.0
 40
51.0
 40
51.0
 40
52.0
 40
52.0
 40
52.0
 40
53.0
 40
53.0
 40
53.0
 40
54.0
 40
54.0
 40
54.0
 40
55.0
 40
55.0
 40
55.0
 40
56.0
 40
56.0
 40
56.0
 40
57.0
 40
57.0
 40
57.0
 40
58.0
 40
58.0
 40
58.0
 40
59.0
 40
59.0
 40
59.0
 40
60.0
 40
60.0
 40
60.0
 40
61.0
 40
61.0
 40
61.0
 40
62.0
 40
62.0
 40
62.0
 40
63.0
 40
63.0
 40
63.0
 40
64.0
 40
64.0
 40
64.0
 40
65.0
 40
65.0
 40
65.0
 40
66.0
 40
66.0
 40
66.0
 40
67.0
 40
67.0
 40
67.0
 40
68.0
 40
68.0
 40
68.0
 40
69.0
 40
69.0
 40
69.0
 40
69.0
 10
-20.88466813119042
 20
-41.52685494040049
 30
0.0
 10
-20.88466813119042
 20
-41.52685494040049
 30
0.0
 10
-20.88466813119042
 20
-13.52921419354791
 30
0.0
 10
-20.88466813119042
 20
-13.52921419354791
 30
0.0
 10
-20.88466813119042
 20
-12.97627937928081
 30
0.0
 10
-21.33291036270716
 20
-12.52803714776413
 30
0.0
 10
-21.88584517697419
 20
-12.52803714776413
 30
0.0
 10
-21.88584517697419
 20
-12.52803714776413
 30
0.0
 10
-40.74917913289747
 20
-12.52803714776413
 30
0.0
 10
-40.74917913289747
 20
-12.52803714776413
 30
0.0
 10
-40.83791187348943
 20
-12.52803714776413
 30
0.0
 10
-40.92505987015819
 20
-12.50447700101438
 30
0.0
 10
-41.00170893833563
 20
-12.45976612116987
 30
0.0
 10
-41.00170893833563
 20
-12.45976612116987
 30
0.0
 10
-41.90360013244814
 20
-11.93401870139922
 30
0.0
 10
-42.69845421108722
 20
-11.47082674576324
 30
0.0
 10
-43.21536909704087
 20
-11.16960061714822
 30
0.0
 10
-43.86408802280963
 20
-11.54256247007806
 30
0.0
 10
-43.86408799786746
 20
-12.14084181944654
 30
0.0
 10
-43.86408799786746
 20
-12.14084181944654
 30
0.0
 10
-43.86408784850203
 20
-15.72362181900103
 30
0.0
 10
-43.86408784850203
 20
-15.72362181900103
 30
0.0
 10
-43.86408783932025
 20
-15.9438625344917
 30
0.0
 10
-44.03639065725566
 20
-16.13278976414897
 30
0.0
 10
-44.25659449855372
 20
-16.13681978120155
 30
0.0
 10
-44.4809370294853
 20
-16.14092554166406
 30
0.0
 10
-44.66408659584018
 20
-15.96029724370341
 30
0.0
 10
-44.66408659584018
 20
-15.73688736329764
 30
0.0
 10
-44.66408659584018
 20
-15.73688736329764
 30
0.0
 10
-44.88409039352823
 20
-15.73688736329764
 30
0.0
 10
-44.88409039352823
 20
-15.73688736329764
 30
0.0
 10
-44.88409039352823
 20
-15.96029411614045
 30
0.0
 10
-45.06723483201851
 20
-16.14092048434666
 30
0.0
 10
-45.2915775224843
 20
-16.13681995257395
 30
0.0
 10
-45.51178223262566
 20
-16.13279505473322
 30
0.0
 10
-45.68408915041971
 20
-15.94386975716809
 30
0.0
 10
-45.68408914279353
 20
-15.72362826659226
 30
0.0
 10
-45.68408914279353
 20
-15.72362826659226
 30
0.0
 10
-45.68408895068645
 20
-10.17564342607981
 30
0.0
 10
-45.68408895068645
 20
-10.17564342607981
 30
0.0
 10
-45.68408894113768
 20
-9.8998788688974
 30
0.0
 10
-45.83055341493934
 20
-9.644864776636501
 30
0.0
 10
-46.06874642498551
 20
-9.505903699484858
 30
0.0
 10
-46.06874642498551
 20
-9.505903699484858
 30
0.0
 10
-49.49850175994471
 20
-7.504994875082837
 30
0.0
 10
-49.49850175994471
 20
-7.504994875082837
 30
0.0
 10
-50.01541488153764
 20
-7.203429333103255
 30
0.0
 10
-50.66460746425084
 20
-7.576285819453419
 30
0.0
 10
-50.66460743937679
 20
-8.174734607057154
 30
0.0
 10
-50.66460743937679
 20
-8.174734607057154
 30
0.0
 10
-50.66460729042371
 20
-11.75842065638986
 30
0.0
 10
-50.66460729042371
 20
-11.75842065638986
 30
0.0
 10
-50.66460728126975
 20
-11.9786576685952
 30
0.0
 10
-50.83690336193501
 20
-12.16758442141413
 30
0.0
 10
-51.05710339400756
 20
-12.17162018904918
 30
0.0
 10
-51.28144624571416
 20
-12.17573188518084
 30
0.0
 10
-51.46460603722816
 20
-11.99510137210078
 30
0.0
 10
-51.46460603722816
 20
-11.77169011900899
 30
0.0
 10
-51.46460603722816
 20
-11.77169011900899
 30
0.0
 10
-51.68460552854685
 20
-11.77169011900899
 30
0.0
 10
-51.68460552854685
 20
-11.77169011900899
 30
0.0
 10
-51.68460552854685
 20
-11.99509687709231
 30
0.0
 10
-51.867755747788
 20
-12.17572461663348
 30
0.0
 10
-52.09209915864867
 20
-12.17162043548471
 30
0.0
 10
-52.31230271652021
 20
-12.16759198959605
 30
0.0
 10
-52.48460643832767
 20
-11.97866598926151
 30
0.0
 10
-52.48460643071468
 20
-11.7584255858939
 30
0.0
 10
-52.48460643071468
 20
-11.7584255858939
 30
0.0
 10
-52.48460623886312
 20
-6.208241389929171
 30
0.0
 10
-52.48460623886312
 20
-6.208241389929171
 30
0.0
 10
-52.48460622933084
 20
-5.932476795562224
 30
0.0
 10
-52.63107074231984
 20
-5.677462674760606
 30
0.0
 10
-52.86926380315684
 20
-5.538501610877887
 30
0.0
 10
-52.86926380315684
 20
-5.538501610877887
 30
0.0
 10
-56.29901698485411
 20
-3.537594660403133
 30
0.0
 10
-56.29901698485411
 20
-3.537594660403133
 30
0.0
 10
-56.81593010694214
 20
-3.236029211234023
 30
0.0
 10
-57.46512259921164
 20
-3.608885703676606
 30
0.0
 10
-57.46512257429155
 20
-4.20733444493966
 30
0.0
 10
-57.46512257429155
 20
-4.20733444493966
 30
0.0
 10
-57.4651224249711
 20
-7.793222963843373
 30
0.0
 10
-57.4651224249711
 20
-7.793222963843373
 30
0.0
 10
-57.46512241580003
 20
-8.013462979760934
 30
0.0
 10
-57.63742408742648
 20
-8.202389946660164
 30
0.0
 10
-57.85762721093954
 20
-8.206420952299517
 30
0.0
 10
-58.08197054206077
 20
-8.210527747963754
 30
0.0
 10
-58.26512332543145
 20
-8.029899043476886
 30
0.0
 10
-58.26512332543145
 20
-7.806490721535662
 30
0.0
 10
-58.26512332543145
 20
-7.806490721535662
 30
0.0
 10
-58.48512281675016
 20
-7.806490721535662
 30
0.0
 10
-58.48512281675016
 20
-7.806490721535662
 30
0.0
 10
-58.48512281675016
 20
-8.029897479618851
 30
0.0
 10
-58.6682730359912
 20
-8.21052521916003
 30
0.0
 10
-58.89261644685181
 20
-8.206421038011387
 30
0.0
 10
-59.1128200047229
 20
-8.202392592122848
 30
0.0
 10
-59.28512372653077
 20
-8.013466591789983
 30
0.0
 10
-59.28512371892051
 20
-7.793226188422757
 30
0.0
 10
-59.28512371892051
 20
-7.793226188422757
 30
0.0
 10
-59.28512352706097
 20
-2.240841349795584
 30
0.0
 10
-59.28512352706097
 20
-2.240841349795584
 30
0.0
 10
-59.28512351753206
 20
-1.965076802638693
 30
0.0
 10
-59.43158798079069
 20
-1.710062718085626
 30
0.0
 10
-59.66978097715517
 20
-1.571101637377558
 30
0.0
 10
-59.66978097715517
 20
-1.571101637377558
 30
0.0
 10
-63.09856522577053
 20
0.4292408243016199
 30
0.0
 10
-63.09856522577053
 20
0.4292408243016199
 30
0.0
 10
-63.61547834725543
 20
0.7308063912581819
 30
0.0
 10
-64.26467095431966
 20
0.3579499064955813
 30
0.0
 10
-64.26467092940749
 20
-0.2404988936011355
 30
0.0
 10
-64.26467092940749
 20
-0.2404988936011355
 30
0.0
 10
-64.26467078006648
 20
-3.828023566372357
 30
0.0
 10
-64.26467078006648
 20
-3.828023566372357
 30
0.0
 10
-64.26467077089826
 20
-4.048263582289533
 30
0.0
 10
-64.4369724425252
 20
-4.237190549186965
 30
0.0
 10
-64.65717556603778
 20
-4.241221554826192
 30
0.0
 10
-64.88151889715891
 20
-4.245328350490299
 30
0.0
 10
-65.06467168052953
 20
-4.064699646003559
 30
0.0
 10
-65.06467168052953
 20
-3.841291324062336
 30
0.0
 10
-65.06467168052953
 20
-3.841291324062336
 30
0.0
 10
-65.28467117184823
 20
-3.841291324062336
 30
0.0
 10
-65.28467117184823
 20
-3.841291324062336
 30
0.0
 10
-65.28467117184823
 20
-4.064698082145525
 30
0.0
 10
-65.4678213910892
 20
-4.245325821686703
 30
0.0
 10
-65.69216480194973
 20
-4.24122164053806
 30
0.0
 10
-65.91236835982049
 20
-4.237193194649522
 30
0.0
 10
-66.08467208162875
 20
-4.048267194318069
 30
0.0
 10
-66.08467207402045
 20
-3.828026790951099
 30
0.0
 10
-66.08467207402045
 20
-3.828026790951099
 30
0.0
 10
-66.08467188215494
 20
1.725994527776059
 30
0.0
 10
-66.08467188215494
 20
1.725994527776059
 30
0.0
 10
-66.08467187262859
 20
2.001759042852747
 30
0.0
 10
-66.23113630209458
 20
2.256773102773939
 30
0.0
 10
-66.46932925464863
 20
2.39573419491503
 30
0.0
 10
-66.46932925464863
 20
2.39573419491503
 30
0.0
 10
-69.90005352269348
 20
4.397208990918169
 30
0.0
 10
-69.90005352269348
 20
4.397208990918169
 30
0.0
 10
-70.41696664376448
 20
4.698774637911028
 30
0.0
 10
-71.06615932882974
 20
4.325918158375194
 30
0.0
 10
-71.06615930393092
 20
3.727469318304735
 30
0.0
 10
-71.06615930393092
 20
3.727469318304735
 30
0.0
 10
-71.06615915455507
 20
0.1371758310968628
 30
0.0
 10
-71.06615915455507
 20
0.1371758310968628
 30
0.0
 10
-71.06615914539185
 20
-0.0830641848194149
 30
0.0
 10
-71.23846081701956
 20
-0.2719911517137669
 30
0.0
 10
-71.45866394053137
 20
-0.2760221573528647
 30
0.0
 10
-71.6830072716523
 20
-0.2801289530167159
 30
0.0
 10
-71.86616005502273
 20
-0.099500248530104
 30
0.0
 10
-71.86616005502273
 20
0.1239080734109907
 30
0.0
 10
-71.86616005502273
 20
0.1239080734109907
 30
0.0
 10
-72.08615954634143
 20
0.1239080734109907
 30
0.0
 10
-72.08615954634143
 20
0.1239080734109907
 30
0.0
 10
-72.08615954634143
 20
-0.0994986846720697
 30
0.0
 10
-72.26930976558228
 20
-0.2801264242132482
 30
0.0
 10
-72.49365317644273
 20
-0.2760222430647337
 30
0.0
 10
-72.71385673431293
 20
-0.2719937971763232
 30
0.0
 10
-72.8861604561217
 20
-0.0830677968469246
 30
0.0
 10
-72.88616044851679
 20
0.1371726065194044
 30
0.0
 10
-72.88616044851679
 20
0.1371726065194044
 30
0.0
 10
-72.88616025664133
 20
5.693962747514764
 30
0.0
 10
-72.88616025664133
 20
5.693962747514764
 30
0.0
 10
-72.88616024711916
 20
5.969727355611503
 30
0.0
 10
-73.03262477458127
 20
6.224741486949307
 30
0.0
 10
-73.2708178541742
 20
6.363702545929059
 30
0.0
 10
-73.2708178541742
 20
6.363702545929059
 30
0.0
 10
-76.12222240476167
 20
8.02720257962744
 30
0.0
 10
-76.12222240476167
 20
8.02720257962744
 30
0.0
 10
-76.29423817552487
 20
8.127543138820021
 30
0.0
 10
-76.51185409140471
 20
8.125628957641029
 30
0.0
 10
-76.67378649831953
 20
8.00971656685512
 30
0.0
 10
-76.80982685947801
 20
7.912336636595176
 30
0.0
 10
-76.88467155889505
 20
7.759417460743649
 30
0.0
 10
-76.88467155889505
 20
7.601444760452196
 30
0.0
 10
-76.88467155889505
 20
7.601444760452196
 30
0.0
 10
-76.88467155889505
 20
-5.464447816305286
 30
0.0
 10
-76.88467155889505
 20
-5.464447816305286
 30
0.0
 10
-76.88467155889505
 20
-5.767306736892658
 30
0.0
 10
-76.72380912406761
 20
-6.047374146428714
 30
0.0
 10
-76.4622059590929
 20
-6.199975948038637
 30
0.0
 10
-76.4622059590929
 20
-6.199975948038637
 30
0.0
 10
-69.09914250332143
 20
-10.49509504121485
 30
0.0
 10
-69.09914250332143
 20
-10.49509504121485
 30
0.0
 10
-68.7805672829129
 20
-10.68093053210923
 30
0.0
 10
-68.58467215436741
 20
-11.02199114860008
 30
0.0
 10
-68.58467215436741
 20
-11.3908068217138
 30
0.0
 10
-68.58467215436741
 20
-11.3908068217138
 30
0.0
 10
-68.58467215436741
 20
-33.20100655381008
 30
0.0
 10
-68.58467215436741
 20
-33.20100655381008
 30
0.0
 10
-68.58467215436741
 20
-33.67190804295016
 30
0.0
 10
-68.90197406129764
 20
-34.08369169356337
 30
0.0
 10
-69.35732525069118
 20
-34.20371882026947
 30
0.0
 10
-69.35732525069118
 20
-34.20371882026947
 30
0.0
 10
-76.25019478293063
 20
-36.02065787282088
 30
0.0
 10
-76.25019478293063
 20
-36.02065787282088
 30
0.0
 10
-76.62411300555846
 20
-36.11922155779645
 30
0.0
 10
-76.88467155889505
 20
-36.45736276781732
 30
0.0
 10
-76.88467155889505
 20
-36.84405338990317
 30
0.0
 10
-76.88467155889505
 20
-36.84405338990317
 30
0.0
 10
-76.88467155889505
 20
-41.5268635531392
 30
0.0
 10
-76.88467155889505
 20
-41.5268635531392
 30
0.0
 10
-76.88467155889505
 20
-42.07979479989307
 30
0.0
 10
-76.43643221941917
 20
-42.52803413936895
 30
0.0
 10
-75.88350097266532
 20
-42.52803413936895
 30
0.0
 10
-75.88350097266532
 20
-42.52803413936895
 30
0.0
 10
-21.88584733015887
 20
-42.52803413936895
 30
0.0
 10
-21.88584733015887
 20
-42.52803413936895
 30
0.0
 10
-21.33291132672079
 20
-42.52803413936895
 30
0.0
 10
-20.88466813119042
 20
-42.07979094383858
 30
0.0
 10
-20.88466813119042
 20
-41.52685494040049
 30
0.0
  0
ENDBLK
  5
BC
330
B9
100
AcDbEntity
  8
0
100
AcDbBlockEnd
  0
BLOCK
  5
C4
330
C2
100
AcDbEntity
  8
0
100
AcDbBlockBegin
  2
BLOCK_22
 70
     0
 10
0.0
 20
0.0
 30
0.0
  3
BLOCK_22
  1

  0
SPLINE
  5
C6
330
C2
100
AcDbEntity
  8
0
 62
     7
100
AcDbSpline
210
0.0
220
0.0
230
1.0
 70
    11
 71
     3
 72
    83
 73
    79
 74
     0
 42
0.0000000001
 43
0.0000000001
 12
1.0
 22
0.0
 32
0.0
 13
1.0
 23
0.0
 33
0.0
 40
0.0
 40
0.0
 40
0.0
 40
0.0
 40
1.0
 40
1.0
 40
1.0
 40
2.0
 40
2.0
 40
2.0
 40
3.0
 40
3.0
 40
3.0
 40
4.0
 40
4.0
 40
4.0
 40
5.0
 40
5.0
 40
5.0
 40
6.0
 40
6.0
 40
6.0
 40
7.0
 40
7.0
 40
7.0
 40
8.0
 40
8.0
 40
8.0
 40
9.0
 40
9.0
 40
9.0
 40
10.0
 40
10.0
 40
10.0
 40
11.0
 40
11.0
 40
11.0
 40
12.0
 40
12.0
 40
12.0
 40
13.0
 40
13.0
 40
13.0
 40
14.0
 40
14.0
 40
14.0
 40
15.0
 40
15.0
 40
15.0
 40
16.0
 40
16.0
 40
16.0
 40
17.0
 40
17.0
 40
17.0
 40
18.0
 40
18.0
 40
18.0
 40
19.0
 40
19.0
 40
19.0
 40
20.0
 40
20.0
 40
20.0
 40
21.0
 40
21.0
 40
21.0
 40
22.0
 40
22.0
 40
22.0
 40
23.0
 40
23.0
 40
23.0
 40
24.0
 40
24.0
 40
24.0
 40
25.0
 40
25.0
 40
25.0
 40
26.0
 40
26.0
 40
26.0
 40
26.0
 10
-53.16409631699547
 20
-31.50706543416499
 30
0.0
 10
-53.16409631699547
 20
-31.50706543416499
 30
0.0
 10
-53.78621737792734
 20
-31.5070654342017
 30
0.0
 10
-53.78621737792734
 20
-31.5070654342017
 30
0.0
 10
-53.97988316257047
 20
-31.50706543421312
 30
0.0
 10
-54.16562805600371
 20
-31.43018425011048
 30
0.0
 10
-54.30264201009773
 20
-31.29331346241287
 30
0.0
 10
-54.30264201009773
 20
-31.29331346241287
 30
0.0
 10
-55.97941247427091
 20
-29.61829506201025
 30
0.0
 10
-55.97941247427091
 20
-29.61829506201025
 30
0.0
 10
-56.10004512409849
 20
-29.49778846169266
 30
0.0
 10
-56.26358247206105
 20
-29.43009914477504
 30
0.0
 10
-56.43409369434428
 20
-29.43009914477504
 30
0.0
 10
-56.43409369434428
 20
-29.43009914477504
 30
0.0
 10
-61.06839225962644
 20
-29.43009914477504
 30
0.0
 10
-61.06839225962644
 20
-29.43009914477504
 30
0.0
 10
-61.31148952840337
 20
-29.43009914477504
 30
0.0
 10
-61.50855880206922
 20
-29.2330298711092
 30
0.0
 10
-61.50855880206922
 20
-28.98993260233233
 30
0.0
 10
-61.50855880206922
 20
-28.98993260233233
 30
0.0
 10
-61.50855880206922
 20
-27.98139033984468
 30
0.0
 10
-61.50855880206922
 20
-27.98139033984468
 30
0.0
 10
-61.50855880206922
 20
-27.73829307106782
 30
0.0
 10
-61.31148952840337
 20
-27.54122379740197
 30
0.0
 10
-61.06839225962644
 20
-27.54122379740197
 30
0.0
 10
-61.06839225962644
 20
-27.54122379740197
 30
0.0
 10
-56.44495827907439
 20
-27.54122379740197
 30
0.0
 10
-56.44495827907439
 20
-27.54122379740197
 30
0.0
 10
-56.26749018870957
 20
-27.54122379740197
 30
0.0
 10
-56.0972805071554
 20
-27.47077275230003
 30
0.0
 10
-55.97172603798985
 20
-27.34534947547189
 30
0.0
 10
-55.97172603798985
 20
-27.34534947547189
 30
0.0
 10
-54.248249096575
 20
-25.62367340160141
 30
0.0
 10
-54.248249096575
 20
-25.62367340160141
 30
0.0
 10
-54.14695110707085
 20
-25.52248125874783
 30
0.0
 10
-54.09003358281826
 20
-25.38517171610335
 30
0.0
 10
-54.09003358281826
 20
-25.24198955082817
 30
0.0
 10
-54.09003358281826
 20
-25.24198955082817
 30
0.0
 10
-54.09003358281826
 20
-21.11152891946609
 30
0.0
 10
-54.09003358281826
 20
-21.11152891946609
 30
0.0
 10
-54.09003358281826
 20
-20.88401316016402
 30
0.0
 10
-53.90559561830441
 20
-20.69957519564308
 30
0.0
 10
-53.67807985900229
 20
-20.69957519563436
 30
0.0
 10
-53.67807985900229
 20
-20.69957519563436
 30
0.0
 10
-46.43713415027027
 20
-20.69957519535804
 30
0.0
 10
-46.43713415027027
 20
-20.69957519535804
 30
0.0
 10
-46.21730631402433
 20
-20.6995751953497
 30
0.0
 10
-46.03910064252675
 20
-20.87778086684047
 30
0.0
 10
-46.03910064252675
 20
-21.09760870308641
 30
0.0
 10
-46.03910064252675
 20
-21.09760870308641
 30
0.0
 10
-46.03910064252675
 20
-22.32051732186449
 30
0.0
 10
-46.03910064252675
 20
-22.32051732186449
 30
0.0
 10
-46.03910064252675
 20
-22.5379805106139
 30
0.0
 10
-46.21538938847412
 20
-22.71426925656126
 30
0.0
 10
-46.43285257722352
 20
-22.71426925656126
 30
0.0
 10
-46.43285257722352
 20
-22.71426925656126
 30
0.0
 10
-52.14719217362391
 20
-22.71426925656126
 30
0.0
 10
-52.14719217362391
 20
-22.71426925656126
 30
0.0
 10
-52.37908647776797
 20
-22.71426925656126
 30
0.0
 10
-52.56707395420018
 20
-22.90225673299349
 30
0.0
 10
-52.56707395420018
 20
-23.13415103713762
 30
0.0
 10
-52.56707395420018
 20
-23.13415103713762
 30
0.0
 10
-52.56707395420018
 20
-25.64886669228749
 30
0.0
 10
-52.56707395420018
 20
-25.64886669228749
 30
0.0
 10
-52.56707395420018
 20
-25.78077177553569
 30
0.0
 10
-52.61950863250239
 20
-25.90726676615471
 30
0.0
 10
-52.71282835366138
 20
-26.00048897718576
 30
0.0
 10
-52.71282835366138
 20
-26.00048897718576
 30
0.0
 10
-54.85295145253595
 20
-28.13837585337798
 30
0.0
 10
-54.85295145253595
 20
-28.13837585337798
 30
0.0
 10
-55.04489712692441
 20
-28.33012096300867
 30
0.0
 10
-55.04489712678645
 20
-28.64121399647712
 30
0.0
 10
-54.85295145246059
 20
-28.83295910617057
 30
0.0
 10
-54.85295145246059
 20
-28.83295910617057
 30
0.0
 10
-52.87526301891099
 20
-30.80946519713389
 30
0.0
 10
-52.87526301891099
 20
-30.80946519713389
 30
0.0
 10
-52.6177444347185
 20
-31.06682982624246
 30
0.0
 10
-52.8000188890757
 20
-31.50706543414356
 30
0.0
 10
-53.16409631699547
 20
-31.50706543416499
 30
0.0
  0
ENDBLK
  5
C5
330
C2
100
AcDbEntity
  8
0
100
AcDbBlockEnd
  0
ENDSEC
  0
SECTION
  2
ENTITIES
  0
SPLINE
  5
41
330
1F
100
AcDbEntity
  8
0
 62
     7
100
AcDbSpline
210
0.0
220
0.0
230
1.0
 70
    11
 71
     3
 72
    44
 73
    40
 74
     0
 42
0.0000000001
 43
0.0000000001
 12
1.0
 22
0.0
 32
0.0
 13
1.0
 23
0.0
 33
0.0
 40
0.0
 40
0.0
 40
0.0
 40
0.0
 40
1.0
 40
1.0
 40
1.0
 40
2.0
 40
2.0
 40
2.0
 40
3.0
 40
3.0
 40
3.0
 40
4.0
 40
4.0
 40
4.0
 40
5.0
 40
5.0
 40
5.0
 40
6.0
 40
6.0
 40
6.0
 40
7.0
 40
7.0
 40
7.0
 40
8.0
 40
8.0
 40
8.0
 40
9.0
 40
9.0
 40
9.0
 40
10.0
 40
10.0
 40
10.0
 40
11.0
 40
11.0
 40
11.0
 40
12.0
 40
12.0
 40
12.0
 40
13.0
 40
13.0
 40
13.0
 40
13.0
 10
-63.30855229120255
 20
100.0712662251394
 30
0.0
 10
-63.30855229120255
 20
100.0712662251394
 30
0.0
 10
-63.30855229120255
 20
106.7712706993759
 30
0.0
 10
-63.30855229120255
 20
106.7712706993759
 30
0.0
 10
-63.5294690391942
 20
106.7712706993759
 30
0.0
 10
-63.70856232799491
 20
106.9503553754379
 30
0.0
 10
-63.70856232799491
 20
107.1712678170601
 30
0.0
 10
-63.70856232799491
 20
107.3921802586824
 30
0.0
 10
-63.5294690391942
 20
107.5712649347444
 30
0.0
 10
-63.30855229120255
 20
107.5712649347444
 30
0.0
 10
-63.30855229120255
 20
107.5712649347444
 30
0.0
 10
-61.50855880206922
 20
107.5712649347444
 30
0.0
 10
-61.50855880206922
 20
107.5712649347444
 30
0.0
 10
-61.50855880206922
 20
107.5712649347444
 30
0.0
 10
-61.50855880206922
 20
112.5712698163069
 30
0.0
 10
-61.50855880206922
 20
112.5712698163069
 30
0.0
 10
-61.50855880206922
 20
112.5712698163069
 30
0.0
 10
-61.50855880206922
 20
117.5712660851307
 30
0.0
 10
-61.50855880206922
 20
117.5712660851307
 30
0.0
 10
-61.50855880206922
 20
117.5712660851307
 30
0.0
 10
-63.30855229120255
 20
117.5712660851307
 30
0.0
 10
-63.30855229120255
 20
117.5712660851307
 30
0.0
 10
-63.5294690391942
 20
117.5712660851307
 30
0.0
 10
-63.70856232799491
 20
117.7503507611927
 30
0.0
 10
-63.70856232799491
 20
117.9712675091844
 30
0.0
 10
-63.70856232799491
 20
118.192184257176
 30
0.0
 10
-63.5294690391942
 20
118.371268933238
 30
0.0
 10
-63.30855229120255
 20
118.371268933238
 30
0.0
 10
-63.30855229120255
 20
118.371268933238
 30
0.0
 10
-63.30855229120255
 20
125.0712669479204
 30
0.0
 10
-63.30855229120255
 20
125.0712669479204
 30
0.0
 10
-63.30855229120255
 20
125.0712669479204
 30
0.0
 10
-73.30856205432755
 20
125.0712669479204
 30
0.0
 10
-73.30856205432755
 20
125.0712669479204
 30
0.0
 10
-73.30856205432755
 20
125.0712669479204
 30
0.0
 10
-73.30856205432755
 20
100.0712662251394
 30
0.0
 10
-73.30856205432755
 20
100.0712662251394
 30
0.0
 10
-73.30856205432755
 20
100.0712662251394
 30
0.0
 10
-63.30855229120255
 20
100.0712662251394
 30
0.0
 10
-63.30855229120255
 20
100.0712662251394
 30
0.0
  0
INSERT
  5
43
330
1F
100
AcDbEntity
  8
0
100
AcDbBlockReference
  2
BLOCK_2
 10
0.0
 20
0.0
 30
0.0
  0
INSERT
  5
48
330
1F
100
AcDbEntity
  8
0
100
AcDbBlockReference
  2
BLOCK_3
 10
0.0
 20
0.0
 30
0.0
  0
INSERT
  5
50
330
1F
100
AcDbEntity
  8
0
100
AcDbBlockReference
  2
BLOCK_4
 10
0.0
 20
0.0
 30
0.0
  0
INSERT
  5
58
330
1F
100
AcDbEntity
  8
0
100
AcDbBlockReference
  2
BLOCK_5
 10
0.0
 20
0.0
 30
0.0
  0
INSERT
  5
60
330
1F
100
AcDbEntity
  8
0
100
AcDbBlockReference
  2
BLOCK_6
 10
0.0
 20
0.0
 30
0.0
  0
INSERT
  5
68
330
1F
100
AcDbEntity
  8
0
100
AcDbBlockReference
  2
BLOCK_7
 10
0.0
 20
0.0
 30
0.0
  0
INSERT
  5
6D
330
1F
100
AcDbEntity
  8
0
100
AcDbBlockReference
  2
BLOCK_8
 10
0.0
 20
0.0
 30
0.0
  0
INSERT
  5
72
330
1F
100
AcDbEntity
  8
0
100
AcDbBlockReference
  2
BLOCK_9
 10
0.0
 20
0.0
 30
0.0
  0
INSERT
  5
7A
330
1F
100
AcDbEntity
  8
0
100
AcDbBlockReference
  2
BLOCK_10
 10
0.0
 20
0.0
 30
0.0
  0
INSERT
  5
82
330
1F
100
AcDbEntity
  8
0
100
AcDbBlockReference
  2
BLOCK_11
 10
0.0
 20
0.0
 30
0.0
  0
INSERT
  5
87
330
1F
100
AcDbEntity
  8
0
100
AcDbBlockReference
  2
BLOCK_12
 10
0.0
 20
0.0
 30
0.0
  0
SPLINE
  5
8B
330
1F
100
AcDbEntity
  8
0
 62
     7
100
AcDbSpline
210
0.0
220
0.0
230
1.0
 70
     8
 71
     3
 72
    71
 73
    67
 74
     0
 42
0.0000000001
 43
0.0000000001
 12
1.0
 22
0.0
 32
0.0
 13
1.0
 23
0.0
 33
0.0
 40
0.0
 40
0.0
 40
0.0
 40
0.0
 40
1.0
 40
1.0
 40
1.0
 40
2.0
 40
2.0
 40
2.0
 40
3.0
 40
3.0
 40
3.0
 40
4.0
 40
4.0
 40
4.0
 40
5.0
 40
5.0
 40
5.0
 40
6.0
 40
6.0
 40
6.0
 40
7.0
 40
7.0
 40
7.0
 40
8.0
 40
8.0
 40
8.0
 40
9.0
 40
9.0
 40
9.0
 40
10.0
 40
10.0
 40
10.0
 40
11.0
 40
11.0
 40
11.0
 40
12.0
 40
12.0
 40
12.0
 40
13.0
 40
13.0
 40
13.0
 40
14.0
 40
14.0
 40
14.0
 40
15.0
 40
15.0
 40
15.0
 40
16.0
 40
16.0
 40
16.0
 40
17.0
 40
17.0
 40
17.0
 40
18.0
 40
18.0
 40
18.0
 40
19.0
 40
19.0
 40
19.0
 40
20.0
 40
20.0
 40
20.0
 40
21.0
 40
21.0
 40
21.0
 40
22.0
 40
22.0
 40
22.0
 40
22.0
 10
2.351553743943645
 20
35.97196586063253
 30
0.0
 10
2.351553743943645
 20
35.97196586063253
 30
0.0
 10
2.351553743942298
 20
24.07196593562305
 30
0.0
 10
2.351553743942298
 20
24.07196593562305
 30
0.0
 10
2.351553743942234
 20
23.90628048139978
 30
0.0
 10
2.48586836471087
 20
23.77196589423974
 30
0.0
 10
2.651553818934146
 20
23.77196593569799
 30
0.0
 10
2.651553818934146
 20
23.77196593569799
 30
0.0
 10
6.551553395831818
 20
23.7719669115672
 30
0.0
 10
6.551553395831818
 20
23.7719669115672
 30
0.0
 10
6.551553395831818
 20
23.99537290507137
 30
0.0
 10
6.734705931704188
 20
24.17600374306445
 30
0.0
 10
6.959049027528917
 20
24.17189695782589
 30
0.0
 10
7.179252471890821
 20
24.16786595231854
 30
0.0
 10
7.351554197802793
 20
23.97893829748515
 30
0.0
 10
7.351554197802793
 20
23.75869796077492
 30
0.0
 10
7.351554197802793
 20
23.75869796077492
 30
0.0
 10
7.351554197802793
 20
21.98523373739377
 30
0.0
 10
7.351554197802793
 20
21.98523373739377
 30
0.0
 10
7.351554197802793
 20
21.7649934118346
 30
0.0
 10
7.17925247888303
 20
21.57606577862018
 30
0.0
 10
6.959049045845189
 20
21.57203476376583
 30
0.0
 10
6.734705941673047
 20
21.56792796864056
 30
0.0
 10
6.551553395831818
 20
21.74855878580685
 30
0.0
 10
6.551553395831818
 20
21.97196696287983
 30
0.0
 10
6.551553395831818
 20
21.97196696287983
 30
0.0
 10
2.651553665135185
 20
21.97196593936319
 30
0.0
 10
2.651553665135185
 20
21.97196593936319
 30
0.0
 10
2.485868270974169
 20
21.97196589588063
 30
0.0
 10
2.351553743942234
 20
21.8376513335992
 30
0.0
 10
2.351553743942234
 20
21.67196593943819
 30
0.0
 10
2.351553743942234
 20
21.67196593943819
 30
0.0
 10
2.351553743942234
 20
-8.028034139368824
 30
0.0
 10
2.351553743942234
 20
-8.028034139368824
 30
0.0
 10
2.351553743942234
 20
-8.028034139368824
 30
0.0
 10
2.351553517845096
 20
-37.72803304086222
 30
0.0
 10
2.351553517845096
 20
-37.72803304086222
 30
0.0
 10
2.351553516583772
 20
-37.89371846666189
 30
0.0
 10
2.485868091970425
 20
-38.02803304307103
 30
0.0
 10
2.651553517770092
 20
-38.02803304307103
 30
0.0
 10
2.651553517770092
 20
-38.02803304307103
 30
0.0
 10
6.551553395831818
 20
-38.02803304307103
 30
0.0
 10
6.551553395831818
 20
-38.02803304307103
 30
0.0
 10
6.551553395831818
 20
-37.80462704956685
 30
0.0
 10
6.734705931704188
 20
-37.62399621157371
 30
0.0
 10
6.959049027528917
 20
-37.62810299681233
 30
0.0
 10
7.179252471890821
 20
-37.63213400231969
 30
0.0
 10
7.351554197802793
 20
-37.82106165715301
 30
0.0
 10
7.351554197802793
 20
-38.0413019938633
 30
0.0
 10
7.351554197802793
 20
-38.0413019938633
 30
0.0
 10
7.351554197802793
 20
-39.81476621724433
 30
0.0
 10
7.351554197802793
 20
-39.81476621724433
 30
0.0
 10
7.351554197802793
 20
-40.03500654280349
 30
0.0
 10
7.17925247888303
 20
-40.22393417601804
 30
0.0
 10
6.959049045845189
 20
-40.22796519087239
 30
0.0
 10
6.734705941673047
 20
-40.23207198599766
 30
0.0
 10
6.551553395831818
 20
-40.05144116883131
 30
0.0
 10
6.551553395831818
 20
-39.8280329917584
 30
0.0
 10
6.551553395831818
 20
-39.8280329917584
 30
0.0
 10
2.651553661895182
 20
-39.82803405739668
 30
0.0
 10
2.651553661895182
 20
-39.82803405739668
 30
0.0
 10
2.485868268999404
 20
-39.82803410266861
 30
0.0
 10
2.351553743942234
 20
-39.96234866442609
 30
0.0
 10
2.351553743942362
 20
-40.12803405732186
 30
0.0
 10
2.351553743942362
 20
-40.12803405732186
 30
0.0
 10
2.351553743943581
 20
-42.02803413937021
 30
0.0
 10
2.351553743943581
 20
-42.02803413937021
 30
0.0
  0
INSERT
  5
8D
330
1F
100
AcDbEntity
  8
0
100
AcDbBlockReference
  2
BLOCK_13
 10
0.0
 20
0.0
 30
0.0
  0
INSERT
  5
A1
330
1F
100
AcDbEntity
  8
0
100
AcDbBlockReference
  2
BLOCK_17
 10
0.0
 20
0.0
 30
0.0
  0
INSERT
  5
BA
330
1F
100
AcDbEntity
  8
0
100
AcDbBlockReference
  2
BLOCK_21
 10
0.0
 20
0.0
 30
0.0
  0
SPLINE
  5
C8
330
1F
100
AcDbEntity
  8
0
 62
     7
100
AcDbSpline
210
0.0
220
0.0
230
1.0
 70
    11
 71
     3
 72
    92
 73
    88
 74
     0
 42
0.0000000001
 43
0.0000000001
 12
1.0
 22
0.0
 32
0.0
 13
1.0
 23
0.0
 33
0.0
 40
0.0
 40
0.0
 40
0.0
 40
0.0
 40
1.0
 40
1.0
 40
1.0
 40
2.0
 40
2.0
 40
2.0
 40
3.0
 40
3.0
 40
3.0
 40
4.0
 40
4.0
 40
4.0
 40
5.0
 40
5.0
 40
5.0
 40
6.0
 40
6.0
 40
6.0
 40
7.0
 40
7.0
 40
7.0
 40
8.0
 40
8.0
 40
8.0
 40
9.0
 40
9.0
 40
9.0
 40
10.0
 40
10.0
 40
10.0
 40
11.0
 40
11.0
 40
11.0
 40
12.0
 40
12.0
 40
12.0
 40
13.0
 40
13.0
 40
13.0
 40
14.0
 40
14.0
 40
14.0
 40
15.0
 40
15.0
 40
15.0
 40
16.0
 40
16.0
 40
16.0
 40
17.0
 40
17.0
 40
17.0
 40
18.0
 40
18.0
 40
18.0
 40
19.0
 40
19.0
 40
19.0
 40
20.0
 40
20.0
 40
20.0
 40
21.0
 40
21.0
 40
21.0
 40
22.0
 40
22.0
 40
22.0
 40
23.0
 40
23.0
 40
23.0
 40
24.0
 40
24.0
 40
24.0
 40
25.0
 40
25.0
 40
25.0
 40
26.0
 40
26.0
 40
26.0
 40
27.0
 40
27.0
 40
27.0
 40
28.0
 40
28.0
 40
28.0
 40
29.0
 40
29.0
 40
29.0
 40
29.0
 10
7.351553021161231
 20
161.8712730761445
 30
0.0
 10
7.351553021161231
 20
161.8712730761445
 30
0.0
 10
7.351553021161231
 20
111.8712673242131
 30
0.0
 10
7.351553021161231
 20
111.8712673242131
 30
0.0
 10
7.351553021161231
 20
111.8712673242131
 30
0.0
 10
12.77468453022211
 20
111.8712673242131
 30
0.0
 10
14.05155749539769
 20
111.8712673242131
 30
0.0
 10
14.05155749539769
 20
112.0921840722047
 30
0.0
 10
14.23064217145969
 20
112.2712687482667
 30
0.0
 10
14.45155461308198
 20
112.2712687482667
 30
0.0
 10
14.67246705470427
 20
112.2712687482667
 30
0.0
 10
14.85155173076627
 20
112.0921840722047
 30
0.0
 10
14.85155173076627
 20
111.8712673242131
 30
0.0
 10
14.85155173076627
 20
111.8712673242131
 30
0.0
 10
14.85155173076627
 20
110.071265222341
 30
0.0
 10
14.85155173076627
 20
110.071265222341
 30
0.0
 10
14.85155173076627
 20
110.071265222341
 30
0.0
 10
17.85155379842989
 20
110.071265222341
 30
0.0
 10
17.85155379842989
 20
110.071265222341
 30
0.0
 10
17.85155379842989
 20
110.071265222341
 30
0.0
 10
17.85155379842989
 20
111.8712673242131
 30
0.0
 10
17.85155379842989
 20
111.8712673242131
 30
0.0
 10
17.85155379842989
 20
112.0921840722047
 30
0.0
 10
18.03064278086125
 20
112.2712687482667
 30
0.0
 10
18.25155522248354
 20
112.2712687482667
 30
0.0
 10
18.47246766410583
 20
112.2712687482667
 30
0.0
 10
18.65155234016783
 20
112.0921840722047
 30
0.0
 10
18.65155234016783
 20
111.8712673242131
 30
0.0
 10
18.65155234016783
 20
111.8712673242131
 30
0.0
 10
21.05155227175099
 20
111.8712673242131
 30
0.0
 10
21.05155227175099
 20
111.8712673242131
 30
0.0
 10
21.05155227175099
 20
112.0921840722047
 30
0.0
 10
21.23064125418234
 20
112.2712687482667
 30
0.0
 10
21.45155369580463
 20
112.2712687482667
 30
0.0
 10
21.67247044379628
 20
112.2712687482667
 30
0.0
 10
21.85155511985828
 20
112.0921840722047
 30
0.0
 10
21.85155511985828
 20
111.8712673242131
 30
0.0
 10
21.85155511985828
 20
111.8712673242131
 30
0.0
 10
21.85155511985828
 20
110.071265222341
 30
0.0
 10
21.85155511985828
 20
110.071265222341
 30
0.0
 10
21.85155511985828
 20
110.071265222341
 30
0.0
 10
24.85155288115255
 20
110.071265222341
 30
0.0
 10
24.85155288115255
 20
110.071265222341
 30
0.0
 10
24.85155288115255
 20
110.071265222341
 30
0.0
 10
24.85155288115255
 20
111.8712673242131
 30
0.0
 10
24.85155288115255
 20
111.8712673242131
 30
0.0
 10
24.85155288115255
 20
112.0921840722047
 30
0.0
 10
25.03063755721455
 20
112.2712687482667
 30
0.0
 10
25.2515543052062
 20
112.2712687482667
 30
0.0
 10
25.47247105319784
 20
112.2712687482667
 30
0.0
 10
25.65155572925984
 20
112.0921840722047
 30
0.0
 10
25.65155572925984
 20
111.8712673242131
 30
0.0
 10
25.65155572925984
 20
111.8712673242131
 30
0.0
 10
32.35155374394226
 20
111.8712673242131
 30
0.0
 10
32.35155374394226
 20
111.8712673242131
 30
0.0
 10
32.35155374394226
 20
111.8712673242131
 30
0.0
 10
32.35155374394226
 20
161.8712730761445
 30
0.0
 10
32.35155374394226
 20
161.8712730761445
 30
0.0
 10
32.35155374394226
 20
161.8712730761445
 30
0.0
 10
24.85155288115255
 20
161.8712730761445
 30
0.0
 10
24.85155288115255
 20
161.8712730761445
 30
0.0
 10
24.85155288115255
 20
161.8712730761445
 30
0.0
 10
24.85155288115255
 20
160.0712623615337
 30
0.0
 10
24.85155288115255
 20
160.0712623615337
 30
0.0
 10
24.85155288115255
 20
159.8503456135421
 30
0.0
 10
24.67246820509055
 20
159.6712695502188
 30
0.0
 10
24.4515514570989
 20
159.6712695502188
 30
0.0
 10
24.23064332184597
 20
159.6712695502188
 30
0.0
 10
24.05155433941461
 20
159.8503456135421
 30
0.0
 10
24.05155433941461
 20
160.0712623615337
 30
0.0
 10
24.05155433941461
 20
160.0712623615337
 30
0.0
 10
19.85155661232876
 20
160.0712623615337
 30
0.0
 10
19.85155661232876
 20
160.0712623615337
 30
0.0
 10
19.85155661232876
 20
160.0712623615337
 30
0.0
 10
15.65155457887356
 20
160.0712623615337
 30
0.0
 10
15.65155457887356
 20
160.0712623615337
 30
0.0
 10
15.65155457887356
 20
159.8503456135421
 30
0.0
 10
15.47246990281156
 20
159.6712695502188
 30
0.0
 10
15.25155315481991
 20
159.6712695502188
 30
0.0
 10
15.03064071319762
 20
159.6712695502188
 30
0.0
 10
14.85155173076627
 20
159.8503456135421
 30
0.0
 10
14.85155173076627
 20
160.0712623615337
 30
0.0
 10
14.85155173076627
 20
160.0712623615337
 30
0.0
 10
14.85155173076627
 20
161.8712730761445
 30
0.0
 10
14.85155173076627
 20
161.8712730761445
 30
0.0
 10
14.85155173076627
 20
161.8712730761445
 30
0.0
 10
7.351553021161231
 20
161.8712730761445
 30
0.0
 10
7.351553021161231
 20
161.8712730761445
 30
0.0
  0
SPLINE
  5
C9
330
1F
100
AcDbEntity
  8
0
 62
     7
100
AcDbSpline
210
0.0
220
0.0
230
1.0
 70
    11
 71
     3
 72
    95
 73
    91
 74
     0
 42
0.0000000001
 43
0.0000000001
 12
1.0
 22
0.0
 32
0.0
 13
1.0
 23
0.0
 33
0.0
 40
0.0
 40
0.0
 40
0.0
 40
0.0
 40
1.0
 40
1.0
 40
1.0
 40
2.0
 40
2.0
 40
2.0
 40
3.0
 40
3.0
 40
3.0
 40
4.0
 40
4.0
 40
4.0
 40
5.0
 40
5.0
 40
5.0
 40
6.0
 40
6.0
 40
6.0
 40
7.0
 40
7.0
 40
7.0
 40
8.0
 40
8.0
 40
8.0
 40
9.0
 40
9.0
 40
9.0
 40
10.0
 40
10.0
 40
10.0
 40
11.0
 40
11.0
 40
11.0
 40
12.0
 40
12.0
 40
12.0
 40
13.0
 40
13.0
 40
13.0
 40
14.0
 40
14.0
 40
14.0
 40
15.0
 40
15.0
 40
15.0
 40
16.0
 40
16.0
 40
16.0
 40
17.0
 40
17.0
 40
17.0
 40
18.0
 40
18.0
 40
18.0
 40
19.0
 40
19.0
 40
19.0
 40
20.0
 40
20.0
 40
20.0
 40
21.0
 40
21.0
 40
21.0
 40
22.0
 40
22.0
 40
22.0
 40
23.0
 40
23.0
 40
23.0
 40
24.0
 40
24.0
 40
24.0
 40
25.0
 40
25.0
 40
25.0
 40
26.0
 40
26.0
 40
26.0
 40
27.0
 40
27.0
 40
27.0
 40
28.0
 40
28.0
 40
28.0
 40
29.0
 40
29.0
 40
29.0
 40
30.0
 40
30.0
 40
30.0
 40
30.0
 10
-48.66057041820076
 20
102.9159014239734
 30
0.0
 10
-48.66057041820076
 20
102.9159014239734
 30
0.0
 10
-48.66057041820076
 20
90.41590644554458
 30
0.0
 10
-48.66057041820076
 20
90.41590644554458
 30
0.0
 10
-48.66057041820076
 20
90.41590644554458
 30
0.0
 10
-28.66056811742818
 20
77.91590285437704
 30
0.0
 10
-28.66056811742818
 20
77.91590285437704
 30
0.0
 10
-28.66056811742818
 20
77.91590285437704
 30
0.0
 10
-8.660567969840296
 20
77.91590285437704
 30
0.0
 10
-8.660567969840296
 20
77.91590285437704
 30
0.0
 10
-8.660567969840296
 20
77.91590285437704
 30
0.0
 10
-8.660567969840296
 20
85.41590156398208
 30
0.0
 10
-8.660567969840296
 20
85.41590156398208
 30
0.0
 10
-8.660567969840296
 20
85.41590156398208
 30
0.0
 10
-10.46056791852767
 20
85.41590156398208
 30
0.0
 10
-10.46056791852767
 20
85.41590156398208
 30
0.0
 10
-10.68148251333463
 20
85.41590156398208
 30
0.0
 10
-10.86056934258131
 20
85.59498624004408
 30
0.0
 10
-10.86056934258131
 20
85.81590298803572
 30
0.0
 10
-10.86056934258131
 20
86.03681973602737
 30
0.0
 10
-10.68148251333463
 20
86.21590441208937
 30
0.0
 10
-10.46056791852767
 20
86.21590441208937
 30
0.0
 10
-10.46056791852767
 20
86.21590441208937
 30
0.0
 10
-10.46056791852767
 20
90.41590644554458
 30
0.0
 10
-10.46056791852767
 20
90.41590644554458
 30
0.0
 10
-10.46056791852767
 20
90.41590644554458
 30
0.0
 10
-10.46056791852767
 20
94.61589986626107
 30
0.0
 10
-10.46056791852767
 20
94.61589986626107
 30
0.0
 10
-10.68148251333463
 20
94.61589986626107
 30
0.0
 10
-10.86056934258131
 20
94.79499315506177
 30
0.0
 10
-10.86056934258131
 20
95.01590129031472
 30
0.0
 10
-10.86056934258131
 20
95.23681803830635
 30
0.0
 10
-10.68148251333463
 20
95.41590271436836
 30
0.0
 10
-10.46056791852767
 20
95.41590271436836
 30
0.0
 10
-10.46056791852767
 20
95.41590271436836
 30
0.0
 10
-8.660567969840296
 20
95.41590271436836
 30
0.0
 10
-8.660567969840296
 20
95.41590271436836
 30
0.0
 10
-8.660567969840296
 20
95.41590271436836
 30
0.0
 10
-8.660567969840296
 20
102.9159014239734
 30
0.0
 10
-8.660567969840296
 20
102.9159014239734
 30
0.0
 10
-8.660567969840296
 20
102.9159014239734
 30
0.0
 10
-15.72471903686766
 20
102.9159014239734
 30
0.0
 10
-15.72471903686766
 20
102.9159014239734
 30
0.0
 10
-15.72471903686766
 20
102.9159014239734
 30
0.0
 10
-15.72471903686766
 20
101.9159021702086
 30
0.0
 10
-15.72471903686766
 20
101.9159021702086
 30
0.0
 10
-15.50380444206069
 20
101.9159021702086
 30
0.0
 10
-15.32471976599869
 20
101.7368174941466
 30
0.0
 10
-15.32471976599869
 20
101.515900746155
 30
0.0
 10
-15.32471976599869
 20
101.2949926109021
 30
0.0
 10
-15.50380444206069
 20
101.1158993221013
 30
0.0
 10
-15.72471903686766
 20
101.1158993221013
 30
0.0
 10
-15.72471903686766
 20
101.1158993221013
 30
0.0
 10
-20.7247196120608
 20
101.1158993221013
 30
0.0
 10
-20.7247196120608
 20
101.1158993221013
 30
0.0
 10
-20.94563420686777
 20
101.1158993221013
 30
0.0
 10
-21.12471888292977
 20
101.2949926109021
 30
0.0
 10
-21.12471888292977
 20
101.515900746155
 30
0.0
 10
-21.12471888292977
 20
101.7368174941466
 30
0.0
 10
-20.94563420686777
 20
101.9159021702086
 30
0.0
 10
-20.7247196120608
 20
101.9159021702086
 30
0.0
 10
-20.7247196120608
 20
101.9159021702086
 30
0.0
 10
-20.7247196120608
 20
102.9159014239734
 30
0.0
 10
-20.7247196120608
 20
102.9159014239734
 30
0.0
 10
-20.7247196120608
 20
102.9159014239734
 30
0.0
 10
-35.72471918445555
 20
102.9159014239734
 30
0.0
 10
-35.72471918445555
 20
102.9159014239734
 30
0.0
 10
-35.72471918445555
 20
102.9159014239734
 30
0.0
 10
-35.72471918445555
 20
101.9159021702086
 30
0.0
 10
-35.72471918445555
 20
101.9159021702086
 30
0.0
 10
-35.5038024364639
 20
101.9159021702086
 30
0.0
 10
-35.3247177604019
 20
101.7368174941466
 30
0.0
 10
-35.3247177604019
 20
101.515900746155
 30
0.0
 10
-35.3247177604019
 20
101.2949926109021
 30
0.0
 10
-35.5038024364639
 20
101.1158993221013
 30
0.0
 10
-35.72471918445555
 20
101.1158993221013
 30
0.0
 10
-35.72471918445555
 20
101.1158993221013
 30
0.0
 10
-40.72471975964869
 20
101.1158993221013
 30
0.0
 10
-40.72471975964869
 20
101.1158993221013
 30
0.0
 10
-40.94563220127098
 20
101.1158993221013
 30
0.0
 10
-41.12471687733298
 20
101.2949926109021
 30
0.0
 10
-41.12471687733298
 20
101.515900746155
 30
0.0
 10
-41.12471687733298
 20
101.7368174941466
 30
0.0
 10
-40.94563220127098
 20
101.9159021702086
 30
0.0
 10
-40.72471975964869
 20
101.9159021702086
 30
0.0
 10
-40.72471975964869
 20
101.9159021702086
 30
0.0
 10
-40.72471975964869
 20
102.9159014239734
 30
0.0
 10
-40.72471975964869
 20
102.9159014239734
 30
0.0
 10
-40.72471975964869
 20
102.9159014239734
 30
0.0
 10
-48.66057041820076
 20
102.9159014239734
 30
0.0
 10
-48.66057041820076
 20
102.9159014239734
 30
0.0
  0
SPLINE
  5
CA
330
1F
100
AcDbEntity
  8
0
 62
     7
100
AcDbSpline
210
0.0
220
0.0
230
1.0
 70
    11
 71
     3
 72
   176
 73
   172
 74
     0
 42
0.0000000001
 43
0.0000000001
 12
1.0
 22
0.0
 32
0.0
 13
1.0
 23
0.0
 33
0.0
 40
0.0
 40
0.0
 40
0.0
 40
0.0
 40
1.0
 40
1.0
 40
1.0
 40
2.0
 40
2.0
 40
2.0
 40
3.0
 40
3.0
 40
3.0
 40
4.0
 40
4.0
 40
4.0
 40
5.0
 40
5.0
 40
5.0
 40
6.0
 40
6.0
 40
6.0
 40
7.0
 40
7.0
 40
7.0
 40
8.0
 40
8.0
 40
8.0
 40
9.0
 40
9.0
 40
9.0
 40
10.0
 40
10.0
 40
10.0
 40
11.0
 40
11.0
 40
11.0
 40
12.0
 40
12.0
 40
12.0
 40
13.0
 40
13.0
 40
13.0
 40
14.0
 40
14.0
 40
14.0
 40
15.0
 40
15.0
 40
15.0
 40
16.0
 40
16.0
 40
16.0
 40
17.0
 40
17.0
 40
17.0
 40
18.0
 40
18.0
 40
18.0
 40
19.0
 40
19.0
 40
19.0
 40
20.0
 40
20.0
 40
20.0
 40
21.0
 40
21.0
 40
21.0
 40
22.0
 40
22.0
 40
22.0
 40
23.0
 40
23.0
 40
23.0
 40
24.0
 40
24.0
 40
24.0
 40
25.0
 40
25.0
 40
25.0
 40
26.0
 40
26.0
 40
26.0
 40
27.0
 40
27.0
 40
27.0
 40
28.0
 40
28.0
 40
28.0
 40
29.0
 40
29.0
 40
29.0
 40
30.0
 40
30.0
 40
30.0
 40
31.0
 40
31.0
 40
31.0
 40
32.0
 40
32.0
 40
32.0
 40
33.0
 40
33.0
 40
33.0
 40
34.0
 40
34.0
 40
34.0
 40
35.0
 40
35.0
 40
35.0
 40
36.0
 40
36.0
 40
36.0
 40
37.0
 40
37.0
 40
37.0
 40
38.0
 40
38.0
 40
38.0
 40
39.0
 40
39.0
 40
39.0
 40
40.0
 40
40.0
 40
40.0
 40
41.0
 40
41.0
 40
41.0
 40
42.0
 40
42.0
 40
42.0
 40
43.0
 40
43.0
 40
43.0
 40
44.0
 40
44.0
 40
44.0
 40
45.0
 40
45.0
 40
45.0
 40
46.0
 40
46.0
 40
46.0
 40
47.0
 40
47.0
 40
47.0
 40
48.0
 40
48.0
 40
48.0
 40
49.0
 40
49.0
 40
49.0
 40
50.0
 40
50.0
 40
50.0
 40
51.0
 40
51.0
 40
51.0
 40
52.0
 40
52.0
 40
52.0
 40
53.0
 40
53.0
 40
53.0
 40
54.0
 40
54.0
 40
54.0
 40
55.0
 40
55.0
 40
55.0
 40
56.0
 40
56.0
 40
56.0
 40
57.0
 40
57.0
 40
57.0
 40
57.0
 10
-25.31619030586326
 20
151.3732361552919
 30
0.0
 10
-25.31619030586326
 20
151.3732361552919
 30
0.0
 10
-53.51619165515006
 20
151.3732361552919
 30
0.0
 10
-53.51619165515006
 20
151.3732361552919
 30
0.0
 10
-53.51619165515006
 20
151.3732361552919
 30
0.0
 10
-53.51619165515006
 20
144.2373840384778
 30
0.0
 10
-53.51619165515006
 20
144.2373840384778
 30
0.0
 10
-53.29528351989713
 20
144.2373840384778
 30
0.0
 10
-53.11619884383513
 20
144.0582993624158
 30
0.0
 10
-53.11619884383513
 20
143.8373826144242
 30
0.0
 10
-53.11619884383513
 20
143.6164701728019
 30
0.0
 10
-53.29528351989713
 20
143.4373854967399
 30
0.0
 10
-53.51619165515006
 20
143.4373854967399
 30
0.0
 10
-53.51619165515006
 20
143.4373854967399
 30
0.0
 10
-55.31619375702211
 20
143.4373854967399
 30
0.0
 10
-55.31619375702211
 20
143.4373854967399
 30
0.0
 10
-55.31619375702211
 20
143.4373854967399
 30
0.0
 10
-55.31619375702211
 20
138.4373849215468
 30
0.0
 10
-55.31619375702211
 20
138.4373849215468
 30
0.0
 10
-55.31619375702211
 20
138.4373849215468
 30
0.0
 10
-53.51619165515006
 20
138.4373849215468
 30
0.0
 10
-53.51619165515006
 20
138.4373849215468
 30
0.0
 10
-53.29528351989713
 20
138.4373849215468
 30
0.0
 10
-53.11619884383513
 20
138.2583002454847
 30
0.0
 10
-53.11619884383513
 20
138.0373834974931
 30
0.0
 10
-53.11619884383513
 20
137.8164710558708
 30
0.0
 10
-53.29528351989713
 20
137.6373820734395
 30
0.0
 10
-53.51619165515006
 20
137.6373820734395
 30
0.0
 10
-53.51619165515006
 20
136.2842863706528
 30
0.0
 10
-53.51619165515006
 20
125.5904860532307
 30
0.0
 10
-53.51619165515006
 20
124.2373860440746
 30
0.0
 10
-53.29528351989713
 20
124.2373860440746
 30
0.0
 10
-53.11619884383513
 20
124.0582992148279
 30
0.0
 10
-53.11619884383513
 20
123.837384620021
 30
0.0
 10
-53.11619884383513
 20
123.6164721783987
 30
0.0
 10
-53.29528351989713
 20
123.437385349152
 30
0.0
 10
-53.51619165515006
 20
123.437385349152
 30
0.0
 10
-53.51619165515006
 20
123.437385349152
 30
0.0
 10
-55.31619375702211
 20
123.437385349152
 30
0.0
 10
-55.31619375702211
 20
123.437385349152
 30
0.0
 10
-55.31619375702211
 20
123.437385349152
 30
0.0
 10
-55.31619375702211
 20
118.4373847739589
 30
0.0
 10
-55.31619375702211
 20
118.4373847739589
 30
0.0
 10
-55.31619375702211
 20
118.4373847739589
 30
0.0
 10
-53.51619165515006
 20
118.4373847739589
 30
0.0
 10
-53.51619165515006
 20
118.4373847739589
 30
0.0
 10
-53.29528351989713
 20
118.4373847739589
 30
0.0
 10
-53.11619884383513
 20
118.2582979447122
 30
0.0
 10
-53.11619884383513
 20
118.0373855030899
 30
0.0
 10
-53.11619884383513
 20
117.8164709082829
 30
0.0
 10
-53.29528351989713
 20
117.6373840790363
 30
0.0
 10
-53.51619165515006
 20
117.6373840790363
 30
0.0
 10
-53.51619165515006
 20
117.6373840790363
 30
0.0
 10
-53.51619165515006
 20
111.3732337069315
 30
0.0
 10
-53.51619165515006
 20
111.3732337069315
 30
0.0
 10
-53.51619165515006
 20
111.3732337069315
 30
0.0
 10
-44.41619586206916
 20
111.3732337069315
 30
0.0
 10
-44.41619586206916
 20
111.3732337069315
 30
0.0
 10
-44.41619586206916
 20
111.3732337069315
 30
0.0
 10
-44.41619586206916
 20
112.3732351138809
 30
0.0
 10
-44.41619586206916
 20
112.3732351138809
 30
0.0
 10
-44.6371126100608
 20
112.3732351138809
 30
0.0
 10
-44.8161972861228
 20
112.5523197899429
 30
0.0
 10
-44.8161972861228
 20
112.7732343847499
 30
0.0
 10
-44.8161972861228
 20
112.9941489795569
 30
0.0
 10
-44.6371126100608
 20
113.1732336556189
 30
0.0
 10
-44.41619586206916
 20
113.1732336556189
 30
0.0
 10
-44.41619586206916
 20
113.1732336556189
 30
0.0
 10
-39.41619098050666
 20
113.1732336556189
 30
0.0
 10
-39.41619098050666
 20
113.1732336556189
 30
0.0
 10
-39.41619098050666
 20
113.1732336556189
 30
0.0
 10
-34.41619471168287
 20
113.1732336556189
 30
0.0
 10
-34.41619471168287
 20
113.1732336556189
 30
0.0
 10
-34.19528657642994
 20
113.1732336556189
 30
0.0
 10
-34.01619328762923
 20
112.9941489795569
 30
0.0
 10
-34.01619328762923
 20
112.7732343847499
 30
0.0
 10
-34.01619328762923
 20
112.5523197899429
 30
0.0
 10
-34.19528657642994
 20
112.3732351138809
 30
0.0
 10
-34.41619471168287
 20
112.3732351138809
 30
0.0
 10
-34.41619471168287
 20
112.3732351138809
 30
0.0
 10
-34.41619471168287
 20
111.3732337069315
 30
0.0
 10
-34.41619471168287
 20
111.3732337069315
 30
0.0
 10
-34.41619471168287
 20
111.3732337069315
 30
0.0
 10
-25.31619030586326
 20
111.3732337069315
 30
0.0
 10
-25.31619030586326
 20
111.3732337069315
 30
0.0
 10
-25.31619030586326
 20
111.3732337069315
 30
0.0
 10
-25.31619030586326
 20
115.1732343163331
 30
0.0
 10
-25.31619030586326
 20
115.1732343163331
 30
0.0
 10
-25.31619030586326
 20
115.1732343163331
 30
0.0
 10
-27.1161924077353
 20
115.1732343163331
 30
0.0
 10
-27.1161924077353
 20
115.1732343163331
 30
0.0
 10
-27.33710915572695
 20
115.1732343163331
 30
0.0
 10
-27.51619383178895
 20
115.3523211455798
 30
0.0
 10
-27.51619383178895
 20
115.573233587202
 30
0.0
 10
-27.51619383178895
 20
115.794148182009
 30
0.0
 10
-27.33710915572695
 20
115.9732350112557
 30
0.0
 10
-27.1161924077353
 20
115.9732350112557
 30
0.0
 10
-27.1161924077353
 20
115.9732350112557
 30
0.0
 10
-27.1161924077353
 20
118.173234230812
 30
0.0
 10
-27.1161924077353
 20
118.173234230812
 30
0.0
 10
-27.1161924077353
 20
118.173234230812
 30
0.0
 10
-27.1161924077353
 20
120.373235603553
 30
0.0
 10
-27.1161924077353
 20
120.373235603553
 30
0.0
 10
-27.33710915572695
 20
120.373235603553
 30
0.0
 10
-27.51619383178895
 20
120.552320279615
 30
0.0
 10
-27.51619383178895
 20
120.773234874422
 30
0.0
 10
-27.51619383178895
 20
120.994149469229
 30
0.0
 10
-27.33710915572695
 20
121.173234145291
 30
0.0
 10
-27.1161924077353
 20
121.173234145291
 30
0.0
 10
-27.1161924077353
 20
121.173234145291
 30
0.0
 10
-25.31619030586326
 20
121.173234145291
 30
0.0
 10
-25.31619030586326
 20
121.173234145291
 30
0.0
 10
-25.31619030586326
 20
121.173234145291
 30
0.0
 10
-25.31619030586326
 20
127.2732343302623
 30
0.0
 10
-25.31619030586326
 20
127.2732343302623
 30
0.0
 10
-25.31619030586326
 20
127.2732343302623
 30
0.0
 10
-27.1161924077353
 20
127.2732343302623
 30
0.0
 10
-27.1161924077353
 20
127.2732343302623
 30
0.0
 10
-27.33710915572695
 20
127.2732343302623
 30
0.0
 10
-27.51619383178895
 20
127.452321159509
 30
0.0
 10
-27.51619383178895
 20
127.6732357543159
 30
0.0
 10
-27.51619383178895
 20
127.8941481959382
 30
0.0
 10
-27.33710915572695
 20
128.0732371783696
 30
0.0
 10
-27.1161924077353
 20
128.0732371783696
 30
0.0
 10
-27.1161924077353
 20
128.0732371783696
 30
0.0
 10
-27.1161924077353
 20
131.4732363637175
 30
0.0
 10
-27.1161924077353
 20
131.4732363637175
 30
0.0
 10
-27.33710915572695
 20
131.4732363637175
 30
0.0
 10
-27.51619383178895
 20
131.6523210397795
 30
0.0
 10
-27.51619383178895
 20
131.8732377877711
 30
0.0
 10
-27.51619383178895
 20
132.0941459230241
 30
0.0
 10
-27.33710915572695
 20
132.2732349054554
 30
0.0
 10
-27.1161924077353
 20
132.2732349054554
 30
0.0
 10
-27.1161924077353
 20
132.2732349054554
 30
0.0
 10
-25.31619030586326
 20
132.2732349054554
 30
0.0
 10
-25.31619030586326
 20
132.2732349054554
 30
0.0
 10
-25.31619030586326
 20
132.2732349054554
 30
0.0
 10
-25.31619030586326
 20
142.2732317494724
 30
0.0
 10
-25.31619030586326
 20
142.2732317494724
 30
0.0
 10
-25.31619030586326
 20
142.2732317494724
 30
0.0
 10
-27.1161924077353
 20
142.2732317494724
 30
0.0
 10
-27.1161924077353
 20
142.2732317494724
 30
0.0
 10
-27.33710915572695
 20
142.2732317494724
 30
0.0
 10
-27.51619383178895
 20
142.4523207319037
 30
0.0
 10
-27.51619383178895
 20
142.673233173526
 30
0.0
 10
-27.51619383178895
 20
142.8941499215176
 30
0.0
 10
-27.33710915572695
 20
143.0732345975796
 30
0.0
 10
-27.1161924077353
 20
143.0732345975796
 30
0.0
 10
-27.1161924077353
 20
143.0732345975796
 30
0.0
 10
-27.1161924077353
 20
146.474990781625
 30
0.0
 10
-27.1161924077353
 20
146.474990781625
 30
0.0
 10
-27.1276731884399
 20
146.474000316673
 30
0.0
 10
-27.13923148379291
 20
146.4732337829276
 30
0.0
 10
-27.15096203392019
 20
146.4732337829276
 30
0.0
 10
-27.37187878191184
 20
146.4732337829276
 30
0.0
 10
-27.55096345797383
 20
146.6523184589896
 30
0.0
 10
-27.55096345797383
 20
146.8732352069812
 30
0.0
 10
-27.55096345797383
 20
147.0941476486035
 30
0.0
 10
-27.37187878191184
 20
147.2732366310348
 30
0.0
 10
-27.15096203392019
 20
147.2732366310348
 30
0.0
 10
-27.13923148379291
 20
147.2732366310348
 30
0.0
 10
-27.1276731884399
 20
147.2724700972894
 30
0.0
 10
-27.1161924077353
 20
147.2714796323374
 30
0.0
 10
-27.1161924077353
 20
147.2714796323374
 30
0.0
 10
-27.1161924077353
 20
147.2732366310348
 30
0.0
 10
-27.1161924077353
 20
147.2732366310348
 30
0.0
 10
-27.1161924077353
 20
147.2732366310348
 30
0.0
 10
-25.31619030586326
 20
147.2732366310348
 30
0.0
 10
-25.31619030586326
 20
147.2732366310348
 30
0.0
 10
-25.31619030586326
 20
147.2732366310348
 30
0.0
 10
-25.31619030586326
 20
151.3732361552919
 30
0.0
 10
-25.31619030586326
 20
151.3732361552919
 30
0.0
  0
SPLINE
  5
CB
330
1F
100
AcDbEntity
  8
0
 62
     7
100
AcDbSpline
210
0.0
220
0.0
230
1.0
 70
    11
 71
     3
 72
    98
 73
    94
 74
     0
 42
0.0000000001
 43
0.0000000001
 12
1.0
 22
0.0
 32
0.0
 13
1.0
 23
0.0
 33
0.0
 40
0.0
 40
0.0
 40
0.0
 40
0.0
 40
1.0
 40
1.0
 40
1.0
 40
2.0
 40
2.0
 40
2.0
 40
3.0
 40
3.0
 40
3.0
 40
4.0
 40
4.0
 40
4.0
 40
5.0
 40
5.0
 40
5.0
 40
6.0
 40
6.0
 40
6.0
 40
7.0
 40
7.0
 40
7.0
 40
8.0
 40
8.0
 40
8.0
 40
9.0
 40
9.0
 40
9.0
 40
10.0
 40
10.0
 40
10.0
 40
11.0
 40
11.0
 40
11.0
 40
12.0
 40
12.0
 40
12.0
 40
13.0
 40
13.0
 40
13.0
 40
14.0
 40
14.0
 40
14.0
 40
15.0
 40
15.0
 40
15.0
 40
16.0
 40
16.0
 40
16.0
 40
17.0
 40
17.0
 40
17.0
 40
18.0
 40
18.0
 40
18.0
 40
19.0
 40
19.0
 40
19.0
 40
20.0
 40
20.0
 40
20.0
 40
21.0
 40
21.0
 40
21.0
 40
22.0
 40
22.0
 40
22.0
 40
23.0
 40
23.0
 40
23.0
 40
24.0
 40
24.0
 40
24.0
 40
25.0
 40
25.0
 40
25.0
 40
26.0
 40
26.0
 40
26.0
 40
27.0
 40
27.0
 40
27.0
 40
28.0
 40
28.0
 40
28.0
 40
29.0
 40
29.0
 40
29.0
 40
30.0
 40
30.0
 40
30.0
 40
31.0
 40
31.0
 40
31.0
 40
31.0
 10
-19.36056838254344
 20
140.0712686734998
 30
0.0
 10
-19.36056838254344
 20
140.0712686734998
 30
0.0
 10
-19.36056838254344
 20
131.7712585030488
 30
0.0
 10
-19.36056838254344
 20
131.7712585030488
 30
0.0
 10
-19.13965378773647
 20
131.7712585030488
 30
0.0
 10
-18.9605669584898
 20
131.5921824397255
 30
0.0
 10
-18.9605669584898
 20
131.3712656917339
 30
0.0
 10
-18.9605669584898
 20
131.1503489437422
 30
0.0
 10
-19.13965378773647
 20
130.9712642676802
 30
0.0
 10
-19.36056838254344
 20
130.9712642676802
 30
0.0
 10
-19.36056838254344
 20
130.9712642676802
 30
0.0
 10
-21.16056833123081
 20
130.9712642676802
 30
0.0
 10
-21.16056833123081
 20
130.9712642676802
 30
0.0
 10
-21.16056833123081
 20
130.9712642676802
 30
0.0
 10
-21.16056833123081
 20
125.9712679988564
 30
0.0
 10
-21.16056833123081
 20
125.9712679988564
 30
0.0
 10
-21.16056833123081
 20
125.9712679988564
 30
0.0
 10
-21.16056833123081
 20
120.971263117294
 30
0.0
 10
-21.16056833123081
 20
120.971263117294
 30
0.0
 10
-21.16056833123081
 20
120.971263117294
 30
0.0
 10
-19.36056838254344
 20
120.971263117294
 30
0.0
 10
-19.36056838254344
 20
120.971263117294
 30
0.0
 10
-19.13965378773647
 20
120.971263117294
 30
0.0
 10
-18.9605669584898
 20
120.792178441232
 30
0.0
 10
-18.9605669584898
 20
120.5712616932403
 30
0.0
 10
-18.9605669584898
 20
120.3503535579874
 30
0.0
 10
-19.13965378773647
 20
120.1712602691867
 30
0.0
 10
-19.36056838254344
 20
120.1712602691867
 30
0.0
 10
-19.36056838254344
 20
120.1712602691867
 30
0.0
 10
-19.36056838254344
 20
111.8712673242131
 30
0.0
 10
-19.36056838254344
 20
111.8712673242131
 30
0.0
 10
-19.36056838254344
 20
111.8712673242131
 30
0.0
 10
-14.46056816336371
 20
111.8712673242131
 30
0.0
 10
-14.46056816336371
 20
111.8712673242131
 30
0.0
 10
-14.46056816336371
 20
112.092175459466
 30
0.0
 10
-14.28148133411703
 20
112.271260135528
 30
0.0
 10
-14.06056889249474
 20
112.271260135528
 30
0.0
 10
-13.83965429768778
 20
112.271260135528
 30
0.0
 10
-13.6605674684411
 20
112.092175459466
 30
0.0
 10
-13.6605674684411
 20
111.8712673242131
 30
0.0
 10
-13.6605674684411
 20
111.8712673242131
 30
0.0
 10
-13.6605674684411
 20
110.071265222341
 30
0.0
 10
-13.6605674684411
 20
110.071265222341
 30
0.0
 10
-13.6605674684411
 20
110.071265222341
 30
0.0
 10
-8.660566893247957
 20
110.071265222341
 30
0.0
 10
-8.660566893247957
 20
110.071265222341
 30
0.0
 10
-8.660566893247957
 20
110.071265222341
 30
0.0
 10
-3.660568471239493
 20
110.071265222341
 30
0.0
 10
-3.660568471239493
 20
110.071265222341
 30
0.0
 10
-3.660568471239493
 20
110.071265222341
 30
0.0
 10
-3.660568471239493
 20
111.8712673242131
 30
0.0
 10
-3.660568471239493
 20
111.8712673242131
 30
0.0
 10
-3.660568471239493
 20
112.092175459466
 30
0.0
 10
-3.481481641992815
 20
112.271260135528
 30
0.0
 10
-3.260569200370526
 20
112.271260135528
 30
0.0
 10
-3.039654605563558
 20
112.271260135528
 30
0.0
 10
-2.86056777631688
 20
112.092175459466
 30
0.0
 10
-2.86056777631688
 20
111.8712673242131
 30
0.0
 10
-2.86056777631688
 20
111.8712673242131
 30
0.0
 10
3.83943239155022
 20
111.8712673242131
 30
0.0
 10
3.83943239155022
 20
111.8712673242131
 30
0.0
 10
3.83943239155022
 20
111.8712673242131
 30
0.0
 10
3.83943239155022
 20
140.0712686734998
 30
0.0
 10
3.83943239155022
 20
140.0712686734998
 30
0.0
 10
3.83943239155022
 20
140.0712686734998
 30
0.0
 10
-3.660568471239493
 20
140.0712686734998
 30
0.0
 10
-3.660568471239493
 20
140.0712686734998
 30
0.0
 10
-3.660568471239493
 20
140.0712686734998
 30
0.0
 10
-3.660568471239493
 20
138.2712665716278
 30
0.0
 10
-3.660568471239493
 20
138.2712665716278
 30
0.0
 10
-3.660568471239493
 20
138.0503498236362
 30
0.0
 10
-3.839655300486171
 20
137.8712651475741
 30
0.0
 10
-4.06056774210846
 20
137.8712651475741
 30
0.0
 10
-4.281482336915428
 20
137.8712651475741
 30
0.0
 10
-4.460569166162106
 20
138.0503498236362
 30
0.0
 10
-4.460569166162106
 20
138.2712665716278
 30
0.0
 10
-4.460569166162106
 20
138.2712665716278
 30
0.0
 10
-8.660566893247957
 20
138.2712665716278
 30
0.0
 10
-8.660566893247957
 20
138.2712665716278
 30
0.0
 10
-8.660566893247957
 20
138.2712665716278
 30
0.0
 10
-12.86056677351849
 20
138.2712665716278
 30
0.0
 10
-12.86056677351849
 20
138.2712665716278
 30
0.0
 10
-12.86056677351849
 20
138.0503498236362
 30
0.0
 10
-13.03965360276516
 20
137.8712651475741
 30
0.0
 10
-13.26056819757213
 20
137.8712651475741
 30
0.0
 10
-13.4814827923791
 20
137.8712651475741
 30
0.0
 10
-13.6605674684411
 20
138.0503498236362
 30
0.0
 10
-13.6605674684411
 20
138.2712665716278
 30
0.0
 10
-13.6605674684411
 20
138.2712665716278
 30
0.0
 10
-13.6605674684411
 20
140.0712686734998
 30
0.0
 10
-13.6605674684411
 20
140.0712686734998
 30
0.0
 10
-13.6605674684411
 20
140.0712686734998
 30
0.0
 10
-19.36056838254344
 20
140.0712686734998
 30
0.0
 10
-19.36056838254344
 20
140.0712686734998
 30
0.0
  0
SPLINE
  5
CC
330
1F
100
AcDbEntity
  8
0
 62
     7
100
AcDbSpline
210
0.0
220
0.0
230
1.0
 70
    11
 71
     3
 72
    98
 73
    94
 74
     0
 42
0.0000000001
 43
0.0000000001
 12
1.0
 22
0.0
 32
0.0
 13
1.0
 23
0.0
 33
0.0
 40
0.0
 40
0.0
 40
0.0
 40
0.0
 40
1.0
 40
1.0
 40
1.0
 40
2.0
 40
2.0
 40
2.0
 40
3.0
 40
3.0
 40
3.0
 40
4.0
 40
4.0
 40
4.0
 40
5.0
 40
5.0
 40
5.0
 40
6.0
 40
6.0
 40
6.0
 40
7.0
 40
7.0
 40
7.0
 40
8.0
 40
8.0
 40
8.0
 40
9.0
 40
9.0
 40
9.0
 40
10.0
 40
10.0
 40
10.0
 40
11.0
 40
11.0
 40
11.0
 40
12.0
 40
12.0
 40
12.0
 40
13.0
 40
13.0
 40
13.0
 40
14.0
 40
14.0
 40
14.0
 40
15.0
 40
15.0
 40
15.0
 40
16.0
 40
16.0
 40
16.0
 40
17.0
 40
17.0
 40
17.0
 40
18.0
 40
18.0
 40
18.0
 40
19.0
 40
19.0
 40
19.0
 40
20.0
 40
20.0
 40
20.0
 40
21.0
 40
21.0
 40
21.0
 40
22.0
 40
22.0
 40
22.0
 40
23.0
 40
23.0
 40
23.0
 40
24.0
 40
24.0
 40
24.0
 40
25.0
 40
25.0
 40
25.0
 40
26.0
 40
26.0
 40
26.0
 40
27.0
 40
27.0
 40
27.0
 40
28.0
 40
28.0
 40
28.0
 40
29.0
 40
29.0
 40
29.0
 40
30.0
 40
30.0
 40
30.0
 40
31.0
 40
31.0
 40
31.0
 40
31.0
 10
-3.660567394647154
 20
159.0266335709411
 30
0.0
 10
-3.660567394647154
 20
159.0266335709411
 30
0.0
 10
-3.660567394647154
 20
157.2266336222538
 30
0.0
 10
-3.660567394647154
 20
157.2266336222538
 30
0.0
 10
-3.660567394647154
 20
157.0057190274468
 30
0.0
 10
-3.839652070709153
 20
156.8266343513848
 30
0.0
 10
-4.0605688187008
 20
156.8266343513848
 30
0.0
 10
-4.281485566692445
 20
156.8266343513848
 30
0.0
 10
-4.460561630015731
 20
157.0057190274468
 30
0.0
 10
-4.460561630015731
 20
157.2266336222538
 30
0.0
 10
-4.460561630015731
 20
157.2266336222538
 30
0.0
 10
-8.660563663470938
 20
157.2266336222538
 30
0.0
 10
-8.660563663470938
 20
157.2266336222538
 30
0.0
 10
-8.660563663470938
 20
157.2266336222538
 30
0.0
 10
-12.86056569692615
 20
157.2266336222538
 30
0.0
 10
-12.86056569692615
 20
157.2266336222538
 30
0.0
 10
-12.86056569692615
 20
157.0057190274468
 30
0.0
 10
-13.03965037298815
 20
156.8266343513848
 30
0.0
 10
-13.26056712097979
 20
156.8266343513848
 30
0.0
 10
-13.48147525623273
 20
156.8266343513848
 30
0.0
 10
-13.66056854503344
 20
157.0057190274468
 30
0.0
 10
-13.66056854503344
 20
157.2266336222538
 30
0.0
 10
-13.66056854503344
 20
157.2266336222538
 30
0.0
 10
-13.66056854503344
 20
159.0266335709411
 30
0.0
 10
-13.66056854503344
 20
159.0266335709411
 30
0.0
 10
-13.66056854503344
 20
159.0266335709411
 30
0.0
 10
-19.36056515276642
 20
159.0266335709411
 30
0.0
 10
-19.36056515276642
 20
159.0266335709411
 30
0.0
 10
-19.36056515276642
 20
159.0266335709411
 30
0.0
 10
-19.36056515276642
 20
157.8266336051495
 30
0.0
 10
-19.36056515276642
 20
157.8266336051495
 30
0.0
 10
-19.13964840477478
 20
157.8266336051495
 30
0.0
 10
-18.96056372871278
 20
157.6475467759029
 30
0.0
 10
-18.96056372871278
 20
157.4266343342806
 30
0.0
 10
-18.96056372871278
 20
157.2057197394736
 30
0.0
 10
-19.13964840477478
 20
157.0266329102269
 30
0.0
 10
-19.36056515276642
 20
157.0266329102269
 30
0.0
 10
-19.36056515276642
 20
157.0266329102269
 30
0.0
 10
-21.16056725463847
 20
157.0266329102269
 30
0.0
 10
-21.16056725463847
 20
157.0266329102269
 30
0.0
 10
-21.16056725463847
 20
157.0266329102269
 30
0.0
 10
-21.16056725463847
 20
154.026632995748
 30
0.0
 10
-21.16056725463847
 20
154.026632995748
 30
0.0
 10
-21.16056725463847
 20
154.026632995748
 30
0.0
 10
-21.16056725463847
 20
151.026633081269
 30
0.0
 10
-21.16056725463847
 20
151.026633081269
 30
0.0
 10
-21.16056725463847
 20
151.026633081269
 30
0.0
 10
-19.36056515276642
 20
151.026633081269
 30
0.0
 10
-19.36056515276642
 20
151.026633081269
 30
0.0
 10
-19.13964840477478
 20
151.026633081269
 30
0.0
 10
-18.96056372871278
 20
150.8475462520223
 30
0.0
 10
-18.96056372871278
 20
150.6266338104001
 30
0.0
 10
-18.96056372871278
 20
150.4057192155931
 30
0.0
 10
-19.13964840477478
 20
150.2266323863464
 30
0.0
 10
-19.36056515276642
 20
150.2266323863464
 30
0.0
 10
-19.36056515276642
 20
150.2266323863464
 30
0.0
 10
-19.36056515276642
 20
149.0266324205548
 30
0.0
 10
-19.36056515276642
 20
149.0266324205548
 30
0.0
 10
-19.36056515276642
 20
149.0266324205548
 30
0.0
 10
-14.46057139314073
 20
149.0266324205548
 30
0.0
 10
-14.46057139314073
 20
149.0266324205548
 30
0.0
 10
-14.46057139314073
 20
149.2475470153618
 30
0.0
 10
-14.28147810434002
 20
149.4266338446085
 30
0.0
 10
-14.06056135634837
 20
149.4266338446085
 30
0.0
 10
-13.83965322109544
 20
149.4266338446085
 30
0.0
 10
-13.66056854503344
 20
149.2475470153618
 30
0.0
 10
-13.66056854503344
 20
149.0266324205548
 30
0.0
 10
-13.66056854503344
 20
149.0266324205548
 30
0.0
 10
-13.66056854503344
 20
147.2266324718675
 30
0.0
 10
-13.66056854503344
 20
147.2266324718675
 30
0.0
 10
-13.66056854503344
 20
147.2266324718675
 30
0.0
 10
-8.660563663470938
 20
147.2266324718675
 30
0.0
 10
-8.660563663470938
 20
147.2266324718675
 30
0.0
 10
-8.660563663470938
 20
147.2266324718675
 30
0.0
 10
-3.660567394647154
 20
147.2266324718675
 30
0.0
 10
-3.660567394647154
 20
147.2266324718675
 30
0.0
 10
-3.660567394647154
 20
147.2266324718675
 30
0.0
 10
-3.660567394647154
 20
149.0266324205548
 30
0.0
 10
-3.660567394647154
 20
149.0266324205548
 30
0.0
 10
-3.660567394647154
 20
149.2475470153618
 30
0.0
 10
-3.481482718585154
 20
149.4266338446085
 30
0.0
 10
-3.260565970593508
 20
149.4266338446085
 30
0.0
 10
-3.039649222601863
 20
149.4266338446085
 30
0.0
 10
-2.860564546539863
 20
149.2475470153618
 30
0.0
 10
-2.860564546539863
 20
149.0266324205548
 30
0.0
 10
-2.860564546539863
 20
149.0266324205548
 30
0.0
 10
3.839431314957881
 20
149.0266324205548
 30
0.0
 10
3.839431314957881
 20
149.0266324205548
 30
0.0
 10
3.839431314957881
 20
149.0266324205548
 30
0.0
 10
3.839431314957881
 20
159.0266335709411
 30
0.0
 10
3.839431314957881
 20
159.0266335709411
 30
0.0
 10
3.839431314957881
 20
159.0266335709411
 30
0.0
 10
-3.660567394647154
 20
159.0266335709411
 30
0.0
 10
-3.660567394647154
 20
159.0266335709411
 30
0.0
  0
SPLINE
  5
CD
330
1F
100
AcDbEntity
  8
0
 62
     7
100
AcDbSpline
210
0.0
220
0.0
230
1.0
 70
    11
 71
     3
 72
    92
 73
    88
 74
     0
 42
0.0000000001
 43
0.0000000001
 12
1.0
 22
0.0
 32
0.0
 13
1.0
 23
0.0
 33
0.0
 40
0.0
 40
0.0
 40
0.0
 40
0.0
 40
1.0
 40
1.0
 40
1.0
 40
2.0
 40
2.0
 40
2.0
 40
3.0
 40
3.0
 40
3.0
 40
4.0
 40
4.0
 40
4.0
 40
5.0
 40
5.0
 40
5.0
 40
6.0
 40
6.0
 40
6.0
 40
7.0
 40
7.0
 40
7.0
 40
8.0
 40
8.0
 40
8.0
 40
9.0
 40
9.0
 40
9.0
 40
10.0
 40
10.0
 40
10.0
 40
11.0
 40
11.0
 40
11.0
 40
12.0
 40
12.0
 40
12.0
 40
13.0
 40
13.0
 40
13.0
 40
14.0
 40
14.0
 40
14.0
 40
15.0
 40
15.0
 40
15.0
 40
16.0
 40
16.0
 40
16.0
 40
17.0
 40
17.0
 40
17.0
 40
18.0
 40
18.0
 40
18.0
 40
19.0
 40
19.0
 40
19.0
 40
20.0
 40
20.0
 40
20.0
 40
21.0
 40
21.0
 40
21.0
 40
22.0
 40
22.0
 40
22.0
 40
23.0
 40
23.0
 40
23.0
 40
24.0
 40
24.0
 40
24.0
 40
25.0
 40
25.0
 40
25.0
 40
26.0
 40
26.0
 40
26.0
 40
27.0
 40
27.0
 40
27.0
 40
28.0
 40
28.0
 40
28.0
 40
29.0
 40
29.0
 40
29.0
 40
29.0
 10
-49.55146839257737
 20
69.44445538852408
 30
0.0
 10
-49.55146839257737
 20
69.44445538852408
 30
0.0
 10
-49.55146839257737
 20
71.24445749039612
 30
0.0
 10
-49.55146839257737
 20
71.24445749039612
 30
0.0
 10
-49.55146839257737
 20
71.46537423838777
 30
0.0
 10
-49.37238371651537
 20
71.64445891444977
 30
0.0
 10
-49.15147127489308
 20
71.64445891444977
 30
0.0
 10
-48.93055883327079
 20
71.64445891444977
 30
0.0
 10
-48.75146985083943
 20
71.46537423838777
 30
0.0
 10
-48.75146985083943
 20
71.24445749039612
 30
0.0
 10
-48.75146985083943
 20
71.24445749039612
 30
0.0
 10
-45.45146886832025
 20
71.24445749039612
 30
0.0
 10
-45.45146886832025
 20
71.24445749039612
 30
0.0
 10
-45.45146886832025
 20
71.24445749039612
 30
0.0
 10
-45.45146886832025
 20
81.9444589796916
 30
0.0
 10
-45.45146886832025
 20
81.9444589796916
 30
0.0
 10
-45.45146886832025
 20
81.9444589796916
 30
0.0
 10
-65.45147116909281
 20
94.44445395812042
 30
0.0
 10
-65.45147116909281
 20
94.44445395812042
 30
0.0
 10
-65.45147116909281
 20
94.44445395812042
 30
0.0
 10
-73.65147021760706
 20
94.44445395812042
 30
0.0
 10
-73.65147021760706
 20
94.44445395812042
 30
0.0
 10
-73.65147021760706
 20
94.44445395812042
 30
0.0
 10
-73.65147021760706
 20
84.74446033532841
 30
0.0
 10
-73.65147021760706
 20
84.74446033532841
 30
0.0
 10
-73.43055562280009
 20
84.74446033532841
 30
0.0
 10
-73.25147094673808
 20
84.56537135289705
 30
0.0
 10
-73.25147094673808
 20
84.34445891127476
 30
0.0
 10
-73.25147094673808
 20
84.12354216328312
 30
0.0
 10
-73.43055562280009
 20
83.94445748722111
 30
0.0
 10
-73.65147021760706
 20
83.94445748722111
 30
0.0
 10
-73.65147021760706
 20
83.94445748722111
 30
0.0
 10
-75.45147016629443
 20
83.94445748722111
 30
0.0
 10
-75.45147016629443
 20
83.94445748722111
 30
0.0
 10
-75.45147016629443
 20
83.94445748722111
 30
0.0
 10
-75.45147016629443
 20
79.94445616579273
 30
0.0
 10
-75.45147016629443
 20
79.94445616579273
 30
0.0
 10
-75.45147016629443
 20
79.94445616579273
 30
0.0
 10
-73.65147021760706
 20
79.94445616579273
 30
0.0
 10
-73.65147021760706
 20
79.94445616579273
 30
0.0
 10
-73.43055562280009
 20
79.94445616579273
 30
0.0
 10
-73.25147094673808
 20
79.76537148973074
 30
0.0
 10
-73.25147094673808
 20
79.54445904810845
 30
0.0
 10
-73.25147094673808
 20
79.3235423001168
 30
0.0
 10
-73.43055562280009
 20
79.1444576240548
 30
0.0
 10
-73.65147021760706
 20
79.1444576240548
 30
0.0
 10
-73.65147021760706
 20
79.1444576240548
 30
0.0
 10
-73.65147021760706
 20
71.24445749039612
 30
0.0
 10
-73.65147021760706
 20
71.24445749039612
 30
0.0
 10
-73.65147021760706
 20
71.24445749039612
 30
0.0
 10
-70.35147138827254
 20
71.24445749039612
 30
0.0
 10
-70.35147138827254
 20
71.24445749039612
 30
0.0
 10
-70.35147138827254
 20
71.46537423838777
 30
0.0
 10
-70.17238455902587
 20
71.64445891444977
 30
0.0
 10
-69.9514699642189
 20
71.64445891444977
 30
0.0
 10
-69.73055752259661
 20
71.64445891444977
 30
0.0
 10
-69.55147069334994
 20
71.46537423838777
 30
0.0
 10
-69.55147069334994
 20
71.24445749039612
 30
0.0
 10
-69.55147069334994
 20
71.24445749039612
 30
0.0
 10
-69.55147069334994
 20
69.44445538852408
 30
0.0
 10
-69.55147069334994
 20
69.44445538852408
 30
0.0
 10
-69.55147069334994
 20
69.44445538852408
 30
0.0
 10
-64.5514701181568
 20
69.44445538852408
 30
0.0
 10
-64.5514701181568
 20
69.44445538852408
 30
0.0
 10
-64.5514701181568
 20
69.44445538852408
 30
0.0
 10
-64.5514701181568
 20
71.24445749039612
 30
0.0
 10
-64.5514701181568
 20
71.24445749039612
 30
0.0
 10
-64.5514701181568
 20
71.46537423838777
 30
0.0
 10
-64.37238113572543
 20
71.64445891444977
 30
0.0
 10
-64.1514730004725
 20
71.64445891444977
 30
0.0
 10
-63.93055625248086
 20
71.64445891444977
 30
0.0
 10
-63.75147157641886
 20
71.46537423838777
 30
0.0
 10
-63.75147157641886
 20
71.24445749039612
 30
0.0
 10
-63.75147157641886
 20
71.24445749039612
 30
0.0
 10
-55.35146750950845
 20
71.24445749039612
 30
0.0
 10
-55.35146750950845
 20
71.24445749039612
 30
0.0
 10
-55.35146750950845
 20
71.46537423838777
 30
0.0
 10
-55.17238283344644
 20
71.64445891444977
 30
0.0
 10
-54.95147039182415
 20
71.64445891444977
 30
0.0
 10
-54.73055795020186
 20
71.64445891444977
 30
0.0
 10
-54.55147327413987
 20
71.46537423838777
 30
0.0
 10
-54.55147327413987
 20
71.24445749039612
 30
0.0
 10
-54.55147327413987
 20
71.24445749039612
 30
0.0
 10
-54.55147327413987
 20
69.44445538852408
 30
0.0
 10
-54.55147327413987
 20
69.44445538852408
 30
0.0
 10
-54.55147327413987
 20
69.44445538852408
 30
0.0
 10
-49.55146839257737
 20
69.44445538852408
 30
0.0
 10
-49.55146839257737
 20
69.44445538852408
 30
0.0
  0
ENDSEC
  0
SECTION
  2
OBJECTS
  0
DICTIONARY
  5
C
330
0
100
AcDbDictionary
  3
ACAD_GROUP
350
D
  3
ACAD_LAYOUT
350
1A
  3
ACAD_MATERIAL
350
3B
  3
ACAD_MLEADERSTYLE
350
D1
  3
ACAD_MLINESTYLE
350
17
  3
ACAD_PLOTSETTINGS
350
19
  3
ACAD_VISUALSTYLE
350
2A
  3
ACDBVARIABLEDICTIONARY
350
CF
1001
ACAD
1000
TREAT_AS_HARD
1070
     0
  0
DICTIONARY
  5
D
102
{ACAD_REACTORS
330
C
102
}
330
C
100
AcDbDictionary
1001
ACAD
1000
TREAT_AS_HARD
1070
     0
  0
DICTIONARY
  5
1A
102
{ACAD_REACTORS
330
C
102
}
330
C
100
AcDbDictionary
1001
ACAD
1000
TREAT_AS_HARD
1070
     0
  0
DICTIONARY
  5
3B
102
{ACAD_REACTORS
330
C
102
}
330
C
100
AcDbDictionary
  3
BYBLOCK
350
3D
  3
BYLAYER
350
3C
  3
GLOBAL
350
3E
1001
ACAD
1000
TREAT_AS_HARD
1070
     0
  0
DICTIONARY
  5
D1
102
{ACAD_REACTORS
330
C
102
}
330
C
100
AcDbDictionary
1001
ACAD
1000
TREAT_AS_HARD
1070
     0
  0
DICTIONARY
  5
17
102
{ACAD_REACTORS
330
C
102
}
330
C
100
AcDbDictionary
  3
STANDARD
350
18
1001
ACAD
1000
TREAT_AS_HARD
1070
     0
  0
DICTIONARY
  5
19
102
{ACAD_REACTORS
330
C
102
}
330
C
100
AcDbDictionary
1001
ACAD
1000
TREAT_AS_HARD
1070
     0
  0
DICTIONARY
  5
2A
102
{ACAD_REACTORS
330
C
102
}
330
C
100
AcDbDictionary
  3
2DWIREFRAME
350
2F
  3
3D_HIDDEN
350
31
  3
3DWIREFRAME
350
30
  3
BASIC
350
32
  3
BRIGHTEN
350
36
  3
COLORCHANGE
350
3A
  3
CONCEPTUAL
350
34
  3
DIM
350
35
  3
FACEPATTERN
350
39
  3
FLAT
350
2B
  3
FLATWITHEDGES
350
2C
  3
GOURAUD
350
2D
  3
GOURAUDWITHEDGES
350
2E
  3
LINEPATTERN
350
38
  3
REALISTIC
350
33
  3
THICKEN
350
37
1001
ACAD
1000
TREAT_AS_HARD
1070
     0
  0
DICTIONARY
  5
CF
102
{ACAD_REACTORS
330
C
102
}
330
C
100
AcDbDictionary
  3
DIMASSOC
350
D2
  3
HIDETEXT
350
D3
1001
ACAD
1000
TREAT_AS_HARD
1070
     0
  0
MATERIAL
  5
3D
102
{ACAD_REACTORS
330
3B
102
}
102
{ACAD_XDICTIONARY
360
D6
102
}
330
3B
100
AcDbMaterial
  1
ByBlock
  0
MATERIAL
  5
3C
102
{ACAD_REACTORS
330
3B
102
}
102
{ACAD_XDICTIONARY
360
D4
102
}
330
3B
100
AcDbMaterial
  1
ByLayer
  0
MATERIAL
  5
3E
102
{ACAD_REACTORS
330
3B
102
}
102
{ACAD_XDICTIONARY
360
D8
102
}
330
3B
100
AcDbMaterial
  1
Global
  0
MLINESTYLE
  5
18
102
{ACAD_REACTORS
330
17
102
}
330
17
100
AcDbMlineStyle
  2
Standard
 70
     0
  3

 62
   256
 51
90.0
 52
90.0
 71
     2
 49
0.5
 62
   256
  6
BYLAYER
 49
-0.5
 62
   256
  6
BYLAYER
  0
ACAD_PROXY_OBJECT
  5
2F
102
{ACAD_REACTORS
330
2A
102
}
330
2A
100
AcDbZombieObject
 90
      499
 91
      501
 93
      436
310
42CC9915DA5C99599C985B595049028333333333333E3BF0000000000000FB0107901411070040501600405405064090741402480A0340
1001
ACAD
1000
AcDbSavedByObjectVersion
1070
     0
  0
ACAD_PROXY_OBJECT
  5
31
102
{ACAD_REACTORS
330
2A
102
}
330
2A
100
AcDbZombieObject
 90
      499
 91
      501
 93
      500
310
424CD108121A5919195B90640502408333333333333E3BF0000000000000FB01079024090700405020000000000001110200405405064090740C02480A0340
1001
ACAD
1000
AcDbSavedByObjectVersion
1070
     0
  0
ACAD_PROXY_OBJECT
  5
30
102
{ACAD_REACTORS
330
2A
102
}
330
2A
100
AcDbZombieObject
 90
      499
 91
      501
 93
      436
310
42CCD915DA5C99599C985B595059028333333333333E3BF0000000000000FB0107901411070040501600405405064090741402480A0340
1001
ACAD
1000
AcDbSavedByObjectVersion
1070
     0
  0
ACAD_PROXY_OBJECT
  5
32
102
{ACAD_REACTORS
330
2A
102
}
330
2A
100
AcDbZombieObject
 90
      499
 91
      501
 93
      388
310
4150985CDA58D07406404333333333333E3BF0000000000000FB0107A41107004050150841D405064090741402480A0350
1001
ACAD
1000
AcDbSavedByObjectVersion
1070
     0
  0
ACAD_PROXY_OBJECT
  5
36
102
{ACAD_REACTORS
330
2A
102
}
330
2A
100
AcDbZombieObject
 90
      499
 91
      501
 93
      428
310
42109C9A59DA1D195B90C409028333333333333E3BF0000000000000FB010790141107004050150841D405064090741402480A029950
1001
ACAD
1000
AcDbSavedByObjectVersion
1070
     0
  0
ACAD_PROXY_OBJECT
  5
3A
102
{ACAD_REACTORS
330
2A
102
}
330
2A
100
AcDbZombieObject
 90
      499
 91
      501
 93
      452
310
42D0DBDB1BDC90DA185B99D95104090240C333333333333E3BF0000000000000FB0108901411070040501508421405064090741402480A0350
1001
ACAD
1000
AcDbSavedByObjectVersion
1070
     0
  0
ACAD_PROXY_OBJECT
  5
34
102
{ACAD_REACTORS
330
2A
102
}
330
2A
100
AcDbZombieObject
 90
      499
 91
      501
 93
      500
310
4290DBDB98D95C1D1D585B10940D028333333333333E3BF0000000000000FB0107902409070040501000000000000111010841D405064090740C02480A0340
1001
ACAD
1000
AcDbSavedByObjectVersion
1070
     0
  0
ACAD_PROXY_OBJECT
  5
35
102
{ACAD_REACTORS
330
2A
102
}
330
2A
100
AcDbZombieObject
 90
      499
 91
      501
 93
      412
310
40D11A5B50B409028333333333333E3BF0000000000000FB010790141107004050150841D405064090741402480A02677FFFFFD0
1001
ACAD
1000
AcDbSavedByObjectVersion
1070
     0
  0
ACAD_PROXY_OBJECT
  5
39
102
{ACAD_REACTORS
330
2A
102
}
330
2A
100
AcDbZombieObject
 90
      499
 91
      501
 93
      444
310
42D19858D95C185D1D195C9B90F409028333333333333E3BF0000000000000FB010790141107004050150841D405064090741402480A0350
1001
ACAD
1000
AcDbSavedByObjectVersion
1070
     0
  0
ACAD_PROXY_OBJECT
  5
2B
102
{ACAD_REACTORS
330
2A
102
}
330
2A
100
AcDbZombieObject
 90
      499
 91
      501
 93
      388
310
41119B185D240901404333333333333E3BF0000000000000F9010740A41107004050150841D405064090741402480A1B50
1001
ACAD
1000
AcDbSavedByObjectVersion
1070
     0
  0
ACAD_PROXY_OBJECT
  5
2C
102
{ACAD_REACTORS
330
2A
102
}
330
2A
100
AcDbZombieObject
 90
      499
 91
      501
 93
      476
310
43519B185D15DA5D1A115919D95CD0140901404333333333333E3BF0000000000000F9010740901411070040501600405405064090741402480A1B50
1001
ACAD
1000
AcDbSavedByObjectVersion
1070
     0
  0
ACAD_PROXY_OBJECT
  5
2D
102
{ACAD_REACTORS
330
2A
102
}
330
2A
100
AcDbZombieObject
 90
      499
 91
      501
 93
      412
310
41D1DBDD5C985D5910240902404333333333333E3BF0000000000000F9010740A411070040501641D405064090741402480A1B50
1001
ACAD
1000
AcDbSavedByObjectVersion
1070
     0
  0
ACAD_PROXY_OBJECT
  5
2E
102
{ACAD_REACTORS
330
2A
102
}
330
2A
100
AcDbZombieObject
 90
      499
 91
      501
 93
      500
310
4411DBDD5C985D5915DA5D1A115919D95CD0340902404333333333333E3BF0000000000000F9010740901411070040501600405405064090741402480A1B50
1001
ACAD
1000
AcDbSavedByObjectVersion
1070
     0
  0
ACAD_PROXY_OBJECT
  5
38
102
{ACAD_REACTORS
330
2A
102
}
330
2A
100
AcDbZombieObject
 90
      499
 91
      501
 93
      444
310
42D31A5B995C185D1D195C9B90E409028333333333333E3BF0000000000000FB010790141107004050750841D405064090741402483A0350
1001
ACAD
1000
AcDbSavedByObjectVersion
1070
     0
  0
ACAD_PROXY_OBJECT
  5
33
102
{ACAD_REACTORS
330
2A
102
}
330
2A
100
AcDbZombieObject
 90
      499
 91
      501
 93
      420
310
425499585B1A5CDD1A58D08409028333333333333E3BF0000000000000FB01079019070040501508421405064090741402480A1B40
1001
ACAD
1000
AcDbSavedByObjectVersion
1070
     0
  0
ACAD_PROXY_OBJECT
  5
37
102
{ACAD_REACTORS
330
2A
102
}
330
2A
100
AcDbZombieObject
 90
      499
 91
      501
 93
      412
310
41D51A1A58DAD95B90D409028333333333333E3BF0000000000000FB010790141107004050150C41D405064090741402480A0350
1001
ACAD
1000
AcDbSavedByObjectVersion
1070
     0
  0
DICTIONARYVAR
  5
D2
102
{ACAD_REACTORS
330
CF
102
}
330
CF
100
DictionaryVariables
280
     0
  1
2
  0
DICTIONARYVAR
  5
D3
102
{ACAD_REACTORS
330
CF
102
}
330
CF
100
DictionaryVariables
280
     0
  1
1
  0
DICTIONARY
  5
D6
330
3D
100
AcDbDictionary
  3
ACAD_XREC_ROUNDTRIP
360
D7
1001
ACAD
1000
TREAT_AS_HARD
1070
     1
  0
DICTIONARY
  5
D4
330
3C
100
AcDbDictionary
  3
ACAD_XREC_ROUNDTRIP
360
D5
1001
ACAD
1000
TREAT_AS_HARD
1070
     1
  0
DICTIONARY
  5
D8
330
3E
100
AcDbDictionary
  3
ACAD_XREC_ROUNDTRIP
360
D9
1001
ACAD
1000
TREAT_AS_HARD
1070
     1
  0
XRECORD
  5
D7
102
{ACAD_REACTORS
330
D6
102
}
330
D6
100
AcDbXrecord
102
MATERIAL
148
0.0
149
0.0
149
0.0
 93
        0
 94
      127
282
     0
 72
     1
 77
     1
171
     1
175
     1
179
     1
273
     0
  0
XRECORD
  5
D5
102
{ACAD_REACTORS
330
D4
102
}
330
D4
100
AcDbXrecord
102
MATERIAL
148
0.0
149
0.0
149
0.0
 93
        0
 94
      127
282
     0
 72
     1
 77
     1
171
     1
175
     1
179
     1
273
     0
  0
XRECORD
  5
D9
102
{ACAD_REACTORS
330
D8
102
}
330
D8
100
AcDbXrecord
102
MATERIAL
148
0.0
149
0.0
149
0.0
 93
        0
 94
      127
282
     0
 72
     1
 77
     1
171
     1
175
     1
179
     1
273
     0
  0
ENDSEC
  0
EOF
