0
SECTION
2
HEADER
9
$ACADVER
1
AC1009
0
ENDSEC
0
SECTION
2
TABLES
0
TABLE
2
VPORT
70
1
0
VPORT
2
ACTIVE
70
0
10
0.0
20
0.0
11
0.0
21
0.0
12
0.0
22
0.0
13
0.0
23
0.0
14
0.0
24
0.0
15
0.0
25
0.0
16
0.0
26
0.0
36
0.0
17
0.0
27
0.0
37
0.0
40
0.0
41
0.0
42
0.0
43
0.0
44
0.0
50
0.0
51
0.0
71
0
72
1000
73
1
74
3
75
0
76
0
77
0
78
0
0
ENDTAB
0
ENDSEC
0
SECTION
2
ENTITIES
0
LINE
8
hole
62
5
39
2
10
21.181750
20
32.131750
11
21.753250
21
32.131750
0
LINE
8
hole
62
5
39
2
10
21.753250
20
32.131750
11
21.753250
21
32.703250
0
LINE
8
hole
62
5
39
2
10
21.753250
20
32.703250
11
21.181750
21
32.703250
0
LINE
8
hole
62
5
39
2
10
21.181750
20
32.703250
11
21.181750
21
32.131750
0
LINE
8
hole
62
5
39
2
10
139.581752
20
32.131750
11
140.153252
21
32.131750
0
LINE
8
hole
62
5
39
2
10
140.153252
20
32.131750
11
140.153252
21
32.703250
0
LINE
8
hole
62
5
39
2
10
140.153252
20
32.703250
11
139.581752
21
32.703250
0
LINE
8
hole
62
5
39
2
10
139.581752
20
32.703250
11
139.581752
21
32.131750
0
LINE
8
hole
62
5
39
2
10
112.382430
20
44.181519
11
113.212444
21
45.047538
0
LINE
8
hole
62
5
39
2
10
113.212444
20
45.047538
11
114.235199
21
45.803968
0
LINE
8
hole
62
5
39
2
10
114.235199
20
45.803968
11
115.371079
21
46.376668
0
LINE
8
hole
62
5
39
2
10
115.371079
20
46.376668
11
116.587411
21
46.749159
0
LINE
8
hole
62
5
39
2
10
116.587411
20
46.749159
11
117.849195
21
46.910738
0
LINE
8
hole
62
5
39
2
10
117.849195
20
46.910738
11
119.120132
21
46.856750
0
LINE
8
hole
62
5
39
2
10
119.120132
20
46.856750
11
120.363676
21
46.588744
0
LINE
8
hole
62
5
39
2
10
120.363676
20
46.588744
11
121.544034
21
46.114440
0
LINE
8
hole
62
5
39
2
10
121.544034
20
46.114440
11
122.627252
21
45.447478
0
LINE
8
hole
62
5
39
2
10
122.627252
20
45.447478
11
123.582172
21
44.607037
0
LINE
8
hole
62
5
39
2
10
123.582172
20
44.607037
11
124.381324
21
43.617306
0
LINE
8
hole
62
5
39
2
10
124.381324
20
43.617306
11
125.001714
21
42.506756
0
LINE
8
hole
62
5
39
2
10
125.001714
20
42.506756
11
125.425501
21
41.307338
0
LINE
8
hole
62
5
39
2
10
125.425501
20
41.307338
11
125.640486
21
40.053535
0
LINE
8
hole
62
5
39
2
10
125.640486
20
40.053535
11
125.640486
21
38.781459
0
LINE
8
hole
62
5
39
2
10
125.640486
20
38.781459
11
125.425501
21
37.527657
0
LINE
8
hole
62
5
39
2
10
125.425501
20
37.527657
11
125.001714
21
36.328239
0
LINE
8
hole
62
5
39
2
10
125.001714
20
36.328239
11
124.381324
21
35.217689
0
LINE
8
hole
62
5
39
2
10
124.381324
20
35.217689
11
123.582172
21
34.227957
0
LINE
8
hole
62
5
39
2
10
123.582172
20
34.227957
11
122.627252
21
33.387516
0
LINE
8
hole
62
5
39
2
10
122.627252
20
33.387516
11
121.544034
21
32.720555
0
LINE
8
hole
62
5
39
2
10
121.544034
20
32.720555
11
120.363676
21
32.246245
0
LINE
8
hole
62
5
39
2
10
120.363676
20
32.246245
11
119.120132
21
31.978244
0
LINE
8
hole
62
5
39
2
10
119.120132
20
31.978244
11
117.849195
21
31.924257
0
LINE
8
hole
62
5
39
2
10
117.849195
20
31.924257
11
116.587411
21
32.085835
0
LINE
8
hole
62
5
39
2
10
116.587411
20
32.085835
11
115.371079
21
32.458327
0
LINE
8
hole
62
5
39
2
10
115.371079
20
32.458327
11
114.235198
21
33.031027
0
LINE
8
hole
62
5
39
2
10
114.235198
20
33.031027
11
113.212444
21
33.787456
0
LINE
8
hole
62
5
39
2
10
113.212444
20
33.787456
11
112.332235
21
34.705848
0
LINE
8
hole
62
5
39
2
10
112.332235
20
34.705848
11
111.619897
21
35.759787
0
LINE
8
hole
62
5
39
2
10
111.619897
20
35.759787
11
111.095922
21
36.918948
0
LINE
8
hole
62
5
39
2
10
111.095922
20
36.918948
11
110.775384
21
38.149986
0
LINE
8
hole
62
5
39
2
10
110.775384
20
38.149986
11
110.667502
21
39.417497
0
LINE
8
hole
62
5
39
2
10
110.667502
20
39.417497
11
110.775384
21
40.685008
0
LINE
8
hole
62
5
39
2
10
110.775384
20
40.685008
11
111.095922
21
41.916047
0
LINE
8
hole
62
5
39
2
10
111.095922
20
41.916047
11
111.619897
21
43.075208
0
LINE
8
hole
62
5
39
2
10
111.619897
20
43.075208
11
112.332235
21
44.129147
0
LINE
8
hole
62
5
39
2
10
112.332235
20
44.129147
11
112.382430
21
44.181519
0
LINE
8
hole
62
5
39
2
10
87.382426
20
44.181519
11
88.212443
21
45.047538
0
LINE
8
hole
62
5
39
2
10
88.212443
20
45.047538
11
89.235201
21
45.803968
0
LINE
8
hole
62
5
39
2
10
89.235201
20
45.803968
11
90.371082
21
46.376668
0
LINE
8
hole
62
5
39
2
10
90.371082
20
46.376668
11
91.587412
21
46.749159
0
LINE
8
hole
62
5
39
2
10
91.587412
20
46.749159
11
92.849192
21
46.910738
0
LINE
8
hole
62
5
39
2
10
92.849192
20
46.910738
11
94.120132
21
46.856750
0
LINE
8
hole
62
5
39
2
10
94.120132
20
46.856750
11
95.363671
21
46.588745
0
LINE
8
hole
62
5
39
2
10
95.363671
20
46.588745
11
96.544030
21
46.114440
0
LINE
8
hole
62
5
39
2
10
96.544030
20
46.114440
11
97.627251
21
45.447478
0
LINE
8
hole
62
5
39
2
10
97.627251
20
45.447478
11
98.582172
21
44.607037
0
LINE
8
hole
62
5
39
2
10
98.582172
20
44.607037
11
99.381324
21
43.617306
0
LINE
8
hole
62
5
39
2
10
99.381324
20
43.617306
11
100.001716
21
42.506756
0
LINE
8
hole
62
5
39
2
10
100.001716
20
42.506756
11
100.425499
21
41.307338
0
LINE
8
hole
62
5
39
2
10
100.425499
20
41.307338
11
100.640483
21
40.053535
0
LINE
8
hole
62
5
39
2
10
100.640483
20
40.053535
11
100.640483
21
38.781459
0
LINE
8
hole
62
5
39
2
10
100.640483
20
38.781459
11
100.425499
21
37.527657
0
LINE
8
hole
62
5
39
2
10
100.425499
20
37.527657
11
100.001717
21
36.328239
0
LINE
8
hole
62
5
39
2
10
100.001717
20
36.328239
11
99.381324
21
35.217688
0
LINE
8
hole
62
5
39
2
10
99.381324
20
35.217688
11
98.582172
21
34.227957
0
LINE
8
hole
62
5
39
2
10
98.582172
20
34.227957
11
97.627251
21
33.387516
0
LINE
8
hole
62
5
39
2
10
97.627251
20
33.387516
11
96.544030
21
32.720555
0
LINE
8
hole
62
5
39
2
10
96.544030
20
32.720555
11
95.363671
21
32.246245
0
LINE
8
hole
62
5
39
2
10
95.363671
20
32.246245
11
94.120132
21
31.978244
0
LINE
8
hole
62
5
39
2
10
94.120132
20
31.978244
11
92.849192
21
31.924257
0
LINE
8
hole
62
5
39
2
10
92.849192
20
31.924257
11
91.587412
21
32.085835
0
LINE
8
hole
62
5
39
2
10
91.587412
20
32.085835
11
90.371081
21
32.458327
0
LINE
8
hole
62
5
39
2
10
90.371081
20
32.458327
11
89.235201
21
33.031027
0
LINE
8
hole
62
5
39
2
10
89.235201
20
33.031027
11
88.212442
21
33.787456
0
LINE
8
hole
62
5
39
2
10
88.212442
20
33.787456
11
87.332231
21
34.705848
0
LINE
8
hole
62
5
39
2
10
87.332231
20
34.705848
11
86.619893
21
35.759787
0
LINE
8
hole
62
5
39
2
10
86.619893
20
35.759787
11
86.095920
21
36.918948
0
LINE
8
hole
62
5
39
2
10
86.095920
20
36.918948
11
85.775381
21
38.149986
0
LINE
8
hole
62
5
39
2
10
85.775381
20
38.149986
11
85.667500
21
39.417497
0
LINE
8
hole
62
5
39
2
10
85.667500
20
39.417497
11
85.775381
21
40.685008
0
LINE
8
hole
62
5
39
2
10
85.775381
20
40.685008
11
86.095920
21
41.916047
0
LINE
8
hole
62
5
39
2
10
86.095920
20
41.916047
11
86.619893
21
43.075208
0
LINE
8
hole
62
5
39
2
10
86.619893
20
43.075208
11
87.332231
21
44.129147
0
LINE
8
hole
62
5
39
2
10
87.332231
20
44.129147
11
87.382426
21
44.181519
0
LINE
8
hole
62
5
39
2
10
93.167501
20
19.542496
11
117.664335
21
19.542495
0
LINE
8
hole
62
5
39
2
10
117.664335
20
19.542495
11
118.167504
21
11.703506
0
LINE
8
hole
62
5
39
2
10
118.167504
20
11.703506
11
93.670671
21
11.542492
0
LINE
8
hole
62
5
39
2
10
93.670671
20
11.542492
11
93.167501
21
19.381481
0
LINE
8
hole
62
5
39
2
10
93.167501
20
19.381481
11
93.167501
21
19.542496
0
LINE
8
boundary
62
5
39
2
10
9.646265
20
58.167500
11
6.667500
21
58.167500
0
LINE
8
boundary
62
5
39
2
10
6.667500
20
58.167500
11
6.667500
21
7.704030
0
LINE
8
boundary
62
5
39
2
10
6.667500
20
7.704030
11
6.667500
21
6.667500
0
LINE
8
boundary
62
5
39
2
10
6.667500
20
6.667500
11
151.688737
21
6.667500
0
LINE
8
boundary
62
5
39
2
10
151.688737
20
6.667500
11
154.667502
21
6.667500
0
LINE
8
boundary
62
5
39
2
10
154.667502
20
6.667500
11
154.667502
21
57.130970
0
LINE
8
boundary
62
5
39
2
10
154.667502
20
57.130970
11
154.667502
21
58.167500
0
LINE
8
boundary
62
5
39
2
10
154.667502
20
58.167500
11
9.646265
21
58.167500
0
LINE
8
annotation
62
1
39
211
10
139.867502
20
32.417500
11
139.867502
21
33.846250
0
LINE
8
annotation
62
1
39
211
10
21.467500
20
32.417500
11
22.896250
21
32.417500
0
LINE
8
annotation
62
1
39
211
10
48.935528
20
21.408899
11
48.935528
21
48.051563
0
LINE
8
annotation
62
1
39
211
10
48.935528
20
48.051563
11
43.012523
21
42.126887
0
LINE
8
hole
62
5
39
2
10
21.181750
20
86.806750
11
21.753250
21
86.806750
0
LINE
8
hole
62
5
39
2
10
21.753250
20
86.806750
11
21.753250
21
87.378250
0
LINE
8
hole
62
5
39
2
10
21.753250
20
87.378250
11
21.181750
21
87.378250
0
LINE
8
hole
62
5
39
2
10
21.181750
20
87.378250
11
21.181750
21
86.806750
0
LINE
8
hole
62
5
39
2
10
80.381751
20
107.406750
11
80.953251
21
107.406750
0
LINE
8
hole
62
5
39
2
10
80.953251
20
107.406750
11
80.953251
21
107.978250
0
LINE
8
hole
62
5
39
2
10
80.953251
20
107.978250
11
80.381751
21
107.978250
0
LINE
8
hole
62
5
39
2
10
80.381751
20
107.978250
11
80.381751
21
107.406750
0
LINE
8
hole
62
5
39
2
10
80.381751
20
66.206750
11
80.953251
21
66.206750
0
LINE
8
hole
62
5
39
2
10
80.953251
20
66.206750
11
80.953251
21
66.778250
0
LINE
8
hole
62
5
39
2
10
80.953251
20
66.778250
11
80.381751
21
66.778250
0
LINE
8
hole
62
5
39
2
10
80.381751
20
66.778250
11
80.381751
21
66.206750
0
LINE
8
hole
62
5
39
2
10
139.581752
20
86.806750
11
140.153252
21
86.806750
0
LINE
8
hole
62
5
39
2
10
140.153252
20
86.806750
11
140.153252
21
87.378250
0
LINE
8
hole
62
5
39
2
10
140.153252
20
87.378250
11
139.581752
21
87.378250
0
LINE
8
hole
62
5
39
2
10
139.581752
20
87.378250
11
139.581752
21
86.806750
0
LINE
8
hole
62
5
39
2
10
112.547501
20
99.028751
11
113.212444
21
99.722538
0
LINE
8
hole
62
5
39
2
10
113.212444
20
99.722538
11
114.235199
21
100.478968
0
LINE
8
hole
62
5
39
2
10
114.235199
20
100.478968
11
115.371079
21
101.051668
0
LINE
8
hole
62
5
39
2
10
115.371079
20
101.051668
11
116.587411
21
101.424159
0
LINE
8
hole
62
5
39
2
10
116.587411
20
101.424159
11
117.849195
21
101.585738
0
LINE
8
hole
62
5
39
2
10
117.849195
20
101.585738
11
119.120132
21
101.531750
0
LINE
8
hole
62
5
39
2
10
119.120132
20
101.531750
11
120.363676
21
101.263744
0
LINE
8
hole
62
5
39
2
10
120.363676
20
101.263744
11
121.544034
21
100.789440
0
LINE
8
hole
62
5
39
2
10
121.544034
20
100.789440
11
122.627252
21
100.122478
0
LINE
8
hole
62
5
39
2
10
122.627252
20
100.122478
11
123.582172
21
99.282037
0
LINE
8
hole
62
5
39
2
10
123.582172
20
99.282037
11
124.381324
21
98.292306
0
LINE
8
hole
62
5
39
2
10
124.381324
20
98.292306
11
125.001714
21
97.181756
0
LINE
8
hole
62
5
39
2
10
125.001714
20
97.181756
11
125.425501
21
95.982338
0
LINE
8
hole
62
5
39
2
10
125.425501
20
95.982338
11
125.640486
21
94.728535
0
LINE
8
hole
62
5
39
2
10
125.640486
20
94.728535
11
125.640486
21
93.456459
0
LINE
8
hole
62
5
39
2
10
125.640486
20
93.456459
11
125.425501
21
92.202657
0
LINE
8
hole
62
5
39
2
10
125.425501
20
92.202657
11
125.001714
21
91.003239
0
LINE
8
hole
62
5
39
2
10
125.001714
20
91.003239
11
124.381324
21
89.892688
0
LINE
8
hole
62
5
39
2
10
124.381324
20
89.892688
11
123.582172
21
88.902957
0
LINE
8
hole
62
5
39
2
10
123.582172
20
88.902957
11
122.627252
21
88.062516
0
LINE
8
hole
62
5
39
2
10
122.627252
20
88.062516
11
121.544034
21
87.395555
0
LINE
8
hole
62
5
39
2
10
121.544034
20
87.395555
11
120.363676
21
86.921245
0
LINE
8
hole
62
5
39
2
10
120.363676
20
86.921245
11
119.120132
21
86.653244
0
LINE
8
hole
62
5
39
2
10
119.120132
20
86.653244
11
117.849195
21
86.599257
0
LINE
8
hole
62
5
39
2
10
117.849195
20
86.599257
11
116.587411
21
86.760835
0
LINE
8
hole
62
5
39
2
10
116.587411
20
86.760835
11
115.371079
21
87.133327
0
LINE
8
hole
62
5
39
2
10
115.371079
20
87.133327
11
114.235198
21
87.706027
0
LINE
8
hole
62
5
39
2
10
114.235198
20
87.706027
11
113.212444
21
88.462456
0
LINE
8
hole
62
5
39
2
10
113.212444
20
88.462456
11
112.332235
21
89.380848
0
LINE
8
hole
62
5
39
2
10
112.332235
20
89.380848
11
111.619897
21
90.434786
0
LINE
8
hole
62
5
39
2
10
111.619897
20
90.434786
11
111.095922
21
91.593948
0
LINE
8
hole
62
5
39
2
10
111.095922
20
91.593948
11
110.775384
21
92.824986
0
LINE
8
hole
62
5
39
2
10
110.775384
20
92.824986
11
110.667502
21
94.092497
0
LINE
8
hole
62
5
39
2
10
110.667502
20
94.092497
11
110.775384
21
95.360008
0
LINE
8
hole
62
5
39
2
10
110.775384
20
95.360008
11
111.095922
21
96.591046
0
LINE
8
hole
62
5
39
2
10
111.095922
20
96.591046
11
111.619897
21
97.750208
0
LINE
8
hole
62
5
39
2
10
111.619897
20
97.750208
11
112.332235
21
98.804146
0
LINE
8
hole
62
5
39
2
10
112.332235
20
98.804146
11
112.547501
21
99.028751
0
LINE
8
hole
62
5
39
2
10
87.547498
20
99.028751
11
88.212443
21
99.722538
0
LINE
8
hole
62
5
39
2
10
88.212443
20
99.722538
11
89.235201
21
100.478968
0
LINE
8
hole
62
5
39
2
10
89.235201
20
100.478968
11
90.371082
21
101.051668
0
LINE
8
hole
62
5
39
2
10
90.371082
20
101.051668
11
91.587412
21
101.424159
0
LINE
8
hole
62
5
39
2
10
91.587412
20
101.424159
11
92.849192
21
101.585737
0
LINE
8
hole
62
5
39
2
10
92.849192
20
101.585737
11
94.120132
21
101.531750
0
LINE
8
hole
62
5
39
2
10
94.120132
20
101.531750
11
95.363671
21
101.263745
0
LINE
8
hole
62
5
39
2
10
95.363671
20
101.263745
11
96.544030
21
100.789440
0
LINE
8
hole
62
5
39
2
10
96.544030
20
100.789440
11
97.627251
21
100.122478
0
LINE
8
hole
62
5
39
2
10
97.627251
20
100.122478
11
98.582172
21
99.282037
0
LINE
8
hole
62
5
39
2
10
98.582172
20
99.282037
11
99.381324
21
98.292306
0
LINE
8
hole
62
5
39
2
10
99.381324
20
98.292306
11
100.001716
21
97.181756
0
LINE
8
hole
62
5
39
2
10
100.001716
20
97.181756
11
100.425499
21
95.982338
0
LINE
8
hole
62
5
39
2
10
100.425499
20
95.982338
11
100.640483
21
94.728535
0
LINE
8
hole
62
5
39
2
10
100.640483
20
94.728535
11
100.640483
21
93.456459
0
LINE
8
hole
62
5
39
2
10
100.640483
20
93.456459
11
100.425499
21
92.202657
0
LINE
8
hole
62
5
39
2
10
100.425499
20
92.202657
11
100.001717
21
91.003239
0
LINE
8
hole
62
5
39
2
10
100.001717
20
91.003239
11
99.381324
21
89.892688
0
LINE
8
hole
62
5
39
2
10
99.381324
20
89.892688
11
98.582172
21
88.902957
0
LINE
8
hole
62
5
39
2
10
98.582172
20
88.902957
11
97.627251
21
88.062516
0
LINE
8
hole
62
5
39
2
10
97.627251
20
88.062516
11
96.544030
21
87.395554
0
LINE
8
hole
62
5
39
2
10
96.544030
20
87.395554
11
95.363671
21
86.921245
0
LINE
8
hole
62
5
39
2
10
95.363671
20
86.921245
11
94.120132
21
86.653244
0
LINE
8
hole
62
5
39
2
10
94.120132
20
86.653244
11
92.849192
21
86.599257
0
LINE
8
hole
62
5
39
2
10
92.849192
20
86.599257
11
91.587412
21
86.760835
0
LINE
8
hole
62
5
39
2
10
91.587412
20
86.760835
11
90.371081
21
87.133327
0
LINE
8
hole
62
5
39
2
10
90.371081
20
87.133327
11
89.235201
21
87.706027
0
LINE
8
hole
62
5
39
2
10
89.235201
20
87.706027
11
88.212442
21
88.462456
0
LINE
8
hole
62
5
39
2
10
88.212442
20
88.462456
11
87.332231
21
89.380848
0
LINE
8
hole
62
5
39
2
10
87.332231
20
89.380848
11
86.619893
21
90.434787
0
LINE
8
hole
62
5
39
2
10
86.619893
20
90.434787
11
86.095920
21
91.593948
0
LINE
8
hole
62
5
39
2
10
86.095920
20
91.593948
11
85.775381
21
92.824986
0
LINE
8
hole
62
5
39
2
10
85.775381
20
92.824986
11
85.667500
21
94.092497
0
LINE
8
hole
62
5
39
2
10
85.667500
20
94.092497
11
85.775381
21
95.360008
0
LINE
8
hole
62
5
39
2
10
85.775381
20
95.360008
11
86.095920
21
96.591047
0
LINE
8
hole
62
5
39
2
10
86.095920
20
96.591047
11
86.619893
21
97.750208
0
LINE
8
hole
62
5
39
2
10
86.619893
20
97.750208
11
87.332231
21
98.804147
0
LINE
8
hole
62
5
39
2
10
87.332231
20
98.804147
11
87.547498
21
99.028751
0
LINE
8
hole
62
5
39
2
10
93.167501
20
74.217495
11
116.009599
21
74.217495
0
LINE
8
hole
62
5
39
2
10
116.009599
20
74.217495
11
118.167504
21
74.217495
0
LINE
8
hole
62
5
39
2
10
118.167504
20
74.217495
11
118.167504
21
66.908021
0
LINE
8
hole
62
5
39
2
10
118.167504
20
66.908021
11
118.167505
21
66.217492
0
LINE
8
hole
62
5
39
2
10
118.167505
20
66.217492
11
95.325406
21
66.217491
0
LINE
8
hole
62
5
39
2
10
95.325406
20
66.217491
11
93.167501
21
66.217491
0
LINE
8
hole
62
5
39
2
10
93.167501
20
66.217491
11
93.167501
21
73.526965
0
LINE
8
hole
62
5
39
2
10
93.167501
20
73.526965
11
93.167501
21
74.217495
0
LINE
8
boundary
62
5
39
2
10
19.442298
20
112.842500
11
6.667500
21
112.842500
0
LINE
8
boundary
62
5
39
2
10
6.667500
20
112.842500
11
6.667500
21
65.787784
0
LINE
8
boundary
62
5
39
2
10
6.667500
20
65.787784
11
6.667500
21
61.342500
0
LINE
8
boundary
62
5
39
2
10
6.667500
20
61.342500
11
141.892705
21
61.342500
0
LINE
8
boundary
62
5
39
2
10
141.892705
20
61.342500
11
154.667502
21
61.342500
0
LINE
8
boundary
62
5
39
2
10
154.667502
20
61.342500
11
154.667502
21
108.397215
0
LINE
8
boundary
62
5
39
2
10
154.667502
20
108.397215
11
154.667502
21
112.842500
0
LINE
8
boundary
62
5
39
2
10
154.667502
20
112.842500
11
19.442298
21
112.842500
0
LINE
8
annotation
62
1
39
211
10
139.867502
20
87.092500
11
139.867502
21
88.521250
0
LINE
8
annotation
62
1
39
211
10
21.467500
20
87.092500
11
22.896250
21
87.092500
0
LINE
8
annotation
62
1
39
211
10
80.667501
20
107.692500
11
80.667501
21
109.121250
0
LINE
8
annotation
62
1
39
211
10
80.667501
20
107.692500
11
80.667501
21
109.121250
0
LINE
8
annotation
62
1
39
211
10
80.667501
20
109.121250
11
80.667501
21
107.692500
0
LINE
8
annotation
62
1
39
211
10
80.667501
20
107.692500
11
82.096251
21
107.692500
0
LINE
8
annotation
62
1
39
211
10
80.667501
20
66.492500
11
80.667501
21
65.063750
0
LINE
8
annotation
62
1
39
211
10
47.264050
20
76.083682
11
35.431405
21
76.083682
0
LINE
8
annotation
62
1
39
211
10
35.431405
20
76.083682
11
46.365157
21
93.685618
0
LINE
8
annotation
62
1
39
211
10
46.365157
20
93.685618
11
46.365157
21
93.685618
0
LINE
8
annotation
62
1
39
211
10
46.365157
20
93.685618
11
46.378227
21
93.701792
0
LINE
8
annotation
62
1
39
211
10
46.378227
20
93.701792
11
46.390762
21
93.718104
0
LINE
8
annotation
62
1
39
211
10
46.390762
20
93.718104
11
46.402843
21
93.734690
0
LINE
8
annotation
62
1
39
211
10
46.402843
20
93.734690
11
46.414552
21
93.751690
0
LINE
8
annotation
62
1
39
211
10
46.414552
20
93.751690
11
46.425973
21
93.769239
0
LINE
8
annotation
62
1
39
211
10
46.425973
20
93.769239
11
46.437187
21
93.787475
0
LINE
8
annotation
62
1
39
211
10
46.437187
20
93.787475
11
46.448277
21
93.806537
0
LINE
8
annotation
62
1
39
211
10
46.448277
20
93.806537
11
46.459327
21
93.826562
0
LINE
8
annotation
62
1
39
211
10
46.459327
20
93.826562
11
46.470417
21
93.847686
0
LINE
8
annotation
62
1
39
211
10
46.470417
20
93.847686
11
46.470417
21
93.847686
0
LINE
8
annotation
62
1
39
211
10
46.470417
20
93.847686
11
46.921869
21
94.816992
0
LINE
8
annotation
62
1
39
211
10
46.921869
20
94.816992
11
47.185600
21
95.821763
0
LINE
8
annotation
62
1
39
211
10
47.185600
20
95.821763
11
47.268072
21
96.839295
0
LINE
8
annotation
62
1
39
211
10
47.268072
20
96.839295
11
47.175749
21
97.846884
0
LINE
8
annotation
62
1
39
211
10
47.175749
20
97.846884
11
46.915095
21
98.821828
0
LINE
8
annotation
62
1
39
211
10
46.915095
20
98.821828
11
46.492571
21
99.741422
0
LINE
8
annotation
62
1
39
211
10
46.492571
20
99.741422
11
45.914642
21
100.582962
0
LINE
8
annotation
62
1
39
211
10
45.914642
20
100.582962
11
45.187770
21
101.323746
0
LINE
8
annotation
62
1
39
211
10
45.187770
20
101.323746
11
44.318420
21
101.941068
0
LINE
8
annotation
62
1
39
211
10
44.318420
20
101.941068
11
44.318420
21
101.941068
0
LINE
8
annotation
62
1
39
211
10
44.318420
20
101.941068
11
43.346419
21
102.386105
0
LINE
8
annotation
62
1
39
211
10
43.346419
20
102.386105
11
42.340108
21
102.645772
0
LINE
8
annotation
62
1
39
211
10
42.340108
20
102.645772
11
41.321985
21
102.725914
0
LINE
8
annotation
62
1
39
211
10
41.321985
20
102.725914
11
40.314546
21
102.632374
0
LINE
8
annotation
62
1
39
211
10
40.314546
20
102.632374
11
39.340290
21
102.370997
0
LINE
8
annotation
62
1
39
211
10
39.340290
20
102.370997
11
38.421714
21
101.947628
0
LINE
8
annotation
62
1
39
211
10
38.421714
20
101.947628
11
37.581315
21
101.368110
0
LINE
8
annotation
62
1
39
211
10
37.581315
20
101.368110
11
36.841590
21
100.638289
0
LINE
8
annotation
62
1
39
211
10
36.841590
20
100.638289
11
36.225038
21
99.764009
0
LINE
8
annotation
62
1
39
211
10
36.225038
20
99.764009
11
35.448113
21
98.273650
0
LINE
8
hole
62
5
39
2
10
21.181750
20
141.481750
11
21.753250
21
141.481750
0
LINE
8
hole
62
5
39
2
10
21.753250
20
141.481750
11
21.753250
21
142.053250
0
LINE
8
hole
62
5
39
2
10
21.753250
20
142.053250
11
21.181750
21
142.053250
0
LINE
8
hole
62
5
39
2
10
21.181750
20
142.053250
11
21.181750
21
141.481750
0
LINE
8
hole
62
5
39
2
10
80.381751
20
162.081750
11
80.953251
21
162.081750
0
LINE
8
hole
62
5
39
2
10
80.953251
20
162.081750
11
80.953251
21
162.653250
0
LINE
8
hole
62
5
39
2
10
80.953251
20
162.653250
11
80.381751
21
162.653250
0
LINE
8
hole
62
5
39
2
10
80.381751
20
162.653250
11
80.381751
21
162.081750
0
LINE
8
hole
62
5
39
2
10
80.381751
20
120.881750
11
80.953251
21
120.881750
0
LINE
8
hole
62
5
39
2
10
80.953251
20
120.881750
11
80.953251
21
121.453250
0
LINE
8
hole
62
5
39
2
10
80.953251
20
121.453250
11
80.381751
21
121.453250
0
LINE
8
hole
62
5
39
2
10
80.381751
20
121.453250
11
80.381751
21
120.881750
0
LINE
8
hole
62
5
39
2
10
139.581752
20
141.481750
11
140.153252
21
141.481750
0
LINE
8
hole
62
5
39
2
10
140.153252
20
141.481750
11
140.153252
21
142.053250
0
LINE
8
hole
62
5
39
2
10
140.153252
20
142.053250
11
139.581752
21
142.053250
0
LINE
8
hole
62
5
39
2
10
139.581752
20
142.053250
11
139.581752
21
141.481750
0
LINE
8
hole
62
5
39
2
10
112.712573
20
153.875983
11
113.212444
21
154.397538
0
LINE
8
hole
62
5
39
2
10
113.212444
20
154.397538
11
113.654375
21
154.724391
0
LINE
8
hole
62
5
39
2
10
113.654375
20
154.724391
11
114.235199
21
155.153967
0
LINE
8
hole
62
5
39
2
10
114.235199
20
155.153967
11
114.726012
21
155.401431
0
LINE
8
hole
62
5
39
2
10
114.726012
20
155.401431
11
115.371079
21
155.726668
0
LINE
8
hole
62
5
39
2
10
115.371079
20
155.726668
11
115.896655
21
155.887621
0
LINE
8
hole
62
5
39
2
10
115.896655
20
155.887621
11
116.587411
21
156.099159
0
LINE
8
hole
62
5
39
2
10
116.587411
20
156.099159
11
117.132627
21
156.168977
0
LINE
8
hole
62
5
39
2
10
117.132627
20
156.168977
11
117.849195
21
156.260737
0
LINE
8
hole
62
5
39
2
10
117.849195
20
156.260737
11
118.398366
21
156.237409
0
LINE
8
hole
62
5
39
2
10
118.398366
20
156.237409
11
119.120132
21
156.206750
0
LINE
8
hole
62
5
39
2
10
119.120132
20
156.206750
11
119.657467
21
156.090945
0
LINE
8
hole
62
5
39
2
10
119.657467
20
156.090945
11
120.363676
21
155.938744
0
LINE
8
hole
62
5
39
2
10
120.363676
20
155.938744
11
120.873708
21
155.733798
0
LINE
8
hole
62
5
39
2
10
120.873708
20
155.733798
11
121.544034
21
155.464440
0
LINE
8
hole
62
5
39
2
10
121.544034
20
155.464440
11
122.012092
21
155.176246
0
LINE
8
hole
62
5
39
2
10
122.012092
20
155.176246
11
122.627252
21
154.797477
0
LINE
8
hole
62
5
39
2
10
122.627252
20
154.797477
11
123.039872
21
154.434324
0
LINE
8
hole
62
5
39
2
10
123.039872
20
154.434324
11
123.582172
21
153.957037
0
LINE
8
hole
62
5
39
2
10
123.582172
20
153.957037
11
123.927485
21
153.529375
0
LINE
8
hole
62
5
39
2
10
123.927485
20
153.529375
11
124.381324
21
152.967306
0
LINE
8
hole
62
5
39
2
10
124.381324
20
152.967306
11
124.649394
21
152.487438
0
LINE
8
hole
62
5
39
2
10
124.649394
20
152.487438
11
125.001714
21
151.856756
0
LINE
8
hole
62
5
39
2
10
125.001714
20
151.856756
11
125.184832
21
151.338488
0
LINE
8
hole
62
5
39
2
10
125.184832
20
151.338488
11
125.425501
21
150.657337
0
LINE
8
hole
62
5
39
2
10
125.425501
20
150.657337
11
125.518396
21
150.115571
0
LINE
8
hole
62
5
39
2
10
125.518396
20
150.115571
11
125.640486
21
149.403535
0
LINE
8
hole
62
5
39
2
10
125.640486
20
149.403535
11
125.640486
21
148.853872
0
LINE
8
hole
62
5
39
2
10
125.640486
20
148.853872
11
125.640486
21
148.131459
0
LINE
8
hole
62
5
39
2
10
125.640486
20
148.131459
11
125.547591
21
147.589692
0
LINE
8
hole
62
5
39
2
10
125.547591
20
147.589692
11
125.425501
21
146.877657
0
LINE
8
hole
62
5
39
2
10
125.425501
20
146.877657
11
125.242383
21
146.359389
0
LINE
8
hole
62
5
39
2
10
125.242383
20
146.359389
11
125.001714
21
145.678239
0
LINE
8
hole
62
5
39
2
10
125.001714
20
145.678239
11
124.733644
21
145.198371
0
LINE
8
hole
62
5
39
2
10
124.733644
20
145.198371
11
124.381324
21
144.567688
0
LINE
8
hole
62
5
39
2
10
124.381324
20
144.567688
11
124.036011
21
144.140026
0
LINE
8
hole
62
5
39
2
10
124.036011
20
144.140026
11
123.582172
21
143.577957
0
LINE
8
hole
62
5
39
2
10
123.582172
20
143.577957
11
123.169552
21
143.214803
0
LINE
8
hole
62
5
39
2
10
123.169552
20
143.214803
11
122.627252
21
142.737516
0
LINE
8
hole
62
5
39
2
10
122.627252
20
142.737516
11
122.159194
21
142.449323
0
LINE
8
hole
62
5
39
2
10
122.159194
20
142.449323
11
121.544034
21
142.070554
0
LINE
8
hole
62
5
39
2
10
121.544034
20
142.070554
11
121.034002
21
141.865606
0
LINE
8
hole
62
5
39
2
10
121.034002
20
141.865606
11
120.363676
21
141.596245
0
LINE
8
hole
62
5
39
2
10
120.363676
20
141.596245
11
119.826342
21
141.480442
0
LINE
8
hole
62
5
39
2
10
119.826342
20
141.480442
11
119.120132
21
141.328244
0
LINE
8
hole
62
5
39
2
10
119.120132
20
141.328244
11
118.570961
21
141.304916
0
LINE
8
hole
62
5
39
2
10
118.570961
20
141.304916
11
117.849195
21
141.274257
0
LINE
8
hole
62
5
39
2
10
117.849195
20
141.274257
11
117.303979
21
141.344075
0
LINE
8
hole
62
5
39
2
10
117.303979
20
141.344075
11
116.587411
21
141.435835
0
LINE
8
hole
62
5
39
2
10
116.587411
20
141.435835
11
116.061835
21
141.596789
0
LINE
8
hole
62
5
39
2
10
116.061835
20
141.596789
11
115.371079
21
141.808327
0
LINE
8
hole
62
5
39
2
10
115.371079
20
141.808327
11
114.880266
21
142.055790
0
LINE
8
hole
62
5
39
2
10
114.880266
20
142.055790
11
114.235198
21
142.381027
0
LINE
8
hole
62
5
39
2
10
114.235198
20
142.381027
11
113.793267
21
142.707879
0
LINE
8
hole
62
5
39
2
10
113.793267
20
142.707879
11
113.212444
21
143.137456
0
LINE
8
hole
62
5
39
2
10
113.212444
20
143.137456
11
112.832106
21
143.534293
0
LINE
8
hole
62
5
39
2
10
112.832106
20
143.534293
11
112.332235
21
144.055848
0
LINE
8
hole
62
5
39
2
10
112.332235
20
144.055848
11
112.024434
21
144.511254
0
LINE
8
hole
62
5
39
2
10
112.024434
20
144.511254
11
111.619897
21
145.109786
0
LINE
8
hole
62
5
39
2
10
111.619897
20
145.109786
11
111.393488
21
145.610659
0
LINE
8
hole
62
5
39
2
10
111.393488
20
145.610659
11
111.095922
21
146.268947
0
LINE
8
hole
62
5
39
2
10
111.095922
20
146.268947
11
110.957418
21
146.800879
0
LINE
8
hole
62
5
39
2
10
110.957418
20
146.800879
11
110.775384
21
147.499986
0
LINE
8
hole
62
5
39
2
10
110.775384
20
147.499986
11
110.728768
21
148.047677
0
LINE
8
hole
62
5
39
2
10
110.728768
20
148.047677
11
110.667502
21
148.767497
0
LINE
8
hole
62
5
39
2
10
110.667502
20
148.767497
11
110.714117
21
149.315187
0
LINE
8
hole
62
5
39
2
10
110.714117
20
149.315187
11
110.775384
21
150.035008
0
LINE
8
hole
62
5
39
2
10
110.775384
20
150.035008
11
110.913888
21
150.566938
0
LINE
8
hole
62
5
39
2
10
110.913888
20
150.566938
11
111.095922
21
151.266046
0
LINE
8
hole
62
5
39
2
10
111.095922
20
151.266046
11
111.322331
21
151.766919
0
LINE
8
hole
62
5
39
2
10
111.322331
20
151.766919
11
111.619897
21
152.425208
0
LINE
8
hole
62
5
39
2
10
111.619897
20
152.425208
11
111.927698
21
152.880614
0
LINE
8
hole
62
5
39
2
10
111.927698
20
152.880614
11
112.332235
21
153.479146
0
LINE
8
hole
62
5
39
2
10
112.332235
20
153.479146
11
112.712573
21
153.875983
0
LINE
8
hole
62
5
39
2
10
87.712570
20
153.875983
11
88.212443
21
154.397538
0
LINE
8
hole
62
5
39
2
10
88.212443
20
154.397538
11
88.654376
21
154.724391
0
LINE
8
hole
62
5
39
2
10
88.654376
20
154.724391
11
89.235201
21
155.153968
0
LINE
8
hole
62
5
39
2
10
89.235201
20
155.153968
11
89.726014
21
155.401431
0
LINE
8
hole
62
5
39
2
10
89.726014
20
155.401431
11
90.371082
21
155.726668
0
LINE
8
hole
62
5
39
2
10
90.371082
20
155.726668
11
90.896657
21
155.887621
0
LINE
8
hole
62
5
39
2
10
90.896657
20
155.887621
11
91.587412
21
156.099159
0
LINE
8
hole
62
5
39
2
10
91.587412
20
156.099159
11
92.132626
21
156.168977
0
LINE
8
hole
62
5
39
2
10
92.132626
20
156.168977
11
92.849192
21
156.260737
0
LINE
8
hole
62
5
39
2
10
92.849192
20
156.260737
11
93.398364
21
156.237409
0
LINE
8
hole
62
5
39
2
10
93.398364
20
156.237409
11
94.120132
21
156.206750
0
LINE
8
hole
62
5
39
2
10
94.120132
20
156.206750
11
94.657465
21
156.090945
0
LINE
8
hole
62
5
39
2
10
94.657465
20
156.090945
11
95.363671
21
155.938744
0
LINE
8
hole
62
5
39
2
10
95.363671
20
155.938744
11
95.873703
21
155.733798
0
LINE
8
hole
62
5
39
2
10
95.873703
20
155.733798
11
96.544030
21
155.464440
0
LINE
8
hole
62
5
39
2
10
96.544030
20
155.464440
11
97.012089
21
155.176246
0
LINE
8
hole
62
5
39
2
10
97.012089
20
155.176246
11
97.627251
21
154.797477
0
LINE
8
hole
62
5
39
2
10
97.627251
20
154.797477
11
98.039871
21
154.434324
0
LINE
8
hole
62
5
39
2
10
98.039871
20
154.434324
11
98.582172
21
153.957037
0
LINE
8
hole
62
5
39
2
10
98.582172
20
153.957037
11
98.927485
21
153.529375
0
LINE
8
hole
62
5
39
2
10
98.927485
20
153.529375
11
99.381324
21
152.967306
0
LINE
8
hole
62
5
39
2
10
99.381324
20
152.967306
11
99.649395
21
152.487438
0
LINE
8
hole
62
5
39
2
10
99.649395
20
152.487438
11
100.001716
21
151.856755
0
LINE
8
hole
62
5
39
2
10
100.001716
20
151.856755
11
100.184833
21
151.338488
0
LINE
8
hole
62
5
39
2
10
100.184833
20
151.338488
11
100.425499
21
150.657338
0
LINE
8
hole
62
5
39
2
10
100.425499
20
150.657338
11
100.518393
21
150.115571
0
LINE
8
hole
62
5
39
2
10
100.518393
20
150.115571
11
100.640483
21
149.403535
0
LINE
8
hole
62
5
39
2
10
100.640483
20
149.403535
11
100.640482
21
148.853872
0
LINE
8
hole
62
5
39
2
10
100.640482
20
148.853872
11
100.640483
21
148.131459
0
LINE
8
hole
62
5
39
2
10
100.640483
20
148.131459
11
100.547588
21
147.589692
0
LINE
8
hole
62
5
39
2
10
100.547588
20
147.589692
11
100.425499
21
146.877657
0
LINE
8
hole
62
5
39
2
10
100.425499
20
146.877657
11
100.242383
21
146.359389
0
LINE
8
hole
62
5
39
2
10
100.242383
20
146.359389
11
100.001717
21
145.678239
0
LINE
8
hole
62
5
39
2
10
100.001717
20
145.678239
11
99.733645
21
145.198371
0
LINE
8
hole
62
5
39
2
10
99.733645
20
145.198371
11
99.381324
21
144.567688
0
LINE
8
hole
62
5
39
2
10
99.381324
20
144.567688
11
99.036011
21
144.140026
0
LINE
8
hole
62
5
39
2
10
99.036011
20
144.140026
11
98.582172
21
143.577957
0
LINE
8
hole
62
5
39
2
10
98.582172
20
143.577957
11
98.169551
21
143.214803
0
LINE
8
hole
62
5
39
2
10
98.169551
20
143.214803
11
97.627251
21
142.737516
0
LINE
8
hole
62
5
39
2
10
97.627251
20
142.737516
11
97.159192
21
142.449322
0
LINE
8
hole
62
5
39
2
10
97.159192
20
142.449322
11
96.544030
21
142.070554
0
LINE
8
hole
62
5
39
2
10
96.544030
20
142.070554
11
96.033998
21
141.865606
0
LINE
8
hole
62
5
39
2
10
96.033998
20
141.865606
11
95.363671
21
141.596245
0
LINE
8
hole
62
5
39
2
10
95.363671
20
141.596245
11
94.826339
21
141.480442
0
LINE
8
hole
62
5
39
2
10
94.826339
20
141.480442
11
94.120132
21
141.328244
0
LINE
8
hole
62
5
39
2
10
94.120132
20
141.328244
11
93.570960
21
141.304916
0
LINE
8
hole
62
5
39
2
10
93.570960
20
141.304916
11
92.849192
21
141.274257
0
LINE
8
hole
62
5
39
2
10
92.849192
20
141.274257
11
92.303978
21
141.344075
0
LINE
8
hole
62
5
39
2
10
92.303978
20
141.344075
11
91.587412
21
141.435835
0
LINE
8
hole
62
5
39
2
10
91.587412
20
141.435835
11
91.061837
21
141.596789
0
LINE
8
hole
62
5
39
2
10
91.061837
20
141.596789
11
90.371081
21
141.808327
0
LINE
8
hole
62
5
39
2
10
90.371081
20
141.808327
11
89.880269
21
142.055790
0
LINE
8
hole
62
5
39
2
10
89.880269
20
142.055790
11
89.235201
21
142.381027
0
LINE
8
hole
62
5
39
2
10
89.235201
20
142.381027
11
88.793268
21
142.707879
0
LINE
8
hole
62
5
39
2
10
88.793268
20
142.707879
11
88.212442
21
143.137456
0
LINE
8
hole
62
5
39
2
10
88.212442
20
143.137456
11
87.832104
21
143.534292
0
LINE
8
hole
62
5
39
2
10
87.832104
20
143.534292
11
87.332231
21
144.055848
0
LINE
8
hole
62
5
39
2
10
87.332231
20
144.055848
11
87.024430
21
144.511254
0
LINE
8
hole
62
5
39
2
10
87.024430
20
144.511254
11
86.619893
21
145.109786
0
LINE
8
hole
62
5
39
2
10
86.619893
20
145.109786
11
86.393485
21
145.610659
0
LINE
8
hole
62
5
39
2
10
86.393485
20
145.610659
11
86.095920
21
146.268948
0
LINE
8
hole
62
5
39
2
10
86.095920
20
146.268948
11
85.957416
21
146.800878
0
LINE
8
hole
62
5
39
2
10
85.957416
20
146.800878
11
85.775381
21
147.499986
0
LINE
8
hole
62
5
39
2
10
85.775381
20
147.499986
11
85.728766
21
148.047677
0
LINE
8
hole
62
5
39
2
10
85.728766
20
148.047677
11
85.667500
21
148.767497
0
LINE
8
hole
62
5
39
2
10
85.667500
20
148.767497
11
85.714115
21
149.315187
0
LINE
8
hole
62
5
39
2
10
85.714115
20
149.315187
11
85.775381
21
150.035008
0
LINE
8
hole
62
5
39
2
10
85.775381
20
150.035008
11
85.913886
21
150.566938
0
LINE
8
hole
62
5
39
2
10
85.913886
20
150.566938
11
86.095920
21
151.266046
0
LINE
8
hole
62
5
39
2
10
86.095920
20
151.266046
11
86.322329
21
151.766919
0
LINE
8
hole
62
5
39
2
10
86.322329
20
151.766919
11
86.619893
21
152.425208
0
LINE
8
hole
62
5
39
2
10
86.619893
20
152.425208
11
86.927693
21
152.880614
0
LINE
8
hole
62
5
39
2
10
86.927693
20
152.880614
11
87.332231
21
153.479146
0
LINE
8
hole
62
5
39
2
10
87.332231
20
153.479146
11
87.712570
21
153.875983
0
LINE
8
hole
62
5
39
2
10
93.167501
20
128.892495
11
114.354864
21
128.892495
0
LINE
8
hole
62
5
39
2
10
114.354864
20
128.892495
11
118.167504
21
128.892495
0
LINE
8
hole
62
5
39
2
10
118.167504
20
128.892495
11
118.167504
21
122.112537
0
LINE
8
hole
62
5
39
2
10
118.167504
20
122.112537
11
118.167505
21
120.892492
0
LINE
8
hole
62
5
39
2
10
118.167505
20
120.892492
11
96.980142
21
120.892491
0
LINE
8
hole
62
5
39
2
10
96.980142
20
120.892491
11
93.167501
21
120.892491
0
LINE
8
hole
62
5
39
2
10
93.167501
20
120.892491
11
93.167501
21
127.672450
0
LINE
8
hole
62
5
39
2
10
93.167501
20
127.672450
11
93.167501
21
128.892495
0
LINE
8
boundary
62
5
39
2
10
29.238330
20
167.517500
11
6.667500
21
167.517499
0
LINE
8
boundary
62
5
39
2
10
6.667500
20
167.517499
11
6.667500
21
123.871539
0
LINE
8
boundary
62
5
39
2
10
6.667500
20
123.871539
11
6.667500
21
116.017500
0
LINE
8
boundary
62
5
39
2
10
6.667500
20
116.017500
11
132.096672
21
116.017500
0
LINE
8
boundary
62
5
39
2
10
132.096672
20
116.017500
11
154.667502
21
116.017500
0
LINE
8
boundary
62
5
39
2
10
154.667502
20
116.017500
11
154.667502
21
159.663461
0
LINE
8
boundary
62
5
39
2
10
154.667502
20
159.663461
11
154.667502
21
167.517499
0
LINE
8
boundary
62
5
39
2
10
154.667502
20
167.517499
11
29.238330
21
167.517500
0
LINE
8
annotation
62
1
39
211
10
80.667501
20
162.367500
11
80.667501
21
163.796250
0
LINE
8
annotation
62
1
39
211
10
80.667501
20
162.367500
11
80.667501
21
163.796250
0
LINE
8
annotation
62
1
39
211
10
80.667501
20
163.796250
11
80.667501
21
162.367500
0
LINE
8
annotation
62
1
39
211
10
80.667501
20
162.367500
11
82.096251
21
162.367500
0
LINE
8
annotation
62
1
39
211
10
80.667501
20
121.167500
11
80.667501
21
119.738750
0
LINE
8
annotation
62
1
39
211
10
139.867502
20
141.767500
11
139.867502
21
143.196250
0
LINE
8
annotation
62
1
39
211
10
139.867502
20
141.767500
11
139.867502
21
143.196250
0
LINE
8
annotation
62
1
39
211
10
139.867502
20
143.196250
11
139.867502
21
141.767500
0
LINE
8
annotation
62
1
39
211
10
139.867502
20
141.767500
11
139.867502
21
140.338750
0
LINE
8
annotation
62
1
39
211
10
21.467500
20
141.767500
11
22.896250
21
141.767500
0
LINE
8
annotation
62
1
39
211
10
21.467500
20
141.767500
11
22.896250
21
141.767500
0
LINE
8
annotation
62
1
39
211
10
22.896250
20
141.767500
11
21.467500
21
141.767500
0
LINE
8
annotation
62
1
39
211
10
21.467500
20
141.767500
11
21.467500
21
140.338750
0
LINE
8
annotation
62
1
39
211
10
35.431405
20
130.759734
11
41.347728
21
130.759734
0
LINE
8
annotation
62
1
39
211
10
41.347728
20
130.759734
11
41.347728
21
130.759734
0
LINE
8
annotation
62
1
39
211
10
41.347728
20
130.759734
11
42.411792
21
130.855188
0
LINE
8
annotation
62
1
39
211
10
42.411792
20
130.855188
11
43.413040
21
131.130291
0
LINE
8
annotation
62
1
39
211
10
43.413040
20
131.130291
11
44.334818
21
131.568157
0
LINE
8
annotation
62
1
39
211
10
44.334818
20
131.568157
11
45.160474
21
132.151898
0
LINE
8
annotation
62
1
39
211
10
45.160474
20
132.151898
11
45.873353
21
132.864628
0
LINE
8
annotation
62
1
39
211
10
45.873353
20
132.864628
11
46.456803
21
133.689461
0
LINE
8
annotation
62
1
39
211
10
46.456803
20
133.689461
11
46.894172
21
134.609508
0
LINE
8
annotation
62
1
39
211
10
46.894172
20
134.609508
11
47.168805
21
135.607885
0
LINE
8
annotation
62
1
39
211
10
47.168805
20
135.607885
11
47.264050
21
136.667702
0
LINE
8
annotation
62
1
39
211
10
47.264050
20
136.667702
11
47.264050
21
139.630041
0
LINE
8
annotation
62
1
39
211
10
47.264050
20
139.630041
11
47.264050
21
139.630041
0
LINE
8
annotation
62
1
39
211
10
47.264050
20
139.630041
11
47.168805
21
140.689418
0
LINE
8
annotation
62
1
39
211
10
47.168805
20
140.689418
11
46.894172
21
141.687561
0
LINE
8
annotation
62
1
39
211
10
46.894172
20
141.687561
11
46.456803
21
142.607540
0
LINE
8
annotation
62
1
39
211
10
46.456803
20
142.607540
11
45.873353
21
143.432427
0
LINE
8
annotation
62
1
39
211
10
45.873353
20
143.432427
11
45.160474
21
144.145295
0
LINE
8
annotation
62
1
39
211
10
45.160474
20
144.145295
11
44.334818
21
144.729215
0
LINE
8
annotation
62
1
39
211
10
44.334818
20
144.729215
11
43.413040
21
145.167260
0
LINE
8
annotation
62
1
39
211
10
43.413040
20
145.167260
11
42.411792
21
145.442500
0
LINE
8
annotation
62
1
39
211
10
42.411792
20
145.442500
11
41.347728
21
145.538009
0
LINE
8
annotation
62
1
39
211
10
41.347728
20
145.538009
11
38.385390
21
145.538009
0
LINE
8
annotation
62
1
39
211
10
38.385390
20
145.538009
11
41.347728
21
145.538009
0
LINE
8
annotation
62
1
39
211
10
41.347728
20
145.538009
11
41.347728
21
145.538009
0
LINE
8
annotation
62
1
39
211
10
41.347728
20
145.538009
11
42.411792
21
145.633540
0
LINE
8
annotation
62
1
39
211
10
42.411792
20
145.633540
11
43.413040
21
145.908941
0
LINE
8
annotation
62
1
39
211
10
43.413040
20
145.908941
11
44.334818
21
146.347421
0
LINE
8
annotation
62
1
39
211
10
44.334818
20
146.347421
11
45.160474
21
146.932189
0
LINE
8
annotation
62
1
39
211
10
45.160474
20
146.932189
11
45.873353
21
147.646455
0
LINE
8
annotation
62
1
39
211
10
45.873353
20
147.646455
11
46.456803
21
148.473428
0
LINE
8
annotation
62
1
39
211
10
46.456803
20
148.473428
11
46.894172
21
149.396318
0
LINE
8
annotation
62
1
39
211
10
46.894172
20
149.396318
11
47.168805
21
150.398334
0
LINE
8
annotation
62
1
39
211
10
47.168805
20
150.398334
11
47.264050
21
151.462685
0
LINE
8
annotation
62
1
39
211
10
47.264050
20
151.462685
11
47.264050
21
151.462685
0
LINE
8
annotation
62
1
39
211
10
47.264050
20
151.462685
11
47.168805
21
152.522063
0
LINE
8
annotation
62
1
39
211
10
47.168805
20
152.522063
11
46.894172
21
153.520205
0
LINE
8
annotation
62
1
39
211
10
46.894172
20
153.520205
11
46.456803
21
154.440184
0
LINE
8
annotation
62
1
39
211
10
46.456803
20
154.440184
11
45.873353
21
155.265072
0
LINE
8
annotation
62
1
39
211
10
45.873353
20
155.265072
11
45.160474
21
155.977940
0
LINE
8
annotation
62
1
39
211
10
45.160474
20
155.977940
11
44.334818
21
156.561860
0
LINE
8
annotation
62
1
39
211
10
44.334818
20
156.561860
11
43.413040
21
156.999904
0
LINE
8
annotation
62
1
39
211
10
43.413040
20
156.999904
11
42.411792
21
157.275145
0
LINE
8
annotation
62
1
39
211
10
42.411792
20
157.275145
11
41.347728
21
157.370653
0
LINE
8
annotation
62
1
39
211
10
41.347728
20
157.370653
11
35.431405
21
157.370653
0
LINE
8
hole
62
5
39
2
10
21.181750
20
196.156750
11
21.753250
21
196.156750
0
LINE
8
hole
62
5
39
2
10
21.753250
20
196.156750
11
21.753250
21
196.728250
0
LINE
8
hole
62
5
39
2
10
21.753250
20
196.728250
11
21.181750
21
196.728250
0
LINE
8
hole
62
5
39
2
10
21.181750
20
196.728250
11
21.181750
21
196.156750
0
LINE
8
hole
62
5
39
2
10
80.381751
20
216.756750
11
80.953251
21
216.756750
0
LINE
8
hole
62
5
39
2
10
80.953251
20
216.756750
11
80.953251
21
217.328250
0
LINE
8
hole
62
5
39
2
10
80.953251
20
217.328250
11
80.381751
21
217.328250
0
LINE
8
hole
62
5
39
2
10
80.381751
20
217.328250
11
80.381751
21
216.756750
0
LINE
8
hole
62
5
39
2
10
80.381751
20
175.556750
11
80.953251
21
175.556750
0
LINE
8
hole
62
5
39
2
10
80.953251
20
175.556750
11
80.953251
21
176.128250
0
LINE
8
hole
62
5
39
2
10
80.953251
20
176.128250
11
80.381751
21
176.128250
0
LINE
8
hole
62
5
39
2
10
80.381751
20
176.128250
11
80.381751
21
175.556750
0
LINE
8
hole
62
5
39
2
10
139.581752
20
196.156750
11
140.153252
21
196.156750
0
LINE
8
hole
62
5
39
2
10
140.153252
20
196.156750
11
140.153252
21
196.728250
0
LINE
8
hole
62
5
39
2
10
140.153252
20
196.728250
11
139.581752
21
196.728250
0
LINE
8
hole
62
5
39
2
10
139.581752
20
196.728250
11
139.581752
21
196.156750
0
LINE
8
hole
62
5
39
2
10
112.877644
20
208.723215
11
113.846179
21
209.541249
0
LINE
8
hole
62
5
39
2
10
113.846179
20
209.541249
11
114.939031
21
210.183833
0
LINE
8
hole
62
5
39
2
10
114.939031
20
210.183833
11
116.124762
21
210.632477
0
LINE
8
hole
62
5
39
2
10
116.124762
20
210.632477
11
117.369257
21
210.874279
0
LINE
8
hole
62
5
39
2
10
117.369257
20
210.874279
11
118.636713
21
210.902285
0
LINE
8
hole
62
5
39
2
10
118.636713
20
210.902285
11
119.890677
21
210.715684
0
LINE
8
hole
62
5
39
2
10
119.890677
20
210.715684
11
121.095068
21
210.319848
0
LINE
8
hole
62
5
39
2
10
121.095068
20
210.319848
11
122.215235
21
209.726166
0
LINE
8
hole
62
5
39
2
10
122.215235
20
209.726166
11
123.218955
21
208.951710
0
LINE
8
hole
62
5
39
2
10
123.218955
20
208.951710
11
124.077355
21
208.018764
0
LINE
8
hole
62
5
39
2
10
124.077355
20
208.018764
11
124.765740
21
206.954169
0
LINE
8
hole
62
5
39
2
10
124.765740
20
206.954169
11
125.264307
21
205.788553
0
LINE
8
hole
62
5
39
2
10
125.264307
20
205.788553
11
125.558713
21
204.555437
0
LINE
8
hole
62
5
39
2
10
125.558713
20
204.555437
11
125.640486
21
203.290311
0
LINE
8
hole
62
5
39
2
10
125.640486
20
203.290311
11
125.507273
21
202.029558
0
LINE
8
hole
62
5
39
2
10
125.507273
20
202.029558
11
125.162907
21
200.809454
0
LINE
8
hole
62
5
39
2
10
125.162907
20
200.809454
11
124.617298
21
199.665101
0
LINE
8
hole
62
5
39
2
10
124.617298
20
199.665101
11
123.886141
21
198.629415
0
LINE
8
hole
62
5
39
2
10
123.886141
20
198.629415
11
122.990469
21
197.732190
0
LINE
8
hole
62
5
39
2
10
122.990469
20
197.732190
11
121.956051
21
196.999243
0
LINE
8
hole
62
5
39
2
10
121.956051
20
196.999243
11
120.812642
21
196.451655
0
LINE
8
hole
62
5
39
2
10
120.812642
20
196.451655
11
119.593132
21
196.105182
0
LINE
8
hole
62
5
39
2
10
119.593132
20
196.105182
11
118.332614
21
195.969791
0
LINE
8
hole
62
5
39
2
10
118.332614
20
195.969791
11
117.067348
21
196.049376
0
LINE
8
hole
62
5
39
2
10
117.067348
20
196.049376
11
115.833728
21
196.341644
0
LINE
8
hole
62
5
39
2
10
115.833728
20
196.341644
11
114.667246
21
196.838192
0
LINE
8
hole
62
5
39
2
10
114.667246
20
196.838192
11
113.601463
21
197.524737
0
LINE
8
hole
62
5
39
2
10
113.601463
20
197.524737
11
112.667035
21
198.381525
0
LINE
8
hole
62
5
39
2
10
112.667035
20
198.381525
11
111.890844
21
199.383906
0
LINE
8
hole
62
5
39
2
10
111.890844
20
199.383906
11
111.295223
21
200.503044
0
LINE
8
hole
62
5
39
2
10
111.295223
20
200.503044
11
110.897305
21
201.706743
0
LINE
8
hole
62
5
39
2
10
110.897305
20
201.706743
11
110.708536
21
202.960381
0
LINE
8
hole
62
5
39
2
10
110.708536
20
202.960381
11
110.734349
21
204.227892
0
LINE
8
hole
62
5
39
2
10
110.734349
20
204.227892
11
110.974001
21
205.472803
0
LINE
8
hole
62
5
39
2
10
110.974001
20
205.472803
11
111.420595
21
206.659304
0
LINE
8
hole
62
5
39
2
10
111.420595
20
206.659304
11
112.061287
21
207.753266
0
LINE
8
hole
62
5
39
2
10
112.061287
20
207.753266
11
112.877644
21
208.723215
0
LINE
8
hole
62
5
39
2
10
87.877642
20
208.723215
11
88.846180
21
209.541249
0
LINE
8
hole
62
5
39
2
10
88.846180
20
209.541249
11
89.939034
21
210.183833
0
LINE
8
hole
62
5
39
2
10
89.939034
20
210.183833
11
91.124764
21
210.632477
0
LINE
8
hole
62
5
39
2
10
91.124764
20
210.632477
11
92.369256
21
210.874279
0
LINE
8
hole
62
5
39
2
10
92.369256
20
210.874279
11
93.636712
21
210.902285
0
LINE
8
hole
62
5
39
2
10
93.636712
20
210.902285
11
94.890674
21
210.715684
0
LINE
8
hole
62
5
39
2
10
94.890674
20
210.715684
11
96.095064
21
210.319848
0
LINE
8
hole
62
5
39
2
10
96.095064
20
210.319848
11
97.215232
21
209.726166
0
LINE
8
hole
62
5
39
2
10
97.215232
20
209.726166
11
98.218954
21
208.951710
0
LINE
8
hole
62
5
39
2
10
98.218954
20
208.951710
11
99.077355
21
208.018764
0
LINE
8
hole
62
5
39
2
10
99.077355
20
208.018764
11
99.765741
21
206.954169
0
LINE
8
hole
62
5
39
2
10
99.765741
20
206.954169
11
100.264307
21
205.788553
0
LINE
8
hole
62
5
39
2
10
100.264307
20
205.788553
11
100.558711
21
204.555436
0
LINE
8
hole
62
5
39
2
10
100.558711
20
204.555436
11
100.640482
21
203.290311
0
LINE
8
hole
62
5
39
2
10
100.640482
20
203.290311
11
100.507271
21
202.029558
0
LINE
8
hole
62
5
39
2
10
100.507271
20
202.029558
11
100.162908
21
200.809454
0
LINE
8
hole
62
5
39
2
10
100.162908
20
200.809454
11
99.617299
21
199.665102
0
LINE
8
hole
62
5
39
2
10
99.617299
20
199.665102
11
98.886141
21
198.629415
0
LINE
8
hole
62
5
39
2
10
98.886141
20
198.629415
11
97.990468
21
197.732190
0
LINE
8
hole
62
5
39
2
10
97.990468
20
197.732190
11
96.956048
21
196.999243
0
LINE
8
hole
62
5
39
2
10
96.956048
20
196.999243
11
95.812638
21
196.451655
0
LINE
8
hole
62
5
39
2
10
95.812638
20
196.451655
11
94.593130
21
196.105182
0
LINE
8
hole
62
5
39
2
10
94.593130
20
196.105182
11
93.332612
21
195.969791
0
LINE
8
hole
62
5
39
2
10
93.332612
20
195.969791
11
92.067348
21
196.049376
0
LINE
8
hole
62
5
39
2
10
92.067348
20
196.049376
11
90.833730
21
196.341644
0
LINE
8
hole
62
5
39
2
10
90.833730
20
196.341644
11
89.667249
21
196.838192
0
LINE
8
hole
62
5
39
2
10
89.667249
20
196.838192
11
88.601463
21
197.524737
0
LINE
8
hole
62
5
39
2
10
88.601463
20
197.524737
11
87.667032
21
198.381525
0
LINE
8
hole
62
5
39
2
10
87.667032
20
198.381525
11
86.890841
21
199.383906
0
LINE
8
hole
62
5
39
2
10
86.890841
20
199.383906
11
86.295221
21
200.503044
0
LINE
8
hole
62
5
39
2
10
86.295221
20
200.503044
11
85.897303
21
201.706743
0
LINE
8
hole
62
5
39
2
10
85.897303
20
201.706743
11
85.708534
21
202.960381
0
LINE
8
hole
62
5
39
2
10
85.708534
20
202.960381
11
85.734347
21
204.227892
0
LINE
8
hole
62
5
39
2
10
85.734347
20
204.227892
11
85.973999
21
205.472803
0
LINE
8
hole
62
5
39
2
10
85.973999
20
205.472803
11
86.420593
21
206.659304
0
LINE
8
hole
62
5
39
2
10
86.420593
20
206.659304
11
87.061283
21
207.753266
0
LINE
8
hole
62
5
39
2
10
87.061283
20
207.753266
11
87.877642
21
208.723215
0
LINE
8
hole
62
5
39
2
10
93.167501
20
183.567495
11
112.700128
21
183.567495
0
LINE
8
hole
62
5
39
2
10
112.700128
20
183.567495
11
118.167504
21
183.567495
0
LINE
8
hole
62
5
39
2
10
118.167504
20
183.567495
11
118.167504
21
177.317052
0
LINE
8
hole
62
5
39
2
10
118.167504
20
177.317052
11
118.167505
21
175.567491
0
LINE
8
hole
62
5
39
2
10
118.167505
20
175.567491
11
98.634877
21
175.567491
0
LINE
8
hole
62
5
39
2
10
98.634877
20
175.567491
11
93.167501
21
175.567491
0
LINE
8
hole
62
5
39
2
10
93.167501
20
175.567491
11
93.167501
21
181.817934
0
LINE
8
hole
62
5
39
2
10
93.167501
20
181.817934
11
93.167501
21
183.567495
0
LINE
8
boundary
62
5
39
2
10
39.034363
20
222.192500
11
6.667500
21
222.192499
0
LINE
8
boundary
62
5
39
2
10
6.667500
20
222.192499
11
6.667500
21
181.955293
0
LINE
8
boundary
62
5
39
2
10
6.667500
20
181.955293
11
6.667500
21
170.692500
0
LINE
8
boundary
62
5
39
2
10
6.667500
20
170.692500
11
122.300639
21
170.692500
0
LINE
8
boundary
62
5
39
2
10
122.300639
20
170.692500
11
154.667502
21
170.692500
0
LINE
8
boundary
62
5
39
2
10
154.667502
20
170.692500
11
154.667502
21
210.929706
0
LINE
8
boundary
62
5
39
2
10
154.667502
20
210.929706
11
154.667502
21
222.192499
0
LINE
8
boundary
62
5
39
2
10
154.667502
20
222.192499
11
39.034363
21
222.192500
0
LINE
8
annotation
62
1
39
211
10
139.867502
20
196.442500
11
139.867502
21
197.871250
0
LINE
8
annotation
62
1
39
211
10
139.867502
20
196.442500
11
139.867502
21
197.871250
0
LINE
8
annotation
62
1
39
211
10
139.867502
20
197.871250
11
139.867502
21
196.442500
0
LINE
8
annotation
62
1
39
211
10
139.867502
20
196.442500
11
139.867502
21
195.013750
0
LINE
8
annotation
62
1
39
211
10
21.467500
20
196.442500
11
22.896250
21
196.442500
0
LINE
8
annotation
62
1
39
211
10
21.467500
20
196.442500
11
22.896250
21
196.442500
0
LINE
8
annotation
62
1
39
211
10
22.896250
20
196.442500
11
21.467500
21
196.442500
0
LINE
8
annotation
62
1
39
211
10
21.467500
20
196.442500
11
21.467500
21
195.013750
0
LINE
8
annotation
62
1
39
211
10
80.667501
20
217.042500
11
80.667501
21
218.471250
0
LINE
8
annotation
62
1
39
211
10
80.667501
20
175.842500
11
82.096251
21
175.842500
0
LINE
8
annotation
62
1
39
211
10
48.744384
20
191.356904
11
33.951072
21
191.356904
0
LINE
8
annotation
62
1
39
211
10
33.951072
20
191.356904
11
39.859040
21
212.076563
0
LINE
8
annotation
62
1
39
211
10
44.310066
20
185.433899
11
44.310066
21
197.266543
0
LINE
8
hole
62
5
39
2
10
21.181750
20
250.831750
11
21.753250
21
250.831750
0
LINE
8
hole
62
5
39
2
10
21.753250
20
250.831750
11
21.753250
21
251.403250
0
LINE
8
hole
62
5
39
2
10
21.753250
20
251.403250
11
21.181750
21
251.403250
0
LINE
8
hole
62
5
39
2
10
21.181750
20
251.403250
11
21.181750
21
250.831750
0
LINE
8
hole
62
5
39
2
10
80.381751
20
271.431749
11
80.953251
21
271.431749
0
LINE
8
hole
62
5
39
2
10
80.953251
20
271.431749
11
80.953251
21
272.003249
0
LINE
8
hole
62
5
39
2
10
80.953251
20
272.003249
11
80.381751
21
272.003249
0
LINE
8
hole
62
5
39
2
10
80.381751
20
272.003249
11
80.381751
21
271.431749
0
LINE
8
hole
62
5
39
2
10
80.381751
20
230.231750
11
80.953251
21
230.231750
0
LINE
8
hole
62
5
39
2
10
80.953251
20
230.231750
11
80.953251
21
230.803250
0
LINE
8
hole
62
5
39
2
10
80.953251
20
230.803250
11
80.381751
21
230.803250
0
LINE
8
hole
62
5
39
2
10
80.381751
20
230.803250
11
80.381751
21
230.231750
0
LINE
8
hole
62
5
39
2
10
139.581752
20
250.831750
11
140.153252
21
250.831750
0
LINE
8
hole
62
5
39
2
10
140.153252
20
250.831750
11
140.153252
21
251.403250
0
LINE
8
hole
62
5
39
2
10
140.153252
20
251.403250
11
139.581752
21
251.403250
0
LINE
8
hole
62
5
39
2
10
139.581752
20
251.403250
11
139.581752
21
250.831750
0
LINE
8
hole
62
5
39
2
10
113.042716
20
263.570447
11
114.037983
21
264.358107
0
LINE
8
hole
62
5
39
2
10
114.037983
20
264.358107
11
115.152050
21
264.966235
0
LINE
8
hole
62
5
39
2
10
115.152050
20
264.966235
11
116.352869
21
265.377332
0
LINE
8
hole
62
5
39
2
10
116.352869
20
265.377332
11
117.605888
21
265.579580
0
LINE
8
hole
62
5
39
2
10
117.605888
20
265.579580
11
118.875061
21
265.567160
0
LINE
8
hole
62
5
39
2
10
118.875061
20
265.567160
11
120.123887
21
265.340423
0
LINE
8
hole
62
5
39
2
10
120.123887
20
265.340423
11
121.316428
21
264.905898
0
LINE
8
hole
62
5
39
2
10
121.316428
20
264.905898
11
122.418378
21
264.276086
0
LINE
8
hole
62
5
39
2
10
122.418378
20
264.276086
11
123.398037
21
263.469097
0
LINE
8
hole
62
5
39
2
10
123.398037
20
263.469097
11
124.227226
21
262.508153
0
LINE
8
hole
62
5
39
2
10
124.227226
20
262.508153
11
124.882085
21
261.420900
0
LINE
8
hole
62
5
39
2
10
124.882085
20
261.420900
11
125.343783
21
260.238618
0
LINE
8
hole
62
5
39
2
10
125.343783
20
260.238618
11
125.599031
21
258.995303
0
LINE
8
hole
62
5
39
2
10
125.599031
20
258.995303
11
125.640486
21
257.726750
0
LINE
8
hole
62
5
39
2
10
125.640486
20
257.726750
11
125.466956
21
256.469424
0
LINE
8
hole
62
5
39
2
10
125.466956
20
256.469424
11
125.083432
21
255.259519
0
LINE
8
hole
62
5
39
2
10
125.083432
20
255.259519
11
124.500952
21
254.131832
0
LINE
8
hole
62
5
39
2
10
124.500952
20
254.131832
11
123.736270
21
253.118804
0
LINE
8
hole
62
5
39
2
10
123.736270
20
253.118804
11
122.811387
21
252.249576
0
LINE
8
hole
62
5
39
2
10
122.811387
20
252.249576
11
121.752908
21
251.549163
0
LINE
8
hole
62
5
39
2
10
121.752908
20
251.549163
11
120.591281
21
251.037705
0
LINE
8
hole
62
5
39
2
10
120.591281
20
251.037705
11
119.359922
21
250.729922
0
LINE
8
hole
62
5
39
2
10
119.359922
20
250.729922
11
118.094266
21
250.634667
0
LINE
8
hole
62
5
39
2
10
118.094266
20
250.634667
11
116.830717
21
250.754678
0
LINE
8
hole
62
5
39
2
10
116.830717
20
250.754678
11
115.605621
21
251.086500
0
LINE
8
hole
62
5
39
2
10
115.605621
20
251.086500
11
114.454227
21
251.620594
0
LINE
8
hole
62
5
39
2
10
114.454227
20
251.620594
11
113.409659
21
252.341596
0
LINE
8
hole
62
5
39
2
10
113.409659
20
252.341596
11
112.501963
21
253.228757
0
LINE
8
hole
62
5
39
2
10
112.501963
20
253.228757
11
111.757255
21
254.256558
0
LINE
8
hole
62
5
39
2
10
111.757255
20
254.256558
11
111.196959
21
255.395429
0
LINE
8
hole
62
5
39
2
10
111.196959
20
255.395429
11
110.837192
21
256.612608
0
LINE
8
hole
62
5
39
2
10
110.837192
20
256.612608
11
110.688305
21
257.873086
0
LINE
8
hole
62
5
39
2
10
110.688305
20
257.873086
11
110.754581
21
259.140597
0
LINE
8
hole
62
5
39
2
10
110.754581
20
259.140597
11
111.034113
21
260.378668
0
LINE
8
hole
62
5
39
2
10
111.034113
20
260.378668
11
111.518860
21
261.551689
0
LINE
8
hole
62
5
39
2
10
111.518860
20
261.551689
11
112.194877
21
262.625918
0
LINE
8
hole
62
5
39
2
10
112.194877
20
262.625918
11
113.042716
21
263.570447
0
LINE
8
hole
62
5
39
2
10
88.042714
20
263.570447
11
89.037985
21
264.358107
0
LINE
8
hole
62
5
39
2
10
89.037985
20
264.358107
11
90.152053
21
264.966235
0
LINE
8
hole
62
5
39
2
10
90.152053
20
264.966235
11
91.352870
21
265.377332
0
LINE
8
hole
62
5
39
2
10
91.352870
20
265.377332
11
92.605886
21
265.579580
0
LINE
8
hole
62
5
39
2
10
92.605886
20
265.579580
11
93.875060
21
265.567160
0
LINE
8
hole
62
5
39
2
10
93.875060
20
265.567160
11
95.123883
21
265.340423
0
LINE
8
hole
62
5
39
2
10
95.123883
20
265.340423
11
96.316425
21
264.905898
0
LINE
8
hole
62
5
39
2
10
96.316425
20
264.905898
11
97.418376
21
264.276086
0
LINE
8
hole
62
5
39
2
10
97.418376
20
264.276086
11
98.398037
21
263.469097
0
LINE
8
hole
62
5
39
2
10
98.398037
20
263.469097
11
99.227225
21
262.508153
0
LINE
8
hole
62
5
39
2
10
99.227225
20
262.508153
11
99.882088
21
261.420900
0
LINE
8
hole
62
5
39
2
10
99.882088
20
261.420900
11
100.343782
21
260.238618
0
LINE
8
hole
62
5
39
2
10
100.343782
20
260.238618
11
100.599028
21
258.995302
0
LINE
8
hole
62
5
39
2
10
100.599028
20
258.995302
11
100.640482
21
257.726750
0
LINE
8
hole
62
5
39
2
10
100.640482
20
257.726750
11
100.466954
21
256.469424
0
LINE
8
hole
62
5
39
2
10
100.466954
20
256.469424
11
100.083433
21
255.259519
0
LINE
8
hole
62
5
39
2
10
100.083433
20
255.259519
11
99.500953
21
254.131833
0
LINE
8
hole
62
5
39
2
10
99.500953
20
254.131833
11
98.736270
21
253.118804
0
LINE
8
hole
62
5
39
2
10
98.736270
20
253.118804
11
97.811386
21
252.249576
0
LINE
8
hole
62
5
39
2
10
97.811386
20
252.249576
11
96.752905
21
251.549163
0
LINE
8
hole
62
5
39
2
10
96.752905
20
251.549163
11
95.591277
21
251.037705
0
LINE
8
hole
62
5
39
2
10
95.591277
20
251.037705
11
94.359921
21
250.729922
0
LINE
8
hole
62
5
39
2
10
94.359921
20
250.729922
11
93.094264
21
250.634666
0
LINE
8
hole
62
5
39
2
10
93.094264
20
250.634666
11
91.830718
21
250.754678
0
LINE
8
hole
62
5
39
2
10
91.830718
20
250.754678
11
90.605623
21
251.086500
0
LINE
8
hole
62
5
39
2
10
90.605623
20
251.086500
11
89.454230
21
251.620594
0
LINE
8
hole
62
5
39
2
10
89.454230
20
251.620594
11
88.409658
21
252.341595
0
LINE
8
hole
62
5
39
2
10
88.409658
20
252.341595
11
87.501960
21
253.228757
0
LINE
8
hole
62
5
39
2
10
87.501960
20
253.228757
11
86.757251
21
254.256558
0
LINE
8
hole
62
5
39
2
10
86.757251
20
254.256558
11
86.196957
21
255.395429
0
LINE
8
hole
62
5
39
2
10
86.196957
20
255.395429
11
85.837190
21
256.612608
0
LINE
8
hole
62
5
39
2
10
85.837190
20
256.612608
11
85.688303
21
257.873086
0
LINE
8
hole
62
5
39
2
10
85.688303
20
257.873086
11
85.754578
21
259.140597
0
LINE
8
hole
62
5
39
2
10
85.754578
20
259.140597
11
86.034112
21
260.378668
0
LINE
8
hole
62
5
39
2
10
86.034112
20
260.378668
11
86.518857
21
261.551689
0
LINE
8
hole
62
5
39
2
10
86.518857
20
261.551689
11
87.194873
21
262.625918
0
LINE
8
hole
62
5
39
2
10
87.194873
20
262.625918
11
88.042714
21
263.570447
0
LINE
8
hole
62
5
39
2
10
93.167501
20
238.242495
11
111.045393
21
238.242495
0
LINE
8
hole
62
5
39
2
10
111.045393
20
238.242495
11
118.167504
21
238.242495
0
LINE
8
hole
62
5
39
2
10
118.167504
20
238.242495
11
118.167504
21
232.521568
0
LINE
8
hole
62
5
39
2
10
118.167504
20
232.521568
11
118.167505
21
230.242491
0
LINE
8
hole
62
5
39
2
10
118.167505
20
230.242491
11
100.289613
21
230.242491
0
LINE
8
hole
62
5
39
2
10
100.289613
20
230.242491
11
93.167501
21
230.242491
0
LINE
8
hole
62
5
39
2
10
93.167501
20
230.242491
11
93.167501
21
235.963419
0
LINE
8
hole
62
5
39
2
10
93.167501
20
235.963419
11
93.167501
21
238.242495
0
LINE
8
boundary
62
5
39
2
10
48.830395
20
276.867499
11
6.667500
21
276.867499
0
LINE
8
boundary
62
5
39
2
10
6.667500
20
276.867499
11
6.667500
21
240.039048
0
LINE
8
boundary
62
5
39
2
10
6.667500
20
240.039048
11
6.667500
21
225.367500
0
LINE
8
boundary
62
5
39
2
10
6.667500
20
225.367500
11
112.504607
21
225.367500
0
LINE
8
boundary
62
5
39
2
10
112.504607
20
225.367500
11
154.667502
21
225.367500
0
LINE
8
boundary
62
5
39
2
10
154.667502
20
225.367500
11
154.667502
21
262.195952
0
LINE
8
boundary
62
5
39
2
10
154.667502
20
262.195952
11
154.667502
21
276.867499
0
LINE
8
boundary
62
5
39
2
10
154.667502
20
276.867499
11
48.830395
21
276.867499
0
LINE
8
annotation
62
1
39
211
10
80.667501
20
271.717499
11
80.667501
21
273.146249
0
LINE
8
annotation
62
1
39
211
10
80.667501
20
230.517500
11
82.096251
21
230.517500
0
LINE
8
annotation
62
1
39
211
10
139.867502
20
251.117500
11
139.867502
21
252.546249
0
LINE
8
annotation
62
1
39
211
10
139.867502
20
251.117500
11
139.867502
21
252.546249
0
LINE
8
annotation
62
1
39
211
10
139.867502
20
252.546249
11
139.867502
21
251.117500
0
LINE
8
annotation
62
1
39
211
10
139.867502
20
251.117500
11
141.296252
21
251.117499
0
LINE
8
annotation
62
1
39
211
10
21.467500
20
251.117500
11
21.467500
21
249.688750
0
LINE
8
annotation
62
1
39
211
10
35.431405
20
240.108899
11
41.347728
21
240.108899
0
LINE
8
annotation
62
1
39
211
10
41.347728
20
240.108899
11
41.347728
21
240.108899
0
LINE
8
annotation
62
1
39
211
10
41.347728
20
240.108899
11
42.409592
21
240.204373
0
LINE
8
annotation
62
1
39
211
10
42.409592
20
240.204373
11
43.409671
21
240.479620
0
LINE
8
annotation
62
1
39
211
10
43.409671
20
240.479620
11
44.331106
21
240.917878
0
LINE
8
annotation
62
1
39
211
10
44.331106
20
240.917878
11
45.157036
21
241.502382
0
LINE
8
annotation
62
1
39
211
10
45.157036
20
241.502382
11
45.870603
21
242.216371
0
LINE
8
annotation
62
1
39
211
10
45.870603
20
242.216371
11
46.454947
21
243.043081
0
LINE
8
annotation
62
1
39
211
10
46.454947
20
243.043081
11
46.893209
21
243.965748
0
LINE
8
annotation
62
1
39
211
10
46.893209
20
243.965748
11
47.168530
21
244.967610
0
LINE
8
annotation
62
1
39
211
10
47.168530
20
244.967610
11
47.264050
21
246.031904
0
LINE
8
annotation
62
1
39
211
10
47.264050
20
246.031904
11
47.264050
21
248.979205
0
LINE
8
annotation
62
1
39
211
10
47.264050
20
248.979205
11
47.264050
21
248.979205
0
LINE
8
annotation
62
1
39
211
10
47.264050
20
248.979205
11
47.168585
21
250.042983
0
LINE
8
annotation
62
1
39
211
10
47.168585
20
250.042983
11
46.893402
21
251.043463
0
LINE
8
annotation
62
1
39
211
10
46.893402
20
251.043463
11
46.455318
21
251.964130
0
LINE
8
annotation
62
1
39
211
10
46.455318
20
251.964130
11
45.871153
21
252.788467
0
LINE
8
annotation
62
1
39
211
10
45.871153
20
252.788467
11
45.157723
21
253.499960
0
LINE
8
annotation
62
1
39
211
10
45.157723
20
253.499960
11
44.331848
21
254.082092
0
LINE
8
annotation
62
1
39
211
10
44.331848
20
254.082092
11
43.410345
21
254.518349
0
LINE
8
annotation
62
1
39
211
10
43.410345
20
254.518349
11
42.410032
21
254.792215
0
LINE
8
annotation
62
1
39
211
10
42.410032
20
254.792215
11
41.347728
21
254.887173
0
LINE
8
annotation
62
1
39
211
10
41.347728
20
254.887173
11
35.431405
21
254.887173
0
LINE
8
annotation
62
1
39
211
10
35.431405
20
254.887173
11
35.431405
21
266.751563
0
LINE
8
annotation
62
1
39
211
10
35.431405
20
266.751563
11
47.264050
21
266.751563
0
LINE
8
hole
62
5
39
2
10
21.181750
20
305.506749
11
21.753250
21
305.506749
0
LINE
8
hole
62
5
39
2
10
21.753250
20
305.506749
11
21.753250
21
306.078249
0
LINE
8
hole
62
5
39
2
10
21.753250
20
306.078249
11
21.181750
21
306.078249
0
LINE
8
hole
62
5
39
2
10
21.181750
20
306.078249
11
21.181750
21
305.506749
0
LINE
8
hole
62
5
39
2
10
80.381751
20
284.906749
11
80.953251
21
284.906749
0
LINE
8
hole
62
5
39
2
10
80.953251
20
284.906749
11
80.953251
21
285.478249
0
LINE
8
hole
62
5
39
2
10
80.953251
20
285.478249
11
80.381751
21
285.478249
0
LINE
8
hole
62
5
39
2
10
80.381751
20
285.478249
11
80.381751
21
284.906749
0
LINE
8
hole
62
5
39
2
10
80.381751
20
326.106749
11
80.953251
21
326.106749
0
LINE
8
hole
62
5
39
2
10
80.953251
20
326.106749
11
80.953251
21
326.678249
0
LINE
8
hole
62
5
39
2
10
80.953251
20
326.678249
11
80.381751
21
326.678249
0
LINE
8
hole
62
5
39
2
10
80.381751
20
326.678249
11
80.381751
21
326.106749
0
LINE
8
hole
62
5
39
2
10
139.581752
20
305.506749
11
140.153252
21
305.506749
0
LINE
8
hole
62
5
39
2
10
140.153252
20
305.506749
11
140.153252
21
306.078249
0
LINE
8
hole
62
5
39
2
10
140.153252
20
306.078249
11
139.581752
21
306.078249
0
LINE
8
hole
62
5
39
2
10
139.581752
20
306.078249
11
139.581752
21
305.506749
0
LINE
8
hole
62
5
39
2
10
113.207787
20
318.417679
11
114.229787
21
319.174965
0
LINE
8
hole
62
5
39
2
10
114.229787
20
319.174965
11
115.365069
21
319.748637
0
LINE
8
hole
62
5
39
2
10
115.365069
20
319.748637
11
116.580975
21
320.122188
0
LINE
8
hole
62
5
39
2
10
116.580975
20
320.122188
11
117.842519
21
320.284882
0
LINE
8
hole
62
5
39
2
10
117.842519
20
320.284882
11
119.113408
21
320.232035
0
LINE
8
hole
62
5
39
2
10
119.113408
20
320.232035
11
120.357097
21
319.965162
0
LINE
8
hole
62
5
39
2
10
120.357097
20
319.965162
11
121.537788
21
319.491949
0
LINE
8
hole
62
5
39
2
10
121.537788
20
319.491949
11
122.621521
21
318.826006
0
LINE
8
hole
62
5
39
2
10
122.621521
20
318.826006
11
123.577120
21
317.986483
0
LINE
8
hole
62
5
39
2
10
123.577120
20
317.986483
11
124.377096
21
316.997542
0
LINE
8
hole
62
5
39
2
10
124.377096
20
316.997542
11
124.998431
21
315.887631
0
LINE
8
hole
62
5
39
2
10
124.998431
20
315.887631
11
125.423258
21
314.688683
0
LINE
8
hole
62
5
39
2
10
125.423258
20
314.688683
11
125.639348
21
313.435168
0
LINE
8
hole
62
5
39
2
10
125.639348
20
313.435168
11
125.640486
21
312.163189
0
LINE
8
hole
62
5
39
2
10
125.640486
20
312.163189
11
125.426638
21
310.909290
0
LINE
8
hole
62
5
39
2
10
125.426638
20
310.909290
11
125.003956
21
309.709584
0
LINE
8
hole
62
5
39
2
10
125.003956
20
309.709584
11
124.384606
21
308.598563
0
LINE
8
hole
62
5
39
2
10
124.384606
20
308.598563
11
123.586400
21
307.608193
0
LINE
8
hole
62
5
39
2
10
123.586400
20
307.608193
11
122.632304
21
306.766963
0
LINE
8
hole
62
5
39
2
10
122.632304
20
306.766963
11
121.549765
21
306.099083
0
LINE
8
hole
62
5
39
2
10
121.549765
20
306.099083
11
120.369921
21
305.623754
0
LINE
8
hole
62
5
39
2
10
120.369921
20
305.623754
11
119.126712
21
305.354662
0
LINE
8
hole
62
5
39
2
10
119.126712
20
305.354662
11
117.855919
21
305.299542
0
LINE
8
hole
62
5
39
2
10
117.855919
20
305.299542
11
116.594087
21
305.459980
0
LINE
8
hole
62
5
39
2
10
116.594087
20
305.459980
11
115.377514
21
305.831356
0
LINE
8
hole
62
5
39
2
10
115.377514
20
305.831356
11
114.241208
21
306.402996
0
LINE
8
hole
62
5
39
2
10
114.241208
20
306.402996
11
113.217855
21
307.158454
0
LINE
8
hole
62
5
39
2
10
113.217855
20
307.158454
11
112.336892
21
308.075989
0
LINE
8
hole
62
5
39
2
10
112.336892
20
308.075989
11
111.623665
21
309.129210
0
LINE
8
hole
62
5
39
2
10
111.623665
20
309.129210
11
111.098694
21
310.287814
0
LINE
8
hole
62
5
39
2
10
111.098694
20
310.287814
11
110.777080
21
311.518473
0
LINE
8
hole
62
5
39
2
10
110.777080
20
311.518473
11
110.668073
21
312.785791
0
LINE
8
hole
62
5
39
2
10
110.668073
20
312.785791
11
110.774813
21
314.053301
0
LINE
8
hole
62
5
39
2
10
110.774813
20
314.053301
11
111.094226
21
315.284533
0
LINE
8
hole
62
5
39
2
10
111.094226
20
315.284533
11
111.617124
21
316.444074
0
LINE
8
hole
62
5
39
2
10
111.617124
20
316.444074
11
112.328466
21
317.498570
0
LINE
8
hole
62
5
39
2
10
112.328466
20
317.498570
11
113.207787
21
318.417679
0
LINE
8
hole
62
5
39
2
10
88.207786
20
318.417679
11
89.229790
21
319.174965
0
LINE
8
hole
62
5
39
2
10
89.229790
20
319.174965
11
90.365072
21
319.748637
0
LINE
8
hole
62
5
39
2
10
90.365072
20
319.748637
11
91.580977
21
320.122188
0
LINE
8
hole
62
5
39
2
10
91.580977
20
320.122188
11
92.842516
21
320.284882
0
LINE
8
hole
62
5
39
2
10
92.842516
20
320.284882
11
94.113408
21
320.232035
0
LINE
8
hole
62
5
39
2
10
94.113408
20
320.232035
11
95.357092
21
319.965162
0
LINE
8
hole
62
5
39
2
10
95.357092
20
319.965162
11
96.537785
21
319.491949
0
LINE
8
hole
62
5
39
2
10
96.537785
20
319.491949
11
97.621519
21
318.826006
0
LINE
8
hole
62
5
39
2
10
97.621519
20
318.826006
11
98.577120
21
317.986483
0
LINE
8
hole
62
5
39
2
10
98.577120
20
317.986483
11
99.377096
21
316.997542
0
LINE
8
hole
62
5
39
2
10
99.377096
20
316.997542
11
99.998434
21
315.887631
0
LINE
8
hole
62
5
39
2
10
99.998434
20
315.887631
11
100.423257
21
314.688683
0
LINE
8
hole
62
5
39
2
10
100.423257
20
314.688683
11
100.639345
21
313.435168
0
LINE
8
hole
62
5
39
2
10
100.639345
20
313.435168
11
100.640482
21
312.163189
0
LINE
8
hole
62
5
39
2
10
100.640482
20
312.163189
11
100.426637
21
310.909290
0
LINE
8
hole
62
5
39
2
10
100.426637
20
310.909290
11
100.003959
21
309.709584
0
LINE
8
hole
62
5
39
2
10
100.003959
20
309.709584
11
99.384606
21
308.598564
0
LINE
8
hole
62
5
39
2
10
99.384606
20
308.598564
11
98.586400
21
307.608193
0
LINE
8
hole
62
5
39
2
10
98.586400
20
307.608193
11
97.632303
21
306.766963
0
LINE
8
hole
62
5
39
2
10
97.632303
20
306.766963
11
96.549761
21
306.099083
0
LINE
8
hole
62
5
39
2
10
96.549761
20
306.099083
11
95.369916
21
305.623754
0
LINE
8
hole
62
5
39
2
10
95.369916
20
305.623754
11
94.126712
21
305.354662
0
LINE
8
hole
62
5
39
2
10
94.126712
20
305.354662
11
92.855916
21
305.299542
0
LINE
8
hole
62
5
39
2
10
92.855916
20
305.299542
11
91.594088
21
305.459980
0
LINE
8
hole
62
5
39
2
10
91.594088
20
305.459980
11
90.377517
21
305.831356
0
LINE
8
hole
62
5
39
2
10
90.377517
20
305.831356
11
89.241211
21
306.402996
0
LINE
8
hole
62
5
39
2
10
89.241211
20
306.402996
11
88.217854
21
307.158454
0
LINE
8
hole
62
5
39
2
10
88.217854
20
307.158454
11
87.336888
21
308.075989
0
LINE
8
hole
62
5
39
2
10
87.336888
20
308.075989
11
86.623662
21
309.129210
0
LINE
8
hole
62
5
39
2
10
86.623662
20
309.129210
11
86.098693
21
310.287814
0
LINE
8
hole
62
5
39
2
10
86.098693
20
310.287814
11
85.777077
21
311.518473
0
LINE
8
hole
62
5
39
2
10
85.777077
20
311.518473
11
85.668071
21
312.785791
0
LINE
8
hole
62
5
39
2
10
85.668071
20
312.785791
11
85.774810
21
314.053301
0
LINE
8
hole
62
5
39
2
10
85.774810
20
314.053301
11
86.094225
21
315.284533
0
LINE
8
hole
62
5
39
2
10
86.094225
20
315.284533
11
86.617121
21
316.444074
0
LINE
8
hole
62
5
39
2
10
86.617121
20
316.444074
11
87.328462
21
317.498570
0
LINE
8
hole
62
5
39
2
10
87.328462
20
317.498570
11
88.207786
21
318.417679
0
LINE
8
hole
62
5
39
2
10
93.167501
20
292.917495
11
109.390658
21
292.917495
0
LINE
8
hole
62
5
39
2
10
109.390658
20
292.917495
11
118.167504
21
292.917495
0
LINE
8
hole
62
5
39
2
10
118.167504
20
292.917495
11
118.167504
21
287.726083
0
LINE
8
hole
62
5
39
2
10
118.167504
20
287.726083
11
118.167505
21
284.917491
0
LINE
8
hole
62
5
39
2
10
118.167505
20
284.917491
11
101.944348
21
284.917491
0
LINE
8
hole
62
5
39
2
10
101.944348
20
284.917491
11
93.167501
21
284.917491
0
LINE
8
hole
62
5
39
2
10
93.167501
20
284.917491
11
93.167501
21
290.108903
0
LINE
8
hole
62
5
39
2
10
93.167501
20
290.108903
11
93.167501
21
292.917495
0
LINE
8
boundary
62
5
39
2
10
58.626428
20
331.542499
11
6.667500
21
331.542499
0
LINE
8
boundary
62
5
39
2
10
6.667500
20
331.542499
11
6.667500
21
298.122802
0
LINE
8
boundary
62
5
39
2
10
6.667500
20
298.122802
11
6.667500
21
280.042500
0
LINE
8
boundary
62
5
39
2
10
6.667500
20
280.042500
11
102.708574
21
280.042499
0
LINE
8
boundary
62
5
39
2
10
102.708574
20
280.042499
11
154.667502
21
280.042499
0
LINE
8
boundary
62
5
39
2
10
154.667502
20
280.042499
11
154.667502
21
313.462197
0
LINE
8
boundary
62
5
39
2
10
154.667502
20
313.462197
11
154.667502
21
331.542499
0
LINE
8
boundary
62
5
39
2
10
154.667502
20
331.542499
11
58.626428
21
331.542499
0
LINE
8
annotation
62
1
39
211
10
139.867502
20
305.792499
11
139.867502
21
307.221249
0
LINE
8
annotation
62
1
39
211
10
139.867502
20
305.792499
11
139.867502
21
307.221249
0
LINE
8
annotation
62
1
39
211
10
139.867502
20
307.221249
11
139.867502
21
305.792499
0
LINE
8
annotation
62
1
39
211
10
139.867502
20
305.792499
11
141.296252
21
305.792499
0
LINE
8
annotation
62
1
39
211
10
21.467500
20
305.792499
11
21.467500
21
304.363749
0
LINE
8
annotation
62
1
39
211
10
80.667501
20
326.392499
11
80.667501
21
327.821249
0
LINE
8
annotation
62
1
39
211
10
80.667501
20
326.392499
11
80.667501
21
327.821249
0
LINE
8
annotation
62
1
39
211
10
80.667501
20
327.821249
11
80.667501
21
326.392499
0
LINE
8
annotation
62
1
39
211
10
80.667501
20
326.392499
11
80.667501
21
324.963749
0
LINE
8
annotation
62
1
39
211
10
80.667501
20
285.192499
11
82.096251
21
285.192499
0
LINE
8
annotation
62
1
39
211
10
80.667501
20
285.192499
11
82.096251
21
285.192499
0
LINE
8
annotation
62
1
39
211
10
82.096251
20
285.192499
11
80.667501
21
285.192499
0
LINE
8
annotation
62
1
39
211
10
80.667501
20
285.192499
11
80.667501
21
283.763750
0
LINE
8
annotation
62
1
39
211
10
44.318420
20
321.426563
11
44.318420
21
321.426563
0
LINE
8
annotation
62
1
39
211
10
44.318420
20
321.426563
11
42.623542
21
320.791086
0
LINE
8
annotation
62
1
39
211
10
42.623542
20
320.791086
11
41.068270
21
319.934857
0
LINE
8
annotation
62
1
39
211
10
41.068270
20
319.934857
11
39.668568
21
318.879327
0
LINE
8
annotation
62
1
39
211
10
39.668568
20
318.879327
11
38.440402
21
317.645949
0
LINE
8
annotation
62
1
39
211
10
38.440402
20
317.645949
11
37.399738
21
316.256176
0
LINE
8
annotation
62
1
39
211
10
37.399738
20
316.256176
11
36.562541
21
314.731460
0
LINE
8
annotation
62
1
39
211
10
36.562541
20
314.731460
11
35.944776
21
313.093252
0
LINE
8
annotation
62
1
39
211
10
35.944776
20
313.093252
11
35.562409
21
311.363006
0
LINE
8
annotation
62
1
39
211
10
35.562409
20
311.363006
11
35.431405
21
309.562173
0
LINE
8
annotation
62
1
39
211
10
35.431405
20
309.562173
11
35.431405
21
300.706904
0
LINE
8
annotation
62
1
39
211
10
35.431405
20
300.706904
11
35.431405
21
300.706904
0
LINE
8
annotation
62
1
39
211
10
35.431405
20
300.706904
11
35.526926
21
299.642610
0
LINE
8
annotation
62
1
39
211
10
35.526926
20
299.642610
11
35.802246
21
298.640748
0
LINE
8
annotation
62
1
39
211
10
35.802246
20
298.640748
11
36.240508
21
297.718080
0
LINE
8
annotation
62
1
39
211
10
36.240508
20
297.718080
11
36.824853
21
296.891371
0
LINE
8
annotation
62
1
39
211
10
36.824853
20
296.891371
11
37.538419
21
296.177382
0
LINE
8
annotation
62
1
39
211
10
37.538419
20
296.177382
11
38.364350
21
295.592878
0
LINE
8
annotation
62
1
39
211
10
38.364350
20
295.592878
11
39.285784
21
295.154620
0
LINE
8
annotation
62
1
39
211
10
39.285784
20
295.154620
11
40.285863
21
294.879373
0
LINE
8
annotation
62
1
39
211
10
40.285863
20
294.879373
11
41.347728
21
294.783899
0
LINE
8
annotation
62
1
39
211
10
41.347728
20
294.783899
11
41.347728
21
294.783899
0
LINE
8
annotation
62
1
39
211
10
41.347728
20
294.783899
11
42.411792
21
294.879373
0
LINE
8
annotation
62
1
39
211
10
42.411792
20
294.879373
11
43.413040
21
295.154620
0
LINE
8
annotation
62
1
39
211
10
43.413040
20
295.154620
11
44.334818
21
295.592878
0
LINE
8
annotation
62
1
39
211
10
44.334818
20
295.592878
11
45.160474
21
296.177382
0
LINE
8
annotation
62
1
39
211
10
45.160474
20
296.177382
11
45.873353
21
296.891371
0
LINE
8
annotation
62
1
39
211
10
45.873353
20
296.891371
11
46.456803
21
297.718080
0
LINE
8
annotation
62
1
39
211
10
46.456803
20
297.718080
11
46.894172
21
298.640748
0
LINE
8
annotation
62
1
39
211
10
46.894172
20
298.640748
11
47.168805
21
299.642610
0
LINE
8
annotation
62
1
39
211
10
47.168805
20
299.642610
11
47.264050
21
300.706904
0
LINE
8
annotation
62
1
39
211
10
47.264050
20
300.706904
11
47.264050
21
303.654205
0
LINE
8
annotation
62
1
39
211
10
47.264050
20
303.654205
11
47.264050
21
303.654205
0
LINE
8
annotation
62
1
39
211
10
47.264050
20
303.654205
11
47.168805
21
304.717983
0
LINE
8
annotation
62
1
39
211
10
47.168805
20
304.717983
11
46.894172
21
305.718463
0
LINE
8
annotation
62
1
39
211
10
46.894172
20
305.718463
11
46.456803
21
306.639130
0
LINE
8
annotation
62
1
39
211
10
46.456803
20
306.639130
11
45.873353
21
307.463467
0
LINE
8
annotation
62
1
39
211
10
45.873353
20
307.463467
11
45.160474
21
308.174960
0
LINE
8
annotation
62
1
39
211
10
45.160474
20
308.174960
11
44.334818
21
308.757092
0
LINE
8
annotation
62
1
39
211
10
44.334818
20
308.757092
11
43.413040
21
309.193349
0
LINE
8
annotation
62
1
39
211
10
43.413040
20
309.193349
11
42.411792
21
309.467215
0
LINE
8
annotation
62
1
39
211
10
42.411792
20
309.467215
11
41.347728
21
309.562173
0
LINE
8
annotation
62
1
39
211
10
41.347728
20
309.562173
11
35.431405
21
309.562173
0
LINE
8
annotation
62
1
39
211
10
34.690403
20
291.453565
11
48.011735
21
291.453565
0
LINE
8
hole
62
5
39
2
10
139.581752
20
360.181749
11
140.153252
21
360.181749
0
LINE
8
hole
62
5
39
2
10
140.153252
20
360.181749
11
140.153252
21
360.753249
0
LINE
8
hole
62
5
39
2
10
140.153252
20
360.753249
11
139.581752
21
360.753249
0
LINE
8
hole
62
5
39
2
10
139.581752
20
360.753249
11
139.581752
21
360.181749
0
LINE
8
hole
62
5
39
2
10
80.381751
20
339.581749
11
80.953251
21
339.581749
0
LINE
8
hole
62
5
39
2
10
80.953251
20
339.581749
11
80.953251
21
340.153249
0
LINE
8
hole
62
5
39
2
10
80.953251
20
340.153249
11
80.381751
21
340.153249
0
LINE
8
hole
62
5
39
2
10
80.381751
20
340.153249
11
80.381751
21
339.581749
0
LINE
8
hole
62
5
39
2
10
21.181750
20
360.181749
11
21.753250
21
360.181749
0
LINE
8
hole
62
5
39
2
10
21.753250
20
360.181749
11
21.753250
21
360.753249
0
LINE
8
hole
62
5
39
2
10
21.753250
20
360.753249
11
21.181750
21
360.753249
0
LINE
8
hole
62
5
39
2
10
21.181750
20
360.753249
11
21.181750
21
360.181749
0
LINE
8
hole
62
5
39
2
10
80.381751
20
380.781749
11
80.953251
21
380.781749
0
LINE
8
hole
62
5
39
2
10
80.953251
20
380.781749
11
80.953251
21
381.353249
0
LINE
8
hole
62
5
39
2
10
80.953251
20
381.353249
11
80.381751
21
381.353249
0
LINE
8
hole
62
5
39
2
10
80.381751
20
381.353249
11
80.381751
21
380.781749
0
LINE
8
hole
62
5
39
2
10
114.935957
20
369.795594
11
115.535027
21
370.456314
0
LINE
8
hole
62
5
39
2
10
115.535027
20
370.456314
11
116.266107
21
370.967159
0
LINE
8
hole
62
5
39
2
10
116.266107
20
370.967159
11
117.092526
21
371.302511
0
LINE
8
hole
62
5
39
2
10
117.092526
20
371.302511
11
117.972848
21
371.445565
0
LINE
8
hole
62
5
39
2
10
117.972848
20
371.445565
11
118.862926
21
371.389140
0
LINE
8
hole
62
5
39
2
10
118.862926
20
371.389140
11
119.718137
21
371.136075
0
LINE
8
hole
62
5
39
2
10
119.718137
20
371.136075
11
120.495598
21
370.699048
0
LINE
8
hole
62
5
39
2
10
120.495598
20
370.699048
11
121.156316
21
370.099974
0
LINE
8
hole
62
5
39
2
10
121.156316
20
370.099974
11
121.667162
21
369.368892
0
LINE
8
hole
62
5
39
2
10
121.667162
20
369.368892
11
122.002513
21
368.542472
0
LINE
8
hole
62
5
39
2
10
122.002513
20
368.542472
11
122.167503
21
367.467497
0
LINE
8
hole
62
5
39
2
10
122.167503
20
367.467497
11
122.067209
21
366.577417
0
LINE
8
hole
62
5
39
2
10
122.067209
20
366.577417
11
121.836078
21
365.916862
0
LINE
8
hole
62
5
39
2
10
121.836078
20
365.916862
11
121.399049
21
365.139399
0
LINE
8
hole
62
5
39
2
10
121.399049
20
365.139399
11
120.799977
21
364.478679
0
LINE
8
hole
62
5
39
2
10
120.799977
20
364.478679
11
120.068898
21
363.967834
0
LINE
8
hole
62
5
39
2
10
120.068898
20
363.967834
11
119.242478
21
363.632482
0
LINE
8
hole
62
5
39
2
10
119.242478
20
363.632482
11
118.362160
21
363.489428
0
LINE
8
hole
62
5
39
2
10
118.362160
20
363.489428
11
117.472078
21
363.545853
0
LINE
8
hole
62
5
39
2
10
117.472078
20
363.545853
11
116.616868
21
363.798919
0
LINE
8
hole
62
5
39
2
10
116.616868
20
363.798919
11
115.839406
21
364.235945
0
LINE
8
hole
62
5
39
2
10
115.839406
20
364.235945
11
115.178690
21
364.835019
0
LINE
8
hole
62
5
39
2
10
115.178690
20
364.835019
11
114.667846
21
365.566101
0
LINE
8
hole
62
5
39
2
10
114.667846
20
365.566101
11
114.332489
21
366.392521
0
LINE
8
hole
62
5
39
2
10
114.332489
20
366.392521
11
114.189434
21
367.272841
0
LINE
8
hole
62
5
39
2
10
114.189434
20
367.272841
11
114.245858
21
368.162920
0
LINE
8
hole
62
5
39
2
10
114.245858
20
368.162920
11
114.498930
21
369.018131
0
LINE
8
hole
62
5
39
2
10
114.498930
20
369.018131
11
114.935957
21
369.795594
0
LINE
8
hole
62
5
39
2
10
90.040172
20
369.961459
11
90.535027
21
370.456314
0
LINE
8
hole
62
5
39
2
10
90.535027
20
370.456314
11
91.266107
21
370.967159
0
LINE
8
hole
62
5
39
2
10
91.266107
20
370.967159
11
92.092526
21
371.302511
0
LINE
8
hole
62
5
39
2
10
92.092526
20
371.302511
11
92.972845
21
371.445565
0
LINE
8
hole
62
5
39
2
10
92.972845
20
371.445565
11
93.862925
21
371.389140
0
LINE
8
hole
62
5
39
2
10
93.862925
20
371.389140
11
94.718136
21
371.136075
0
LINE
8
hole
62
5
39
2
10
94.718136
20
371.136075
11
95.495597
21
370.699048
0
LINE
8
hole
62
5
39
2
10
95.495597
20
370.699048
11
96.156314
21
370.099974
0
LINE
8
hole
62
5
39
2
10
96.156314
20
370.099974
11
96.667158
21
369.368892
0
LINE
8
hole
62
5
39
2
10
96.667158
20
369.368892
11
97.002515
21
368.542472
0
LINE
8
hole
62
5
39
2
10
97.002515
20
368.542472
11
97.167501
21
367.467497
0
LINE
8
hole
62
5
39
2
10
97.167501
20
367.467497
11
97.067213
21
366.577417
0
LINE
8
hole
62
5
39
2
10
97.067213
20
366.577417
11
96.836075
21
365.916862
0
LINE
8
hole
62
5
39
2
10
96.836075
20
365.916862
11
96.399047
21
365.139399
0
LINE
8
hole
62
5
39
2
10
96.399047
20
365.139399
11
95.799976
21
364.478679
0
LINE
8
hole
62
5
39
2
10
95.799976
20
364.478679
11
95.068897
21
363.967834
0
LINE
8
hole
62
5
39
2
10
95.068897
20
363.967834
11
94.242477
21
363.632482
0
LINE
8
hole
62
5
39
2
10
94.242477
20
363.632482
11
93.362157
21
363.489428
0
LINE
8
hole
62
5
39
2
10
93.362157
20
363.489428
11
92.472077
21
363.545853
0
LINE
8
hole
62
5
39
2
10
92.472077
20
363.545853
11
91.616867
21
363.798918
0
LINE
8
hole
62
5
39
2
10
91.616867
20
363.798918
11
90.839407
21
364.235946
0
LINE
8
hole
62
5
39
2
10
90.839407
20
364.235946
11
90.178687
21
364.835019
0
LINE
8
hole
62
5
39
2
10
90.178687
20
364.835019
11
89.667841
21
365.566101
0
LINE
8
hole
62
5
39
2
10
89.667841
20
365.566101
11
89.332489
21
366.392521
0
LINE
8
hole
62
5
39
2
10
89.332489
20
366.392521
11
89.189435
21
367.272841
0
LINE
8
hole
62
5
39
2
10
89.189435
20
367.272841
11
89.245859
21
368.162920
0
LINE
8
hole
62
5
39
2
10
89.245859
20
368.162920
11
89.498926
21
369.018131
0
LINE
8
hole
62
5
39
2
10
89.498926
20
369.018131
11
89.935953
21
369.795594
0
LINE
8
hole
62
5
39
2
10
89.935953
20
369.795594
11
90.040172
21
369.961459
0
LINE
8
hole
62
5
39
2
10
93.167501
20
347.592495
11
107.735922
21
347.592495
0
LINE
8
hole
62
5
39
2
10
107.735922
20
347.592495
11
118.167504
21
347.592495
0
LINE
8
hole
62
5
39
2
10
118.167504
20
347.592495
11
118.167505
21
342.930599
0
LINE
8
hole
62
5
39
2
10
118.167505
20
342.930599
11
118.167505
21
339.592491
0
LINE
8
hole
62
5
39
2
10
118.167505
20
339.592491
11
103.599084
21
339.592491
0
LINE
8
hole
62
5
39
2
10
103.599084
20
339.592491
11
93.167501
21
339.592491
0
LINE
8
hole
62
5
39
2
10
93.167501
20
339.592491
11
93.167501
21
344.254387
0
LINE
8
hole
62
5
39
2
10
93.167501
20
344.254387
11
93.167501
21
347.592495
0
LINE
8
boundary
62
5
39
2
10
68.422461
20
386.217499
11
6.667500
21
386.217499
0
LINE
8
boundary
62
5
39
2
10
6.667500
20
386.217499
11
6.667500
21
356.206556
0
LINE
8
boundary
62
5
39
2
10
6.667500
20
356.206556
11
6.667500
21
334.717500
0
LINE
8
boundary
62
5
39
2
10
6.667500
20
334.717500
11
92.912542
21
334.717499
0
LINE
8
boundary
62
5
39
2
10
92.912542
20
334.717499
11
154.667502
21
334.717499
0
LINE
8
boundary
62
5
39
2
10
154.667502
20
334.717499
11
154.667502
21
364.728442
0
LINE
8
boundary
62
5
39
2
10
154.667502
20
364.728442
11
154.667502
21
386.217499
0
LINE
8
boundary
62
5
39
2
10
154.667502
20
386.217499
11
68.422461
21
386.217499
0
LINE
8
annotation
62
1
39
211
10
80.667501
20
381.067499
11
80.667501
21
382.496249
0
LINE
8
annotation
62
1
39
211
10
80.667501
20
381.067499
11
80.667501
21
382.496249
0
LINE
8
annotation
62
1
39
211
10
80.667501
20
382.496249
11
80.667501
21
381.067499
0
LINE
8
annotation
62
1
39
211
10
80.667501
20
381.067499
11
80.667501
21
379.638749
0
LINE
8
annotation
62
1
39
211
10
80.667501
20
339.867499
11
82.096251
21
339.867499
0
LINE
8
annotation
62
1
39
211
10
80.667501
20
339.867499
11
82.096251
21
339.867499
0
LINE
8
annotation
62
1
39
211
10
82.096251
20
339.867499
11
80.667501
21
339.867499
0
LINE
8
annotation
62
1
39
211
10
80.667501
20
339.867499
11
80.667501
21
338.438749
0
LINE
8
annotation
62
1
39
211
10
139.867502
20
360.467499
11
139.867502
21
361.896249
0
LINE
8
annotation
62
1
39
211
10
21.467500
20
360.467499
11
22.896250
21
360.467499
0
LINE
8
annotation
62
1
39
211
10
41.347728
20
349.458898
11
47.270733
21
376.101563
0
LINE
8
annotation
62
1
39
211
10
47.270733
20
376.101563
11
35.423051
21
376.101563
0
LINE
8
annotation
62
1
39
211
10
47.270733
20
364.237173
11
41.347728
21
364.237173
0
LINE
8
hole
62
5
39
2
10
139.581752
20
414.856749
11
140.153252
21
414.856749
0
LINE
8
hole
62
5
39
2
10
140.153252
20
414.856749
11
140.153252
21
415.428249
0
LINE
8
hole
62
5
39
2
10
140.153252
20
415.428249
11
139.581752
21
415.428249
0
LINE
8
hole
62
5
39
2
10
139.581752
20
415.428249
11
139.581752
21
414.856749
0
LINE
8
hole
62
5
39
2
10
80.381751
20
394.256749
11
80.953251
21
394.256749
0
LINE
8
hole
62
5
39
2
10
80.953251
20
394.256749
11
80.953251
21
394.828249
0
LINE
8
hole
62
5
39
2
10
80.953251
20
394.828249
11
80.381751
21
394.828249
0
LINE
8
hole
62
5
39
2
10
80.381751
20
394.828249
11
80.381751
21
394.256749
0
LINE
8
hole
62
5
39
2
10
21.181750
20
414.856749
11
21.753250
21
414.856749
0
LINE
8
hole
62
5
39
2
10
21.753250
20
414.856749
11
21.753250
21
415.428249
0
LINE
8
hole
62
5
39
2
10
21.753250
20
415.428249
11
21.181750
21
415.428249
0
LINE
8
hole
62
5
39
2
10
21.181750
20
415.428249
11
21.181750
21
414.856749
0
LINE
8
hole
62
5
39
2
10
80.381751
20
435.456749
11
80.953251
21
435.456749
0
LINE
8
hole
62
5
39
2
10
80.953251
20
435.456749
11
80.953251
21
436.028249
0
LINE
8
hole
62
5
39
2
10
80.953251
20
436.028249
11
80.381751
21
436.028249
0
LINE
8
hole
62
5
39
2
10
80.381751
20
436.028249
11
80.381751
21
435.456749
0
LINE
8
hole
62
5
39
2
10
114.828713
20
424.299913
11
115.392492
21
424.988778
0
LINE
8
hole
62
5
39
2
10
115.392492
20
424.988778
11
116.095427
21
425.534915
0
LINE
8
hole
62
5
39
2
10
116.095427
20
425.534915
11
116.902263
21
425.910936
0
LINE
8
hole
62
5
39
2
10
116.902263
20
425.910936
11
117.772540
21
426.097995
0
LINE
8
hole
62
5
39
2
10
117.772540
20
426.097995
11
118.662620
21
426.086710
0
LINE
8
hole
62
5
39
2
10
118.662620
20
426.086710
11
119.527873
21
425.877649
0
LINE
8
hole
62
5
39
2
10
119.527873
20
425.877649
11
120.324918
21
425.481293
0
LINE
8
hole
62
5
39
2
10
120.324918
20
425.481293
11
121.013780
21
424.917510
0
LINE
8
hole
62
5
39
2
10
121.013780
20
424.917510
11
121.559917
21
424.214573
0
LINE
8
hole
62
5
39
2
10
121.559917
20
424.214573
11
121.935939
21
423.407736
0
LINE
8
hole
62
5
39
2
10
121.935939
20
423.407736
11
122.111713
21
422.637613
0
LINE
8
hole
62
5
39
2
10
122.111713
20
422.637613
11
122.122998
21
421.747534
0
LINE
8
hole
62
5
39
2
10
122.122998
20
421.747534
11
121.902652
21
420.782126
0
LINE
8
hole
62
5
39
2
10
121.902652
20
420.782126
11
121.506294
21
419.985080
0
LINE
8
hole
62
5
39
2
10
121.506294
20
419.985080
11
120.942512
21
419.296215
0
LINE
8
hole
62
5
39
2
10
120.942512
20
419.296215
11
120.239578
21
418.750078
0
LINE
8
hole
62
5
39
2
10
120.239578
20
418.750078
11
119.432741
21
418.374057
0
LINE
8
hole
62
5
39
2
10
119.432741
20
418.374057
11
118.562466
21
418.186998
0
LINE
8
hole
62
5
39
2
10
118.562466
20
418.186998
11
117.672386
21
418.198283
0
LINE
8
hole
62
5
39
2
10
117.672386
20
418.198283
11
116.807131
21
418.407344
0
LINE
8
hole
62
5
39
2
10
116.807131
20
418.407344
11
116.010086
21
418.803701
0
LINE
8
hole
62
5
39
2
10
116.010086
20
418.803701
11
115.321224
21
419.367483
0
LINE
8
hole
62
5
39
2
10
115.321224
20
419.367483
11
114.775091
21
420.070420
0
LINE
8
hole
62
5
39
2
10
114.775091
20
420.070420
11
114.399065
21
420.877258
0
LINE
8
hole
62
5
39
2
10
114.399065
20
420.877258
11
114.212003
21
421.747534
0
LINE
8
hole
62
5
39
2
10
114.212003
20
421.747534
11
114.223288
21
422.637613
0
LINE
8
hole
62
5
39
2
10
114.223288
20
422.637613
11
114.432353
21
423.502867
0
LINE
8
hole
62
5
39
2
10
114.432353
20
423.502867
11
114.828713
21
424.299913
0
LINE
8
hole
62
5
39
2
10
90.040172
20
424.636459
11
90.673542
21
425.269829
0
LINE
8
hole
62
5
39
2
10
90.673542
20
425.269829
11
91.431972
21
425.746378
0
LINE
8
hole
62
5
39
2
10
91.431972
20
425.746378
11
92.277421
21
426.042207
0
LINE
8
hole
62
5
39
2
10
92.277421
20
426.042207
11
93.167501
21
426.142498
0
LINE
8
hole
62
5
39
2
10
93.167501
20
426.142498
11
94.057581
21
426.042207
0
LINE
8
hole
62
5
39
2
10
94.057581
20
426.042207
11
94.903032
21
425.746378
0
LINE
8
hole
62
5
39
2
10
94.903032
20
425.746378
11
95.661462
21
425.269829
0
LINE
8
hole
62
5
39
2
10
95.661462
20
425.269829
11
96.294828
21
424.636459
0
LINE
8
hole
62
5
39
2
10
96.294828
20
424.636459
11
96.771377
21
423.878027
0
LINE
8
hole
62
5
39
2
10
96.771377
20
423.878027
11
97.067213
21
423.032576
0
LINE
8
hole
62
5
39
2
10
97.067213
20
423.032576
11
97.167501
21
422.142497
0
LINE
8
hole
62
5
39
2
10
97.167501
20
422.142497
11
97.067213
21
421.252417
0
LINE
8
hole
62
5
39
2
10
97.067213
20
421.252417
11
96.771377
21
420.406966
0
LINE
8
hole
62
5
39
2
10
96.771377
20
420.406966
11
96.294828
21
419.648534
0
LINE
8
hole
62
5
39
2
10
96.294828
20
419.648534
11
95.661462
21
419.015164
0
LINE
8
hole
62
5
39
2
10
95.661462
20
419.015164
11
94.903031
21
418.538615
0
LINE
8
hole
62
5
39
2
10
94.903031
20
418.538615
11
94.057581
21
418.242786
0
LINE
8
hole
62
5
39
2
10
94.057581
20
418.242786
11
93.167501
21
418.142494
0
LINE
8
hole
62
5
39
2
10
93.167501
20
418.142494
11
92.277421
21
418.242786
0
LINE
8
hole
62
5
39
2
10
92.277421
20
418.242786
11
91.431972
21
418.538615
0
LINE
8
hole
62
5
39
2
10
91.431972
20
418.538615
11
90.673542
21
419.015164
0
LINE
8
hole
62
5
39
2
10
90.673542
20
419.015164
11
90.040172
21
419.648534
0
LINE
8
hole
62
5
39
2
10
90.040172
20
419.648534
11
89.563622
21
420.406966
0
LINE
8
hole
62
5
39
2
10
89.563622
20
420.406966
11
89.267792
21
421.252417
0
LINE
8
hole
62
5
39
2
10
89.267792
20
421.252417
11
89.167502
21
422.142497
0
LINE
8
hole
62
5
39
2
10
89.167502
20
422.142497
11
89.267792
21
423.032576
0
LINE
8
hole
62
5
39
2
10
89.267792
20
423.032576
11
89.563622
21
423.878027
0
LINE
8
hole
62
5
39
2
10
89.563622
20
423.878027
11
90.040172
21
424.636459
0
LINE
8
hole
62
5
39
2
10
93.167501
20
402.267495
11
106.081187
21
402.267495
0
LINE
8
hole
62
5
39
2
10
106.081187
20
402.267495
11
118.167504
21
402.267495
0
LINE
8
hole
62
5
39
2
10
118.167504
20
402.267495
11
118.167505
21
398.135114
0
LINE
8
hole
62
5
39
2
10
118.167505
20
398.135114
11
118.167505
21
394.267491
0
LINE
8
hole
62
5
39
2
10
118.167505
20
394.267491
11
105.253819
21
394.267491
0
LINE
8
hole
62
5
39
2
10
105.253819
20
394.267491
11
93.167501
21
394.267491
0
LINE
8
hole
62
5
39
2
10
93.167501
20
394.267491
11
93.167501
21
398.399872
0
LINE
8
hole
62
5
39
2
10
93.167501
20
398.399872
11
93.167501
21
402.267495
0
LINE
8
boundary
62
5
39
2
10
78.218493
20
440.892499
11
6.667500
21
440.892499
0
LINE
8
boundary
62
5
39
2
10
6.667500
20
440.892499
11
6.667500
21
414.290311
0
LINE
8
boundary
62
5
39
2
10
6.667500
20
414.290311
11
6.667500
21
389.392499
0
LINE
8
boundary
62
5
39
2
10
6.667500
20
389.392499
11
83.116509
21
389.392499
0
LINE
8
boundary
62
5
39
2
10
83.116509
20
389.392499
11
154.667502
21
389.392499
0
LINE
8
boundary
62
5
39
2
10
154.667502
20
389.392499
11
154.667502
21
415.994688
0
LINE
8
boundary
62
5
39
2
10
154.667502
20
415.994688
11
154.667502
21
440.892499
0
LINE
8
boundary
62
5
39
2
10
154.667502
20
440.892499
11
78.218493
21
440.892499
0
LINE
8
annotation
62
1
39
211
10
139.867502
20
415.142499
11
139.867502
21
416.571249
0
LINE
8
annotation
62
1
39
211
10
21.467500
20
415.142499
11
22.896250
21
415.142499
0
LINE
8
annotation
62
1
39
211
10
80.667501
20
435.742499
11
80.667501
21
437.171249
0
LINE
8
annotation
62
1
39
211
10
80.667501
20
435.742499
11
80.667501
21
437.171249
0
LINE
8
annotation
62
1
39
211
10
80.667501
20
437.171249
11
80.667501
21
435.742499
0
LINE
8
annotation
62
1
39
211
10
80.667501
20
435.742499
11
82.096251
21
435.742499
0
LINE
8
annotation
62
1
39
211
10
80.667501
20
394.542499
11
80.667501
21
393.113749
0
LINE
8
annotation
62
1
39
211
10
35.431405
20
405.415569
11
35.431405
21
405.415569
0
LINE
8
annotation
62
1
39
211
10
35.431405
20
405.415569
11
35.526926
21
404.351790
0
LINE
8
annotation
62
1
39
211
10
35.526926
20
404.351790
11
35.802246
21
403.351310
0
LINE
8
annotation
62
1
39
211
10
35.802246
20
403.351310
11
36.240508
21
402.430644
0
LINE
8
annotation
62
1
39
211
10
36.240508
20
402.430644
11
36.824853
21
401.606306
0
LINE
8
annotation
62
1
39
211
10
36.824853
20
401.606306
11
37.538419
21
400.894814
0
LINE
8
annotation
62
1
39
211
10
37.538419
20
400.894814
11
38.364350
21
400.312681
0
LINE
8
annotation
62
1
39
211
10
38.364350
20
400.312681
11
39.285784
21
399.876424
0
LINE
8
annotation
62
1
39
211
10
39.285784
20
399.876424
11
40.285863
21
399.602559
0
LINE
8
annotation
62
1
39
211
10
40.285863
20
399.602559
11
41.347728
21
399.507600
0
LINE
8
annotation
62
1
39
211
10
41.347728
20
399.507600
11
41.347728
21
399.507600
0
LINE
8
annotation
62
1
39
211
10
41.347728
20
399.507600
11
42.409592
21
399.602559
0
LINE
8
annotation
62
1
39
211
10
42.409592
20
399.602559
11
43.409671
21
399.876424
0
LINE
8
annotation
62
1
39
211
10
43.409671
20
399.876424
11
44.331106
21
400.312681
0
LINE
8
annotation
62
1
39
211
10
44.331106
20
400.312681
11
45.157036
21
400.894814
0
LINE
8
annotation
62
1
39
211
10
45.157036
20
400.894814
11
45.870603
21
401.606306
0
LINE
8
annotation
62
1
39
211
10
45.870603
20
401.606306
11
46.454947
21
402.430644
0
LINE
8
annotation
62
1
39
211
10
46.454947
20
402.430644
11
46.893209
21
403.351310
0
LINE
8
annotation
62
1
39
211
10
46.893209
20
403.351310
11
47.168530
21
404.351790
0
LINE
8
annotation
62
1
39
211
10
47.168530
20
404.351790
11
47.264050
21
405.415569
0
LINE
8
annotation
62
1
39
211
10
47.264050
20
405.415569
11
47.264050
21
408.362869
0
LINE
8
annotation
62
1
39
211
10
47.264050
20
408.362869
11
47.264050
21
408.362869
0
LINE
8
annotation
62
1
39
211
10
47.264050
20
408.362869
11
47.168585
21
409.427163
0
LINE
8
annotation
62
1
39
211
10
47.168585
20
409.427163
11
46.893402
21
410.429026
0
LINE
8
annotation
62
1
39
211
10
46.893402
20
410.429026
11
46.455318
21
411.351693
0
LINE
8
annotation
62
1
39
211
10
46.455318
20
411.351693
11
45.871153
21
412.178402
0
LINE
8
annotation
62
1
39
211
10
45.871153
20
412.178402
11
45.157723
21
412.892391
0
LINE
8
annotation
62
1
39
211
10
45.157723
20
412.892391
11
44.331848
21
413.476896
0
LINE
8
annotation
62
1
39
211
10
44.331848
20
413.476896
11
43.410345
21
413.915153
0
LINE
8
annotation
62
1
39
211
10
43.410345
20
413.915153
11
42.410032
21
414.190401
0
LINE
8
annotation
62
1
39
211
10
42.410032
20
414.190401
11
41.347728
21
414.285875
0
LINE
8
annotation
62
1
39
211
10
41.347728
20
414.285875
11
41.347728
21
414.285875
0
LINE
8
annotation
62
1
39
211
10
41.347728
20
414.285875
11
40.285423
21
414.190346
0
LINE
8
annotation
62
1
39
211
10
40.285423
20
414.190346
11
39.285110
21
413.914961
0
LINE
8
annotation
62
1
39
211
10
39.285110
20
413.914961
11
38.363607
21
413.476524
0
LINE
8
annotation
62
1
39
211
10
38.363607
20
413.476524
11
37.537732
21
412.891841
0
LINE
8
annotation
62
1
39
211
10
37.537732
20
412.891841
11
36.824303
21
412.177715
0
LINE
8
annotation
62
1
39
211
10
36.824303
20
412.177715
11
36.240137
21
411.350950
0
LINE
8
annotation
62
1
39
211
10
36.240137
20
411.350950
11
35.802054
21
410.428352
0
LINE
8
annotation
62
1
39
211
10
35.802054
20
410.428352
11
35.526871
21
409.426723
0
LINE
8
annotation
62
1
39
211
10
35.526871
20
409.426723
11
35.431405
21
408.362869
0
LINE
8
annotation
62
1
39
211
10
35.431405
20
408.362869
11
35.431405
21
405.415569
0
LINE
8
annotation
62
1
39
211
10
47.264050
20
420.210551
11
47.264050
21
420.210551
0
LINE
8
annotation
62
1
39
211
10
47.264050
20
420.210551
11
47.168585
21
421.269929
0
LINE
8
annotation
62
1
39
211
10
47.168585
20
421.269929
11
46.893402
21
422.268071
0
LINE
8
annotation
62
1
39
211
10
46.893402
20
422.268071
11
46.455318
21
423.188050
0
LINE
8
annotation
62
1
39
211
10
46.455318
20
423.188050
11
45.871153
21
424.012938
0
LINE
8
annotation
62
1
39
211
10
45.871153
20
424.012938
11
45.157723
21
424.725806
0
LINE
8
annotation
62
1
39
211
10
45.157723
20
424.725806
11
44.331848
21
425.309726
0
LINE
8
annotation
62
1
39
211
10
44.331848
20
425.309726
11
43.410345
21
425.747770
0
LINE
8
annotation
62
1
39
211
10
43.410345
20
425.747770
11
42.410032
21
426.023011
0
LINE
8
annotation
62
1
39
211
10
42.410032
20
426.023011
11
41.347728
21
426.118519
0
LINE
8
annotation
62
1
39
211
10
41.347728
20
426.118519
11
41.347728
21
426.118519
0
LINE
8
annotation
62
1
39
211
10
41.347728
20
426.118519
11
40.285423
21
426.023011
0
LINE
8
annotation
62
1
39
211
10
40.285423
20
426.023011
11
39.285110
21
425.747770
0
LINE
8
annotation
62
1
39
211
10
39.285110
20
425.747770
11
38.363607
21
425.309726
0
LINE
8
annotation
62
1
39
211
10
38.363607
20
425.309726
11
37.537732
21
424.725806
0
LINE
8
annotation
62
1
39
211
10
37.537732
20
424.725806
11
36.824303
21
424.012938
0
LINE
8
annotation
62
1
39
211
10
36.824303
20
424.012938
11
36.240137
21
423.188050
0
LINE
8
annotation
62
1
39
211
10
36.240137
20
423.188050
11
35.802054
21
422.268071
0
LINE
8
annotation
62
1
39
211
10
35.802054
20
422.268071
11
35.526871
21
421.269929
0
LINE
8
annotation
62
1
39
211
10
35.526871
20
421.269929
11
35.431405
21
420.210551
0
LINE
8
annotation
62
1
39
211
10
35.431405
20
420.210551
11
35.431405
21
420.210551
0
LINE
8
annotation
62
1
39
211
10
35.431405
20
420.210551
11
35.526926
21
419.146200
0
LINE
8
annotation
62
1
39
211
10
35.526926
20
419.146200
11
35.802246
21
418.144184
0
LINE
8
annotation
62
1
39
211
10
35.802246
20
418.144184
11
36.240508
21
417.221295
0
LINE
8
annotation
62
1
39
211
10
36.240508
20
417.221295
11
36.824853
21
416.394321
0
LINE
8
annotation
62
1
39
211
10
36.824853
20
416.394321
11
37.538419
21
415.680056
0
LINE
8
annotation
62
1
39
211
10
37.538419
20
415.680056
11
38.364350
21
415.095287
0
LINE
8
annotation
62
1
39
211
10
38.364350
20
415.095287
11
39.285784
21
414.656807
0
LINE
8
annotation
62
1
39
211
10
39.285784
20
414.656807
11
40.285863
21
414.381406
0
LINE
8
annotation
62
1
39
211
10
40.285863
20
414.381406
11
41.347728
21
414.285875
0
LINE
8
annotation
62
1
39
211
10
41.347728
20
414.285875
11
41.347728
21
414.285875
0
LINE
8
annotation
62
1
39
211
10
41.347728
20
414.285875
11
42.409592
21
414.381406
0
LINE
8
annotation
62
1
39
211
10
42.409592
20
414.381406
11
43.409671
21
414.656807
0
LINE
8
annotation
62
1
39
211
10
43.409671
20
414.656807
11
44.331106
21
415.095287
0
LINE
8
annotation
62
1
39
211
10
44.331106
20
415.095287
11
45.157036
21
415.680056
0
LINE
8
annotation
62
1
39
211
10
45.157036
20
415.680056
11
45.870603
21
416.394321
0
LINE
8
annotation
62
1
39
211
10
45.870603
20
416.394321
11
46.454947
21
417.221295
0
LINE
8
annotation
62
1
39
211
10
46.454947
20
417.221295
11
46.893209
21
418.144184
0
LINE
8
annotation
62
1
39
211
10
46.893209
20
418.144184
11
47.168530
21
419.146200
0
LINE
8
annotation
62
1
39
211
10
47.168530
20
419.146200
11
47.264050
21
420.210551
0
LINE
8
hole
62
5
39
2
10
139.581752
20
469.531749
11
140.153252
21
469.531749
0
LINE
8
hole
62
5
39
2
10
140.153252
20
469.531749
11
140.153252
21
470.103249
0
LINE
8
hole
62
5
39
2
10
140.153252
20
470.103249
11
139.581752
21
470.103249
0
LINE
8
hole
62
5
39
2
10
139.581752
20
470.103249
11
139.581752
21
469.531749
0
LINE
8
hole
62
5
39
2
10
80.381751
20
448.931749
11
80.953251
21
448.931749
0
LINE
8
hole
62
5
39
2
10
80.953251
20
448.931749
11
80.953251
21
449.503249
0
LINE
8
hole
62
5
39
2
10
80.953251
20
449.503249
11
80.381751
21
449.503249
0
LINE
8
hole
62
5
39
2
10
80.381751
20
449.503249
11
80.381751
21
448.931749
0
LINE
8
hole
62
5
39
2
10
21.181750
20
469.531749
11
21.753250
21
469.531749
0
LINE
8
hole
62
5
39
2
10
21.753250
20
469.531749
11
21.753250
21
470.103249
0
LINE
8
hole
62
5
39
2
10
21.753250
20
470.103249
11
21.181750
21
470.103249
0
LINE
8
hole
62
5
39
2
10
21.181750
20
470.103249
11
21.181750
21
469.531749
0
LINE
8
hole
62
5
39
2
10
80.381751
20
490.131749
11
80.953251
21
490.131749
0
LINE
8
hole
62
5
39
2
10
80.953251
20
490.131749
11
80.953251
21
490.703249
0
LINE
8
hole
62
5
39
2
10
80.953251
20
490.703249
11
80.381751
21
490.703249
0
LINE
8
hole
62
5
39
2
10
80.381751
20
490.703249
11
80.381751
21
490.131749
0
LINE
8
hole
62
5
39
2
10
114.721468
20
478.804232
11
115.040176
21
479.311459
0
LINE
8
hole
62
5
39
2
10
115.040176
20
479.311459
11
115.673540
21
479.944829
0
LINE
8
hole
62
5
39
2
10
115.673540
20
479.944829
11
116.431973
21
480.421378
0
LINE
8
hole
62
5
39
2
10
116.431973
20
480.421378
11
117.277421
21
480.717207
0
LINE
8
hole
62
5
39
2
10
117.277421
20
480.717207
11
118.167505
21
480.817498
0
LINE
8
hole
62
5
39
2
10
118.167505
20
480.817498
11
119.057582
21
480.717207
0
LINE
8
hole
62
5
39
2
10
119.057582
20
480.717207
11
119.903033
21
480.421378
0
LINE
8
hole
62
5
39
2
10
119.903033
20
480.421378
11
120.661463
21
479.944829
0
LINE
8
hole
62
5
39
2
10
120.661463
20
479.944829
11
121.294830
21
479.311459
0
LINE
8
hole
62
5
39
2
10
121.294830
20
479.311459
11
121.771382
21
478.553027
0
LINE
8
hole
62
5
39
2
10
121.771382
20
478.553027
11
122.067209
21
477.707576
0
LINE
8
hole
62
5
39
2
10
122.067209
20
477.707576
11
122.134284
21
477.112306
0
LINE
8
hole
62
5
39
2
10
122.134284
20
477.112306
11
122.100428
21
476.222227
0
LINE
8
hole
62
5
39
2
10
122.100428
20
476.222227
11
121.969226
21
475.647389
0
LINE
8
hole
62
5
39
2
10
121.969226
20
475.647389
11
121.771381
21
475.081966
0
LINE
8
hole
62
5
39
2
10
121.771381
20
475.081966
11
121.294830
21
474.323534
0
LINE
8
hole
62
5
39
2
10
121.294830
20
474.323534
11
120.661463
21
473.690164
0
LINE
8
hole
62
5
39
2
10
120.661463
20
473.690164
11
119.903033
21
473.213614
0
LINE
8
hole
62
5
39
2
10
119.903033
20
473.213614
11
119.057581
21
472.917786
0
LINE
8
hole
62
5
39
2
10
119.057581
20
472.917786
11
118.167504
21
472.817494
0
LINE
8
hole
62
5
39
2
10
118.167504
20
472.817494
11
117.277421
21
472.917786
0
LINE
8
hole
62
5
39
2
10
117.277421
20
472.917786
11
116.431973
21
473.213614
0
LINE
8
hole
62
5
39
2
10
116.431973
20
473.213614
11
115.673540
21
473.690164
0
LINE
8
hole
62
5
39
2
10
115.673540
20
473.690164
11
115.040176
21
474.323534
0
LINE
8
hole
62
5
39
2
10
115.040176
20
474.323534
11
114.563627
21
475.081966
0
LINE
8
hole
62
5
39
2
10
114.563627
20
475.081966
11
114.267791
21
475.927417
0
LINE
8
hole
62
5
39
2
10
114.267791
20
475.927417
11
114.167500
21
476.817496
0
LINE
8
hole
62
5
39
2
10
114.167500
20
476.817496
11
114.267791
21
477.707576
0
LINE
8
hole
62
5
39
2
10
114.267791
20
477.707576
11
114.563627
21
478.553027
0
LINE
8
hole
62
5
39
2
10
114.563627
20
478.553027
11
114.721468
21
478.804232
0
LINE
8
hole
62
5
39
2
10
90.040172
20
479.311459
11
90.673542
21
479.944829
0
LINE
8
hole
62
5
39
2
10
90.673542
20
479.944829
11
91.431972
21
480.421378
0
LINE
8
hole
62
5
39
2
10
91.431972
20
480.421378
11
92.277421
21
480.717207
0
LINE
8
hole
62
5
39
2
10
92.277421
20
480.717207
11
93.167501
21
480.817498
0
LINE
8
hole
62
5
39
2
10
93.167501
20
480.817498
11
94.057581
21
480.717207
0
LINE
8
hole
62
5
39
2
10
94.057581
20
480.717207
11
94.903032
21
480.421378
0
LINE
8
hole
62
5
39
2
10
94.903032
20
480.421378
11
95.661462
21
479.944829
0
LINE
8
hole
62
5
39
2
10
95.661462
20
479.944829
11
96.294828
21
479.311459
0
LINE
8
hole
62
5
39
2
10
96.294828
20
479.311459
11
96.771377
21
478.553027
0
LINE
8
hole
62
5
39
2
10
96.771377
20
478.553027
11
97.067213
21
477.707576
0
LINE
8
hole
62
5
39
2
10
97.067213
20
477.707576
11
97.134284
21
477.112306
0
LINE
8
hole
62
5
39
2
10
97.134284
20
477.112306
11
97.100430
21
476.222227
0
LINE
8
hole
62
5
39
2
10
97.100430
20
476.222227
11
96.969227
21
475.647389
0
LINE
8
hole
62
5
39
2
10
96.969227
20
475.647389
11
96.771377
21
475.081966
0
LINE
8
hole
62
5
39
2
10
96.771377
20
475.081966
11
96.294828
21
474.323534
0
LINE
8
hole
62
5
39
2
10
96.294828
20
474.323534
11
95.661462
21
473.690164
0
LINE
8
hole
62
5
39
2
10
95.661462
20
473.690164
11
94.903031
21
473.213615
0
LINE
8
hole
62
5
39
2
10
94.903031
20
473.213615
11
94.057581
21
472.917786
0
LINE
8
hole
62
5
39
2
10
94.057581
20
472.917786
11
93.167501
21
472.817494
0
LINE
8
hole
62
5
39
2
10
93.167501
20
472.817494
11
92.277421
21
472.917786
0
LINE
8
hole
62
5
39
2
10
92.277421
20
472.917786
11
91.431972
21
473.213615
0
LINE
8
hole
62
5
39
2
10
91.431972
20
473.213615
11
90.673542
21
473.690164
0
LINE
8
hole
62
5
39
2
10
90.673542
20
473.690164
11
90.040172
21
474.323534
0
LINE
8
hole
62
5
39
2
10
90.040172
20
474.323534
11
89.563622
21
475.081966
0
LINE
8
hole
62
5
39
2
10
89.563622
20
475.081966
11
89.267792
21
475.927417
0
LINE
8
hole
62
5
39
2
10
89.267792
20
475.927417
11
89.167502
21
476.817497
0
LINE
8
hole
62
5
39
2
10
89.167502
20
476.817497
11
89.267792
21
477.707576
0
LINE
8
hole
62
5
39
2
10
89.267792
20
477.707576
11
89.563622
21
478.553027
0
LINE
8
hole
62
5
39
2
10
89.563622
20
478.553027
11
90.040172
21
479.311459
0
LINE
8
hole
62
5
39
2
10
93.167501
20
456.942495
11
104.426451
21
456.942495
0
LINE
8
hole
62
5
39
2
10
104.426451
20
456.942495
11
118.167504
21
456.942495
0
LINE
8
hole
62
5
39
2
10
118.167504
20
456.942495
11
118.167505
21
453.339629
0
LINE
8
hole
62
5
39
2
10
118.167505
20
453.339629
11
118.167505
21
448.942491
0
LINE
8
hole
62
5
39
2
10
118.167505
20
448.942491
11
106.908555
21
448.942491
0
LINE
8
hole
62
5
39
2
10
106.908555
20
448.942491
11
93.167501
21
448.942491
0
LINE
8
hole
62
5
39
2
10
93.167501
20
448.942491
11
93.167501
21
452.545356
0
LINE
8
hole
62
5
39
2
10
93.167501
20
452.545356
11
93.167501
21
456.942495
0
LINE
8
boundary
62
5
39
2
10
88.014526
20
495.567499
11
6.667500
21
495.567499
0
LINE
8
boundary
62
5
39
2
10
6.667500
20
495.567499
11
6.667500
21
472.374065
0
LINE
8
boundary
62
5
39
2
10
6.667500
20
472.374065
11
6.667500
21
444.067499
0
LINE
8
boundary
62
5
39
2
10
6.667500
20
444.067499
11
73.320477
21
444.067499
0
LINE
8
boundary
62
5
39
2
10
73.320477
20
444.067499
11
154.667502
21
444.067499
0
LINE
8
boundary
62
5
39
2
10
154.667502
20
444.067499
11
154.667502
21
467.260933
0
LINE
8
boundary
62
5
39
2
10
154.667502
20
467.260933
11
154.667502
21
495.567499
0
LINE
8
boundary
62
5
39
2
10
154.667502
20
495.567499
11
88.014526
21
495.567499
0
LINE
8
annotation
62
1
39
211
10
80.667501
20
490.417499
11
80.667501
21
491.846249
0
LINE
8
annotation
62
1
39
211
10
80.667501
20
490.417499
11
80.667501
21
491.846249
0
LINE
8
annotation
62
1
39
211
10
80.667501
20
491.846249
11
80.667501
21
490.417499
0
LINE
8
annotation
62
1
39
211
10
80.667501
20
490.417499
11
82.096251
21
490.417499
0
LINE
8
annotation
62
1
39
211
10
80.667501
20
449.217499
11
80.667501
21
447.788749
0
LINE
8
annotation
62
1
39
211
10
139.867502
20
469.817499
11
139.867502
21
471.246249
0
LINE
8
annotation
62
1
39
211
10
139.867502
20
469.817499
11
139.867502
21
471.246249
0
LINE
8
annotation
62
1
39
211
10
139.867502
20
471.246249
11
139.867502
21
469.817499
0
LINE
8
annotation
62
1
39
211
10
139.867502
20
469.817499
11
139.867502
21
468.388749
0
LINE
8
annotation
62
1
39
211
10
21.467500
20
469.817499
11
22.896250
21
469.817499
0
LINE
8
annotation
62
1
39
211
10
21.467500
20
469.817499
11
22.896250
21
469.817499
0
LINE
8
annotation
62
1
39
211
10
22.896250
20
469.817499
11
21.467500
21
469.817499
0
LINE
8
annotation
62
1
39
211
10
21.467500
20
469.817499
11
21.467500
21
468.388749
0
LINE
8
annotation
62
1
39
211
10
38.385390
20
454.183436
11
38.385390
21
454.183436
0
LINE
8
annotation
62
1
39
211
10
38.385390
20
454.183436
11
40.077283
21
454.813918
0
LINE
8
annotation
62
1
39
211
10
40.077283
20
454.813918
11
41.630231
21
455.666130
0
LINE
8
annotation
62
1
39
211
10
41.630231
20
455.666130
11
43.028187
21
456.718357
0
LINE
8
annotation
62
1
39
211
10
43.028187
20
456.718357
11
44.255101
21
457.948886
0
LINE
8
annotation
62
1
39
211
10
44.255101
20
457.948886
11
45.294927
21
459.336003
0
LINE
8
annotation
62
1
39
211
10
45.294927
20
459.336003
11
46.131615
21
460.857994
0
LINE
8
annotation
62
1
39
211
10
46.131615
20
460.857994
11
46.749119
21
462.493147
0
LINE
8
annotation
62
1
39
211
10
46.749119
20
462.493147
11
47.131389
21
464.219746
0
LINE
8
annotation
62
1
39
211
10
47.131389
20
464.219746
11
47.262379
21
466.016080
0
LINE
8
annotation
62
1
39
211
10
47.262379
20
466.016080
11
47.262379
21
474.901424
0
LINE
8
annotation
62
1
39
211
10
47.262379
20
474.901424
11
47.262379
21
474.901424
0
LINE
8
annotation
62
1
39
211
10
47.262379
20
474.901424
11
47.167134
21
475.965775
0
LINE
8
annotation
62
1
39
211
10
47.167134
20
475.965775
11
46.892501
21
476.967791
0
LINE
8
annotation
62
1
39
211
10
46.892501
20
476.967791
11
46.455133
21
477.890680
0
LINE
8
annotation
62
1
39
211
10
46.455133
20
477.890680
11
45.871682
21
478.717654
0
LINE
8
annotation
62
1
39
211
10
45.871682
20
478.717654
11
45.158803
21
479.431919
0
LINE
8
annotation
62
1
39
211
10
45.158803
20
479.431919
11
44.333148
21
480.016688
0
LINE
8
annotation
62
1
39
211
10
44.333148
20
480.016688
11
43.411370
21
480.455167
0
LINE
8
annotation
62
1
39
211
10
43.411370
20
480.455167
11
42.410122
21
480.730568
0
LINE
8
annotation
62
1
39
211
10
42.410122
20
480.730568
11
41.346057
21
480.826100
0
LINE
8
annotation
62
1
39
211
10
41.346057
20
480.826100
11
41.346057
21
480.826100
0
LINE
8
annotation
62
1
39
211
10
41.346057
20
480.826100
11
40.284192
21
480.730568
0
LINE
8
annotation
62
1
39
211
10
40.284192
20
480.730568
11
39.284113
21
480.455167
0
LINE
8
annotation
62
1
39
211
10
39.284113
20
480.455167
11
38.362679
21
480.016688
0
LINE
8
annotation
62
1
39
211
10
38.362679
20
480.016688
11
37.536749
21
479.431919
0
LINE
8
annotation
62
1
39
211
10
37.536749
20
479.431919
11
36.823182
21
478.717654
0
LINE
8
annotation
62
1
39
211
10
36.823182
20
478.717654
11
36.238838
21
477.890680
0
LINE
8
annotation
62
1
39
211
10
36.238838
20
477.890680
11
35.800576
21
476.967791
0
LINE
8
annotation
62
1
39
211
10
35.800576
20
476.967791
11
35.525255
21
475.965775
0
LINE
8
annotation
62
1
39
211
10
35.525255
20
475.965775
11
35.429735
21
474.901424
0
LINE
8
annotation
62
1
39
211
10
35.429735
20
474.901424
11
35.429735
21
471.939086
0
LINE
8
annotation
62
1
39
211
10
35.429735
20
471.939086
11
35.429735
21
471.939086
0
LINE
8
annotation
62
1
39
211
10
35.429735
20
471.939086
11
35.525255
21
470.874792
0
LINE
8
annotation
62
1
39
211
10
35.525255
20
470.874792
11
35.800576
21
469.872929
0
LINE
8
annotation
62
1
39
211
10
35.800576
20
469.872929
11
36.238838
21
468.950262
0
LINE
8
annotation
62
1
39
211
10
36.238838
20
468.950262
11
36.823182
21
468.123553
0
LINE
8
annotation
62
1
39
211
10
36.823182
20
468.123553
11
37.536749
21
467.409564
0
LINE
8
annotation
62
1
39
211
10
37.536749
20
467.409564
11
38.362679
21
466.825059
0
LINE
8
annotation
62
1
39
211
10
38.362679
20
466.825059
11
39.284113
21
466.386802
0
LINE
8
annotation
62
1
39
211
10
39.284113
20
466.386802
11
40.284192
21
466.111554
0
LINE
8
annotation
62
1
39
211
10
40.284192
20
466.111554
11
41.346057
21
466.016080
0
LINE
8
annotation
62
1
39
211
10
41.346057
20
466.016080
11
47.262379
21
466.016080
0
LINE
8
annotation
62
1
39
211
10
34.690403
20
450.853103
11
48.011735
21
450.853103
0
LINE
8
hole
62
5
39
2
10
139.581752
20
524.206749
11
140.153252
21
524.206749
0
LINE
8
hole
62
5
39
2
10
140.153252
20
524.206749
11
140.153252
21
524.778249
0
LINE
8
hole
62
5
39
2
10
140.153252
20
524.778249
11
139.581752
21
524.778249
0
LINE
8
hole
62
5
39
2
10
139.581752
20
524.778249
11
139.581752
21
524.206749
0
LINE
8
hole
62
5
39
2
10
80.381751
20
503.606749
11
80.953251
21
503.606749
0
LINE
8
hole
62
5
39
2
10
80.953251
20
503.606749
11
80.953251
21
504.178249
0
LINE
8
hole
62
5
39
2
10
80.953251
20
504.178249
11
80.381751
21
504.178249
0
LINE
8
hole
62
5
39
2
10
80.381751
20
504.178249
11
80.381751
21
503.606749
0
LINE
8
hole
62
5
39
2
10
21.181750
20
524.206749
11
21.753250
21
524.206749
0
LINE
8
hole
62
5
39
2
10
21.753250
20
524.206749
11
21.753250
21
524.778249
0
LINE
8
hole
62
5
39
2
10
21.753250
20
524.778249
11
21.181750
21
524.778249
0
LINE
8
hole
62
5
39
2
10
21.181750
20
524.778249
11
21.181750
21
524.206749
0
LINE
8
hole
62
5
39
2
10
80.381751
20
544.806749
11
80.953251
21
544.806749
0
LINE
8
hole
62
5
39
2
10
80.953251
20
544.806749
11
80.953251
21
545.378249
0
LINE
8
hole
62
5
39
2
10
80.953251
20
545.378249
11
80.381751
21
545.378249
0
LINE
8
hole
62
5
39
2
10
80.381751
20
545.378249
11
80.381751
21
544.806749
0
LINE
8
hole
62
5
39
2
10
114.614224
20
533.308552
11
115.040176
21
533.986459
0
LINE
8
hole
62
5
39
2
10
115.040176
20
533.986459
11
115.673540
21
534.619829
0
LINE
8
hole
62
5
39
2
10
115.673540
20
534.619829
11
116.431973
21
535.096378
0
LINE
8
hole
62
5
39
2
10
116.431973
20
535.096378
11
117.277421
21
535.392207
0
LINE
8
hole
62
5
39
2
10
117.277421
20
535.392207
11
118.167505
21
535.492498
0
LINE
8
hole
62
5
39
2
10
118.167505
20
535.492498
11
119.057582
21
535.392207
0
LINE
8
hole
62
5
39
2
10
119.057582
20
535.392207
11
119.903033
21
535.096378
0
LINE
8
hole
62
5
39
2
10
119.903033
20
535.096378
11
120.661463
21
534.619829
0
LINE
8
hole
62
5
39
2
10
120.661463
20
534.619829
11
121.294830
21
533.986459
0
LINE
8
hole
62
5
39
2
10
121.294830
20
533.986459
11
121.771382
21
533.228027
0
LINE
8
hole
62
5
39
2
10
121.771382
20
533.228027
11
122.067209
21
532.382576
0
LINE
8
hole
62
5
39
2
10
122.067209
20
532.382576
11
122.156854
21
531.586999
0
LINE
8
hole
62
5
39
2
10
122.156854
20
531.586999
11
122.077857
21
530.696919
0
LINE
8
hole
62
5
39
2
10
122.077857
20
530.696919
11
121.771381
21
529.756966
0
LINE
8
hole
62
5
39
2
10
121.771381
20
529.756966
11
121.294830
21
528.998534
0
LINE
8
hole
62
5
39
2
10
121.294830
20
528.998534
11
120.661463
21
528.365164
0
LINE
8
hole
62
5
39
2
10
120.661463
20
528.365164
11
119.903033
21
527.888614
0
LINE
8
hole
62
5
39
2
10
119.903033
20
527.888614
11
119.057581
21
527.592786
0
LINE
8
hole
62
5
39
2
10
119.057581
20
527.592786
11
118.167504
21
527.492494
0
LINE
8
hole
62
5
39
2
10
118.167504
20
527.492494
11
117.277421
21
527.592786
0
LINE
8
hole
62
5
39
2
10
117.277421
20
527.592786
11
116.431973
21
527.888614
0
LINE
8
hole
62
5
39
2
10
116.431973
20
527.888614
11
115.673540
21
528.365164
0
LINE
8
hole
62
5
39
2
10
115.673540
20
528.365164
11
115.040176
21
528.998534
0
LINE
8
hole
62
5
39
2
10
115.040176
20
528.998534
11
114.563627
21
529.756966
0
LINE
8
hole
62
5
39
2
10
114.563627
20
529.756966
11
114.267791
21
530.602417
0
LINE
8
hole
62
5
39
2
10
114.267791
20
530.602417
11
114.167500
21
531.492496
0
LINE
8
hole
62
5
39
2
10
114.167500
20
531.492496
11
114.267791
21
532.382576
0
LINE
8
hole
62
5
39
2
10
114.267791
20
532.382576
11
114.563627
21
533.228027
0
LINE
8
hole
62
5
39
2
10
114.563627
20
533.228027
11
114.614224
21
533.308552
0
LINE
8
hole
62
5
39
2
10
90.040172
20
533.986459
11
90.673542
21
534.619829
0
LINE
8
hole
62
5
39
2
10
90.673542
20
534.619829
11
91.431972
21
535.096378
0
LINE
8
hole
62
5
39
2
10
91.431972
20
535.096378
11
92.277421
21
535.392207
0
LINE
8
hole
62
5
39
2
10
92.277421
20
535.392207
11
93.167501
21
535.492498
0
LINE
8
hole
62
5
39
2
10
93.167501
20
535.492498
11
94.057581
21
535.392207
0
LINE
8
hole
62
5
39
2
10
94.057581
20
535.392207
11
94.903032
21
535.096378
0
LINE
8
hole
62
5
39
2
10
94.903032
20
535.096378
11
95.661462
21
534.619829
0
LINE
8
hole
62
5
39
2
10
95.661462
20
534.619829
11
96.294828
21
533.986459
0
LINE
8
hole
62
5
39
2
10
96.294828
20
533.986459
11
96.771377
21
533.228027
0
LINE
8
hole
62
5
39
2
10
96.771377
20
533.228027
11
97.067213
21
532.382576
0
LINE
8
hole
62
5
39
2
10
97.067213
20
532.382576
11
97.156853
21
531.586999
0
LINE
8
hole
62
5
39
2
10
97.156853
20
531.586999
11
97.077861
21
530.696920
0
LINE
8
hole
62
5
39
2
10
97.077861
20
530.696920
11
96.771377
21
529.756966
0
LINE
8
hole
62
5
39
2
10
96.771377
20
529.756966
11
96.294828
21
528.998534
0
LINE
8
hole
62
5
39
2
10
96.294828
20
528.998534
11
95.661462
21
528.365164
0
LINE
8
hole
62
5
39
2
10
95.661462
20
528.365164
11
94.903031
21
527.888614
0
LINE
8
hole
62
5
39
2
10
94.903031
20
527.888614
11
94.057581
21
527.592786
0
LINE
8
hole
62
5
39
2
10
94.057581
20
527.592786
11
93.167501
21
527.492494
0
LINE
8
hole
62
5
39
2
10
93.167501
20
527.492494
11
92.277421
21
527.592786
0
LINE
8
hole
62
5
39
2
10
92.277421
20
527.592786
11
91.431972
21
527.888615
0
LINE
8
hole
62
5
39
2
10
91.431972
20
527.888615
11
90.673542
21
528.365164
0
LINE
8
hole
62
5
39
2
10
90.673542
20
528.365164
11
90.040172
21
528.998534
0
LINE
8
hole
62
5
39
2
10
90.040172
20
528.998534
11
89.563622
21
529.756966
0
LINE
8
hole
62
5
39
2
10
89.563622
20
529.756966
11
89.267792
21
530.602417
0
LINE
8
hole
62
5
39
2
10
89.267792
20
530.602417
11
89.167502
21
531.492496
0
LINE
8
hole
62
5
39
2
10
89.167502
20
531.492496
11
89.267792
21
532.382576
0
LINE
8
hole
62
5
39
2
10
89.267792
20
532.382576
11
89.563622
21
533.228027
0
LINE
8
hole
62
5
39
2
10
89.563622
20
533.228027
11
90.040172
21
533.986459
0
LINE
8
hole
62
5
39
2
10
93.167501
20
511.617495
11
102.771716
21
511.617495
0
LINE
8
hole
62
5
39
2
10
102.771716
20
511.617495
11
118.167504
21
511.617494
0
LINE
8
hole
62
5
39
2
10
118.167504
20
511.617494
11
118.167505
21
508.544145
0
LINE
8
hole
62
5
39
2
10
118.167505
20
508.544145
11
118.167505
21
503.617491
0
LINE
8
hole
62
5
39
2
10
118.167505
20
503.617491
11
108.563290
21
503.617491
0
LINE
8
hole
62
5
39
2
10
108.563290
20
503.617491
11
93.167501
21
503.617491
0
LINE
8
hole
62
5
39
2
10
93.167501
20
503.617491
11
93.167501
21
506.690841
0
LINE
8
hole
62
5
39
2
10
93.167501
20
506.690841
11
93.167501
21
511.617495
0
LINE
8
boundary
62
5
39
2
10
97.810558
20
550.242499
11
6.667500
21
550.242499
0
LINE
8
boundary
62
5
39
2
10
6.667500
20
550.242499
11
6.667500
21
530.457819
0
LINE
8
boundary
62
5
39
2
10
6.667500
20
530.457819
11
6.667500
21
498.742499
0
LINE
8
boundary
62
5
39
2
10
6.667500
20
498.742499
11
63.524444
21
498.742499
0
LINE
8
boundary
62
5
39
2
10
63.524444
20
498.742499
11
154.667502
21
498.742499
0
LINE
8
boundary
62
5
39
2
10
154.667502
20
498.742499
11
154.667502
21
518.527179
0
LINE
8
boundary
62
5
39
2
10
154.667502
20
518.527179
11
154.667502
21
550.242499
0
LINE
8
boundary
62
5
39
2
10
154.667502
20
550.242499
11
97.810558
21
550.242499
0
LINE
8
annotation
62
1
39
211
10
139.867502
20
524.492499
11
139.867502
21
525.921249
0
LINE
8
annotation
62
1
39
211
10
139.867502
20
524.492499
11
139.867502
21
525.921249
0
LINE
8
annotation
62
1
39
211
10
139.867502
20
525.921249
11
139.867502
21
524.492499
0
LINE
8
annotation
62
1
39
211
10
139.867502
20
524.492499
11
139.867502
21
523.063749
0
LINE
8
annotation
62
1
39
211
10
21.467500
20
524.492499
11
22.896250
21
524.492499
0
LINE
8
annotation
62
1
39
211
10
21.467500
20
524.492499
11
22.896250
21
524.492499
0
LINE
8
annotation
62
1
39
211
10
22.896250
20
524.492499
11
21.467500
21
524.492499
0
LINE
8
annotation
62
1
39
211
10
21.467500
20
524.492499
11
21.467500
21
523.063749
0
LINE
8
annotation
62
1
39
211
10
80.667501
20
545.092499
11
80.667501
21
546.521249
0
LINE
8
annotation
62
1
39
211
10
80.667501
20
503.892499
11
82.096251
21
503.892499
0
LINE
8
annotation
62
1
39
211
10
33.424389
20
508.858436
11
33.424389
21
535.501100
0
LINE
8
annotation
62
1
39
211
10
33.424389
20
535.501100
11
27.501384
21
529.576424
0
LINE
8
annotation
62
1
39
211
10
47.694073
20
509.209862
11
47.694073
21
509.209862
0
LINE
8
annotation
62
1
39
211
10
47.694073
20
509.209862
11
48.313282
21
508.978385
0
LINE
8
annotation
62
1
39
211
10
48.313282
20
508.978385
11
48.948333
21
508.863384
0
LINE
8
annotation
62
1
39
211
10
48.948333
20
508.863384
11
49.584868
21
508.860168
0
LINE
8
annotation
62
1
39
211
10
49.584868
20
508.860168
11
50.208533
21
508.964049
0
LINE
8
annotation
62
1
39
211
10
50.208533
20
508.964049
11
50.804969
21
509.170338
0
LINE
8
annotation
62
1
39
211
10
50.804969
20
509.170338
11
51.359821
21
509.474344
0
LINE
8
annotation
62
1
39
211
10
51.359821
20
509.474344
11
51.858732
21
509.871379
0
LINE
8
annotation
62
1
39
211
10
51.858732
20
509.871379
11
52.287345
21
510.356754
0
LINE
8
annotation
62
1
39
211
10
52.287345
20
510.356754
11
52.631304
21
510.925779
0
LINE
8
annotation
62
1
39
211
10
52.631304
20
510.925779
11
52.631304
21
510.925779
0
LINE
8
annotation
62
1
39
211
10
52.631304
20
510.925779
11
53.657550
21
513.327959
0
LINE
8
annotation
62
1
39
211
10
53.657550
20
513.327959
11
54.427234
21
515.799667
0
LINE
8
annotation
62
1
39
211
10
54.427234
20
515.799667
11
54.940357
21
518.321197
0
LINE
8
annotation
62
1
39
211
10
54.940357
20
518.321197
11
55.196918
21
520.872843
0
LINE
8
annotation
62
1
39
211
10
55.196918
20
520.872843
11
55.196918
21
523.434898
0
LINE
8
annotation
62
1
39
211
10
55.196918
20
523.434898
11
54.940357
21
525.987657
0
LINE
8
annotation
62
1
39
211
10
54.940357
20
525.987657
11
54.427234
21
528.511415
0
LINE
8
annotation
62
1
39
211
10
54.427234
20
528.511415
11
53.657550
21
530.986464
0
LINE
8
annotation
62
1
39
211
10
53.657550
20
530.986464
11
52.631304
21
533.393100
0
LINE
8
annotation
62
1
39
211
10
52.631304
20
533.393100
11
52.631304
21
533.393100
0
LINE
8
annotation
62
1
39
211
10
52.631304
20
533.393100
11
52.500795
21
533.635981
0
LINE
8
annotation
62
1
39
211
10
52.500795
20
533.635981
11
52.352836
21
533.868191
0
LINE
8
annotation
62
1
39
211
10
52.352836
20
533.868191
11
52.188540
21
534.088589
0
LINE
8
annotation
62
1
39
211
10
52.188540
20
534.088589
11
52.009021
21
534.296032
0
LINE
8
annotation
62
1
39
211
10
52.009021
20
534.296032
11
51.815394
21
534.489380
0
LINE
8
annotation
62
1
39
211
10
51.815394
20
534.489380
11
51.608771
21
534.667492
0
LINE
8
annotation
62
1
39
211
10
51.608771
20
534.667492
11
51.390267
21
534.829225
0
LINE
8
annotation
62
1
39
211
10
51.390267
20
534.829225
11
51.160995
21
534.973439
0
LINE
8
annotation
62
1
39
211
10
51.160995
20
534.973439
11
50.922070
21
535.098993
0
LINE
8
annotation
62
1
39
211
10
50.922070
20
535.098993
11
50.922070
21
535.098993
0
LINE
8
annotation
62
1
39
211
10
50.922070
20
535.098993
11
50.297945
21
535.335486
0
LINE
8
annotation
62
1
39
211
10
50.297945
20
535.335486
11
49.659175
21
535.454418
0
LINE
8
annotation
62
1
39
211
10
49.659175
20
535.454418
11
49.019950
21
535.460506
0
LINE
8
annotation
62
1
39
211
10
49.019950
20
535.460506
11
48.394464
21
535.358465
0
LINE
8
annotation
62
1
39
211
10
48.394464
20
535.358465
11
47.796907
21
535.153013
0
LINE
8
annotation
62
1
39
211
10
47.796907
20
535.153013
11
47.241471
21
534.848867
0
LINE
8
annotation
62
1
39
211
10
47.241471
20
534.848867
11
46.742347
21
534.450743
0
LINE
8
annotation
62
1
39
211
10
46.742347
20
534.450743
11
46.313727
21
533.963358
0
LINE
8
annotation
62
1
39
211
10
46.313727
20
533.963358
11
45.969802
21
533.391430
0
LINE
8
annotation
62
1
39
211
10
45.969802
20
533.391430
11
45.969802
21
533.391430
0
LINE
8
annotation
62
1
39
211
10
45.969802
20
533.391430
11
44.948507
21
530.989744
0
LINE
8
annotation
62
1
39
211
10
44.948507
20
530.989744
11
44.182535
21
528.518407
0
LINE
8
annotation
62
1
39
211
10
44.182535
20
528.518407
11
43.671888
21
525.997125
0
LINE
8
annotation
62
1
39
211
10
43.671888
20
525.997125
11
43.416564
21
523.445603
0
LINE
8
annotation
62
1
39
211
10
43.416564
20
523.445603
11
43.416564
21
520.883548
0
LINE
8
annotation
62
1
39
211
10
43.416564
20
520.883548
11
43.671888
21
518.330665
0
LINE
8
annotation
62
1
39
211
10
43.671888
20
518.330665
11
44.182535
21
515.806660
0
LINE
8
annotation
62
1
39
211
10
44.182535
20
515.806660
11
44.948507
21
513.331239
0
LINE
8
annotation
62
1
39
211
10
44.948507
20
513.331239
11
45.969802
21
510.924108
0
LINE
8
annotation
62
1
39
211
10
45.969802
20
510.924108
11
45.969802
21
510.924108
0
LINE
8
annotation
62
1
39
211
10
45.969802
20
510.924108
11
46.099836
21
510.681711
0
LINE
8
annotation
62
1
39
211
10
46.099836
20
510.681711
11
46.246702
21
510.450658
0
LINE
8
annotation
62
1
39
211
10
46.246702
20
510.450658
11
46.409781
21
510.231652
0
LINE
8
annotation
62
1
39
211
10
46.409781
20
510.231652
11
46.588454
21
510.025393
0
LINE
8
annotation
62
1
39
211
10
46.588454
20
510.025393
11
46.782102
21
509.832584
0
LINE
8
annotation
62
1
39
211
10
46.782102
20
509.832584
11
46.990107
21
509.653925
0
LINE
8
annotation
62
1
39
211
10
46.990107
20
509.653925
11
47.211850
21
509.490117
0
LINE
8
annotation
62
1
39
211
10
47.211850
20
509.490117
11
47.446712
21
509.341862
0
LINE
8
annotation
62
1
39
211
10
47.446712
20
509.341862
11
47.694073
21
509.209862
0
LINE
8
hole
62
5
39
2
10
139.581752
20
578.881749
11
140.153252
21
578.881749
0
LINE
8
hole
62
5
39
2
10
140.153252
20
578.881749
11
140.153252
21
579.453249
0
LINE
8
hole
62
5
39
2
10
140.153252
20
579.453249
11
139.581752
21
579.453249
0
LINE
8
hole
62
5
39
2
10
139.581752
20
579.453249
11
139.581752
21
578.881749
0
LINE
8
hole
62
5
39
2
10
80.381751
20
558.281749
11
80.953251
21
558.281749
0
LINE
8
hole
62
5
39
2
10
80.953251
20
558.281749
11
80.953251
21
558.853249
0
LINE
8
hole
62
5
39
2
10
80.953251
20
558.853249
11
80.381751
21
558.853249
0
LINE
8
hole
62
5
39
2
10
80.381751
20
558.853249
11
80.381751
21
558.281749
0
LINE
8
hole
62
5
39
2
10
21.181750
20
578.881749
11
21.753250
21
578.881749
0
LINE
8
hole
62
5
39
2
10
21.753250
20
578.881749
11
21.753250
21
579.453249
0
LINE
8
hole
62
5
39
2
10
21.753250
20
579.453249
11
21.181750
21
579.453249
0
LINE
8
hole
62
5
39
2
10
21.181750
20
579.453249
11
21.181750
21
578.881749
0
LINE
8
hole
62
5
39
2
10
80.381751
20
599.481749
11
80.953251
21
599.481749
0
LINE
8
hole
62
5
39
2
10
80.953251
20
599.481749
11
80.953251
21
600.053249
0
LINE
8
hole
62
5
39
2
10
80.953251
20
600.053249
11
80.381751
21
600.053249
0
LINE
8
hole
62
5
39
2
10
80.381751
20
600.053249
11
80.381751
21
599.481749
0
LINE
8
hole
62
5
39
2
10
87.752831
20
591.357036
11
88.707752
21
592.197477
0
LINE
8
hole
62
5
39
2
10
88.707752
20
592.197477
11
89.790972
21
592.864439
0
LINE
8
hole
62
5
39
2
10
89.790972
20
592.864439
11
90.971332
21
593.338744
0
LINE
8
hole
62
5
39
2
10
90.971332
20
593.338744
11
92.214871
21
593.606749
0
LINE
8
hole
62
5
39
2
10
92.214871
20
593.606749
11
93.485813
21
593.660737
0
LINE
8
hole
62
5
39
2
10
93.485813
20
593.660737
11
94.747591
21
593.499158
0
LINE
8
hole
62
5
39
2
10
94.747591
20
593.499158
11
95.963925
21
593.126667
0
LINE
8
hole
62
5
39
2
10
95.963925
20
593.126667
11
97.099806
21
592.553967
0
LINE
8
hole
62
5
39
2
10
97.099806
20
592.553967
11
98.122562
21
591.797537
0
LINE
8
hole
62
5
39
2
10
98.122562
20
591.797537
11
99.002771
21
590.879145
0
LINE
8
hole
62
5
39
2
10
99.002771
20
590.879145
11
99.715109
21
589.825207
0
LINE
8
hole
62
5
39
2
10
99.715109
20
589.825207
11
100.239082
21
588.666045
0
LINE
8
hole
62
5
39
2
10
100.239082
20
588.666045
11
100.559620
21
587.435007
0
LINE
8
hole
62
5
39
2
10
100.559620
20
587.435007
11
100.667502
21
586.167496
0
LINE
8
hole
62
5
39
2
10
100.667502
20
586.167496
11
100.559621
21
584.899985
0
LINE
8
hole
62
5
39
2
10
100.559621
20
584.899985
11
100.239082
21
583.668947
0
LINE
8
hole
62
5
39
2
10
100.239082
20
583.668947
11
99.715109
21
582.509785
0
LINE
8
hole
62
5
39
2
10
99.715109
20
582.509785
11
99.002771
21
581.455847
0
LINE
8
hole
62
5
39
2
10
99.002771
20
581.455847
11
98.122562
21
580.537455
0
LINE
8
hole
62
5
39
2
10
98.122562
20
580.537455
11
97.099806
21
579.781026
0
LINE
8
hole
62
5
39
2
10
97.099806
20
579.781026
11
95.963926
21
579.208326
0
LINE
8
hole
62
5
39
2
10
95.963926
20
579.208326
11
94.747590
21
578.835834
0
LINE
8
hole
62
5
39
2
10
94.747590
20
578.835834
11
93.485812
21
578.674256
0
LINE
8
hole
62
5
39
2
10
93.485812
20
578.674256
11
92.214871
21
578.728243
0
LINE
8
hole
62
5
39
2
10
92.214871
20
578.728243
11
90.971332
21
578.996244
0
LINE
8
hole
62
5
39
2
10
90.971332
20
578.996244
11
89.790971
21
579.470553
0
LINE
8
hole
62
5
39
2
10
89.790971
20
579.470553
11
88.707752
21
580.137515
0
LINE
8
hole
62
5
39
2
10
88.707752
20
580.137515
11
87.752831
21
580.977956
0
LINE
8
hole
62
5
39
2
10
87.752831
20
580.977956
11
86.953682
21
581.967687
0
LINE
8
hole
62
5
39
2
10
86.953682
20
581.967687
11
86.333291
21
583.078238
0
LINE
8
hole
62
5
39
2
10
86.333291
20
583.078238
11
85.909503
21
584.277656
0
LINE
8
hole
62
5
39
2
10
85.909503
20
584.277656
11
85.694521
21
585.531458
0
LINE
8
hole
62
5
39
2
10
85.694521
20
585.531458
11
85.694521
21
586.803534
0
LINE
8
hole
62
5
39
2
10
85.694521
20
586.803534
11
85.909503
21
588.057337
0
LINE
8
hole
62
5
39
2
10
85.909503
20
588.057337
11
86.333291
21
589.256755
0
LINE
8
hole
62
5
39
2
10
86.333291
20
589.256755
11
86.953682
21
590.367305
0
LINE
8
hole
62
5
39
2
10
86.953682
20
590.367305
11
87.752831
21
591.357036
0
LINE
8
hole
62
5
39
2
10
112.752831
20
591.357036
11
113.707751
21
592.197477
0
LINE
8
hole
62
5
39
2
10
113.707751
20
592.197477
11
114.790972
21
592.864439
0
LINE
8
hole
62
5
39
2
10
114.790972
20
592.864439
11
115.971333
21
593.338744
0
LINE
8
hole
62
5
39
2
10
115.971333
20
593.338744
11
117.214871
21
593.606749
0
LINE
8
hole
62
5
39
2
10
117.214871
20
593.606749
11
118.485814
21
593.660737
0
LINE
8
hole
62
5
39
2
10
118.485814
20
593.660737
11
119.747592
21
593.499158
0
LINE
8
hole
62
5
39
2
10
119.747592
20
593.499158
11
120.963924
21
593.126667
0
LINE
8
hole
62
5
39
2
10
120.963924
20
593.126667
11
122.099804
21
592.553967
0
LINE
8
hole
62
5
39
2
10
122.099804
20
592.553967
11
123.122559
21
591.797537
0
LINE
8
hole
62
5
39
2
10
123.122559
20
591.797537
11
124.002771
21
590.879145
0
LINE
8
hole
62
5
39
2
10
124.002771
20
590.879145
11
124.715112
21
589.825207
0
LINE
8
hole
62
5
39
2
10
124.715112
20
589.825207
11
125.239081
21
588.666045
0
LINE
8
hole
62
5
39
2
10
125.239081
20
588.666045
11
125.559622
21
587.435007
0
LINE
8
hole
62
5
39
2
10
125.559622
20
587.435007
11
125.667507
21
586.167496
0
LINE
8
hole
62
5
39
2
10
125.667507
20
586.167496
11
125.559622
21
584.899985
0
LINE
8
hole
62
5
39
2
10
125.559622
20
584.899985
11
125.239081
21
583.668947
0
LINE
8
hole
62
5
39
2
10
125.239081
20
583.668947
11
124.715112
21
582.509786
0
LINE
8
hole
62
5
39
2
10
124.715112
20
582.509786
11
124.002771
21
581.455847
0
LINE
8
hole
62
5
39
2
10
124.002771
20
581.455847
11
123.122559
21
580.537455
0
LINE
8
hole
62
5
39
2
10
123.122559
20
580.537455
11
122.099805
21
579.781026
0
LINE
8
hole
62
5
39
2
10
122.099805
20
579.781026
11
120.963924
21
579.208326
0
LINE
8
hole
62
5
39
2
10
120.963924
20
579.208326
11
119.747592
21
578.835834
0
LINE
8
hole
62
5
39
2
10
119.747592
20
578.835834
11
118.485814
21
578.674256
0
LINE
8
hole
62
5
39
2
10
118.485814
20
578.674256
11
117.214871
21
578.728243
0
LINE
8
hole
62
5
39
2
10
117.214871
20
578.728243
11
115.971333
21
578.996244
0
LINE
8
hole
62
5
39
2
10
115.971333
20
578.996244
11
114.790972
21
579.470554
0
LINE
8
hole
62
5
39
2
10
114.790972
20
579.470554
11
113.707751
21
580.137515
0
LINE
8
hole
62
5
39
2
10
113.707751
20
580.137515
11
112.752831
21
580.977956
0
LINE
8
hole
62
5
39
2
10
112.752831
20
580.977956
11
111.953682
21
581.967687
0
LINE
8
hole
62
5
39
2
10
111.953682
20
581.967687
11
111.333286
21
583.078238
0
LINE
8
hole
62
5
39
2
10
111.333286
20
583.078238
11
110.909505
21
584.277656
0
LINE
8
hole
62
5
39
2
10
110.909505
20
584.277656
11
110.694520
21
585.531458
0
LINE
8
hole
62
5
39
2
10
110.694520
20
585.531458
11
110.694520
21
586.803534
0
LINE
8
hole
62
5
39
2
10
110.694520
20
586.803534
11
110.909505
21
588.057337
0
LINE
8
hole
62
5
39
2
10
110.909505
20
588.057337
11
111.333286
21
589.256755
0
LINE
8
hole
62
5
39
2
10
111.333286
20
589.256755
11
111.953682
21
590.367305
0
LINE
8
hole
62
5
39
2
10
111.953682
20
590.367305
11
112.752831
21
591.357036
0
LINE
8
hole
62
5
39
2
10
93.167501
20
566.292495
11
101.116980
21
566.292494
0
LINE
8
hole
62
5
39
2
10
101.116980
20
566.292494
11
118.167504
21
566.292494
0
LINE
8
hole
62
5
39
2
10
118.167504
20
566.292494
11
118.167504
21
563.748660
0
LINE
8
hole
62
5
39
2
10
118.167504
20
563.748660
11
118.167505
21
558.292491
0
LINE
8
hole
62
5
39
2
10
118.167505
20
558.292491
11
110.218025
21
558.292491
0
LINE
8
hole
62
5
39
2
10
110.218025
20
558.292491
11
93.167501
21
558.292491
0
LINE
8
hole
62
5
39
2
10
93.167501
20
558.292491
11
93.167501
21
560.836325
0
LINE
8
hole
62
5
39
2
10
93.167501
20
560.836325
11
93.167501
21
566.292495
0
LINE
8
boundary
62
5
39
2
10
107.606591
20
604.917499
11
6.667500
21
604.917499
0
LINE
8
boundary
62
5
39
2
10
6.667500
20
604.917499
11
6.667500
21
588.541574
0
LINE
8
boundary
62
5
39
2
10
6.667500
20
588.541574
11
6.667500
21
553.417499
0
LINE
8
boundary
62
5
39
2
10
6.667500
20
553.417499
11
53.728412
21
553.417499
0
LINE
8
boundary
62
5
39
2
10
53.728412
20
553.417499
11
154.667502
21
553.417499
0
LINE
8
boundary
62
5
39
2
10
154.667502
20
553.417499
11
154.667502
21
569.793424
0
LINE
8
boundary
62
5
39
2
10
154.667502
20
569.793424
11
154.667502
21
604.917499
0
LINE
8
boundary
62
5
39
2
10
154.667502
20
604.917499
11
107.606591
21
604.917499
0
LINE
8
annotation
62
1
39
211
10
80.667501
20
599.767499
11
80.667501
21
601.196249
0
LINE
8
annotation
62
1
39
211
10
80.667501
20
558.567499
11
82.096251
21
558.567499
0
LINE
8
annotation
62
1
39
211
10
139.867502
20
579.167499
11
139.867502
21
580.596249
0
LINE
8
annotation
62
1
39
211
10
139.867502
20
579.167499
11
139.867502
21
580.596249
0
LINE
8
annotation
62
1
39
211
10
139.867502
20
580.596249
11
139.867502
21
579.167499
0
LINE
8
annotation
62
1
39
211
10
139.867502
20
579.167499
11
141.296252
21
579.167499
0
LINE
8
annotation
62
1
39
211
10
21.467500
20
579.167499
11
21.467500
21
577.738749
0
LINE
8
annotation
62
1
39
211
10
36.353063
20
563.533435
11
36.353063
21
590.176100
0
LINE
8
annotation
62
1
39
211
10
36.353063
20
590.176100
11
30.430058
21
584.251424
0
LINE
8
annotation
62
1
39
211
10
52.267068
20
563.533435
11
52.267068
21
590.176100
0
LINE
8
annotation
62
1
39
211
10
52.267068
20
590.176100
11
46.344063
21
584.251424
0
LINE
8
hole
62
5
39
2
10
139.581752
20
633.556749
11
140.153252
21
633.556749
0
LINE
8
hole
62
5
39
2
10
140.153252
20
633.556749
11
140.153252
21
634.128249
0
LINE
8
hole
62
5
39
2
10
140.153252
20
634.128249
11
139.581752
21
634.128249
0
LINE
8
hole
62
5
39
2
10
139.581752
20
634.128249
11
139.581752
21
633.556749
0
LINE
8
hole
62
5
39
2
10
80.381751
20
654.156749
11
80.953251
21
654.156749
0
LINE
8
hole
62
5
39
2
10
80.953251
20
654.156749
11
80.953251
21
654.728249
0
LINE
8
hole
62
5
39
2
10
80.953251
20
654.728249
11
80.381751
21
654.728249
0
LINE
8
hole
62
5
39
2
10
80.381751
20
654.728249
11
80.381751
21
654.156749
0
LINE
8
hole
62
5
39
2
10
80.381751
20
612.956749
11
80.953251
21
612.956749
0
LINE
8
hole
62
5
39
2
10
80.953251
20
612.956749
11
80.953251
21
613.528249
0
LINE
8
hole
62
5
39
2
10
80.953251
20
613.528249
11
80.381751
21
613.528249
0
LINE
8
hole
62
5
39
2
10
80.381751
20
613.528249
11
80.381751
21
612.956749
0
LINE
8
hole
62
5
39
2
10
21.181750
20
633.556749
11
21.753250
21
633.556749
0
LINE
8
hole
62
5
39
2
10
21.753250
20
633.556749
11
21.753250
21
634.128249
0
LINE
8
hole
62
5
39
2
10
21.753250
20
634.128249
11
21.181750
21
634.128249
0
LINE
8
hole
62
5
39
2
10
21.181750
20
634.128249
11
21.181750
21
633.556749
0
LINE
8
hole
62
5
39
2
10
87.752831
20
646.032036
11
88.707752
21
646.872477
0
LINE
8
hole
62
5
39
2
10
88.707752
20
646.872477
11
89.790972
21
647.539439
0
LINE
8
hole
62
5
39
2
10
89.790972
20
647.539439
11
90.971332
21
648.013744
0
LINE
8
hole
62
5
39
2
10
90.971332
20
648.013744
11
92.214871
21
648.281749
0
LINE
8
hole
62
5
39
2
10
92.214871
20
648.281749
11
93.485813
21
648.335737
0
LINE
8
hole
62
5
39
2
10
93.485813
20
648.335737
11
94.747591
21
648.174158
0
LINE
8
hole
62
5
39
2
10
94.747591
20
648.174158
11
95.963925
21
647.801667
0
LINE
8
hole
62
5
39
2
10
95.963925
20
647.801667
11
97.099806
21
647.228967
0
LINE
8
hole
62
5
39
2
10
97.099806
20
647.228967
11
98.122562
21
646.472537
0
LINE
8
hole
62
5
39
2
10
98.122562
20
646.472537
11
99.002771
21
645.554145
0
LINE
8
hole
62
5
39
2
10
99.002771
20
645.554145
11
99.715109
21
644.500206
0
LINE
8
hole
62
5
39
2
10
99.715109
20
644.500206
11
100.239082
21
643.341045
0
LINE
8
hole
62
5
39
2
10
100.239082
20
643.341045
11
100.559620
21
642.110007
0
LINE
8
hole
62
5
39
2
10
100.559620
20
642.110007
11
100.667502
21
640.842496
0
LINE
8
hole
62
5
39
2
10
100.667502
20
640.842496
11
100.559621
21
639.574985
0
LINE
8
hole
62
5
39
2
10
100.559621
20
639.574985
11
100.239082
21
638.343947
0
LINE
8
hole
62
5
39
2
10
100.239082
20
638.343947
11
99.715109
21
637.184785
0
LINE
8
hole
62
5
39
2
10
99.715109
20
637.184785
11
99.002771
21
636.130847
0
LINE
8
hole
62
5
39
2
10
99.002771
20
636.130847
11
98.122562
21
635.212455
0
LINE
8
hole
62
5
39
2
10
98.122562
20
635.212455
11
97.099806
21
634.456026
0
LINE
8
hole
62
5
39
2
10
97.099806
20
634.456026
11
95.963926
21
633.883326
0
LINE
8
hole
62
5
39
2
10
95.963926
20
633.883326
11
94.747590
21
633.510834
0
LINE
8
hole
62
5
39
2
10
94.747590
20
633.510834
11
93.485812
21
633.349256
0
LINE
8
hole
62
5
39
2
10
93.485812
20
633.349256
11
92.214871
21
633.403243
0
LINE
8
hole
62
5
39
2
10
92.214871
20
633.403243
11
90.971332
21
633.671244
0
LINE
8
hole
62
5
39
2
10
90.971332
20
633.671244
11
89.790971
21
634.145553
0
LINE
8
hole
62
5
39
2
10
89.790971
20
634.145553
11
88.707752
21
634.812515
0
LINE
8
hole
62
5
39
2
10
88.707752
20
634.812515
11
87.752831
21
635.652956
0
LINE
8
hole
62
5
39
2
10
87.752831
20
635.652956
11
86.953682
21
636.642687
0
LINE
8
hole
62
5
39
2
10
86.953682
20
636.642687
11
86.333291
21
637.753238
0
LINE
8
hole
62
5
39
2
10
86.333291
20
637.753238
11
85.909503
21
638.952656
0
LINE
8
hole
62
5
39
2
10
85.909503
20
638.952656
11
85.694521
21
640.206458
0
LINE
8
hole
62
5
39
2
10
85.694521
20
640.206458
11
85.694521
21
641.478534
0
LINE
8
hole
62
5
39
2
10
85.694521
20
641.478534
11
85.909503
21
642.732337
0
LINE
8
hole
62
5
39
2
10
85.909503
20
642.732337
11
86.333291
21
643.931755
0
LINE
8
hole
62
5
39
2
10
86.333291
20
643.931755
11
86.953682
21
645.042305
0
LINE
8
hole
62
5
39
2
10
86.953682
20
645.042305
11
87.752831
21
646.032036
0
LINE
8
hole
62
5
39
2
10
112.752831
20
646.032036
11
113.707751
21
646.872477
0
LINE
8
hole
62
5
39
2
10
113.707751
20
646.872477
11
114.790972
21
647.539439
0
LINE
8
hole
62
5
39
2
10
114.790972
20
647.539439
11
115.971333
21
648.013743
0
LINE
8
hole
62
5
39
2
10
115.971333
20
648.013743
11
117.214871
21
648.281749
0
LINE
8
hole
62
5
39
2
10
117.214871
20
648.281749
11
118.485814
21
648.335737
0
LINE
8
hole
62
5
39
2
10
118.485814
20
648.335737
11
119.747592
21
648.174158
0
LINE
8
hole
62
5
39
2
10
119.747592
20
648.174158
11
120.963924
21
647.801667
0
LINE
8
hole
62
5
39
2
10
120.963924
20
647.801667
11
122.099804
21
647.228967
0
LINE
8
hole
62
5
39
2
10
122.099804
20
647.228967
11
123.122559
21
646.472537
0
LINE
8
hole
62
5
39
2
10
123.122559
20
646.472537
11
124.002771
21
645.554145
0
LINE
8
hole
62
5
39
2
10
124.002771
20
645.554145
11
124.715112
21
644.500207
0
LINE
8
hole
62
5
39
2
10
124.715112
20
644.500207
11
125.239081
21
643.341045
0
LINE
8
hole
62
5
39
2
10
125.239081
20
643.341045
11
125.559622
21
642.110007
0
LINE
8
hole
62
5
39
2
10
125.559622
20
642.110007
11
125.667507
21
640.842496
0
LINE
8
hole
62
5
39
2
10
125.667507
20
640.842496
11
125.559622
21
639.574985
0
LINE
8
hole
62
5
39
2
10
125.559622
20
639.574985
11
125.239081
21
638.343947
0
LINE
8
hole
62
5
39
2
10
125.239081
20
638.343947
11
124.715112
21
637.184785
0
LINE
8
hole
62
5
39
2
10
124.715112
20
637.184785
11
124.002771
21
636.130847
0
LINE
8
hole
62
5
39
2
10
124.002771
20
636.130847
11
123.122559
21
635.212455
0
LINE
8
hole
62
5
39
2
10
123.122559
20
635.212455
11
122.099805
21
634.456026
0
LINE
8
hole
62
5
39
2
10
122.099805
20
634.456026
11
120.963924
21
633.883326
0
LINE
8
hole
62
5
39
2
10
120.963924
20
633.883326
11
119.747592
21
633.510834
0
LINE
8
hole
62
5
39
2
10
119.747592
20
633.510834
11
118.485814
21
633.349256
0
LINE
8
hole
62
5
39
2
10
118.485814
20
633.349256
11
117.214871
21
633.403243
0
LINE
8
hole
62
5
39
2
10
117.214871
20
633.403243
11
115.971333
21
633.671244
0
LINE
8
hole
62
5
39
2
10
115.971333
20
633.671244
11
114.790972
21
634.145553
0
LINE
8
hole
62
5
39
2
10
114.790972
20
634.145553
11
113.707751
21
634.812515
0
LINE
8
hole
62
5
39
2
10
113.707751
20
634.812515
11
112.752831
21
635.652956
0
LINE
8
hole
62
5
39
2
10
112.752831
20
635.652956
11
111.953682
21
636.642687
0
LINE
8
hole
62
5
39
2
10
111.953682
20
636.642687
11
111.333286
21
637.753238
0
LINE
8
hole
62
5
39
2
10
111.333286
20
637.753238
11
110.909505
21
638.952656
0
LINE
8
hole
62
5
39
2
10
110.909505
20
638.952656
11
110.694520
21
640.206458
0
LINE
8
hole
62
5
39
2
10
110.694520
20
640.206458
11
110.694520
21
641.478534
0
LINE
8
hole
62
5
39
2
10
110.694520
20
641.478534
11
110.909505
21
642.732337
0
LINE
8
hole
62
5
39
2
10
110.909505
20
642.732337
11
111.333286
21
643.931755
0
LINE
8
hole
62
5
39
2
10
111.333286
20
643.931755
11
111.953682
21
645.042305
0
LINE
8
hole
62
5
39
2
10
111.953682
20
645.042305
11
112.752831
21
646.032036
0
LINE
8
hole
62
5
39
2
10
93.167501
20
620.967494
11
99.462245
21
620.967494
0
LINE
8
hole
62
5
39
2
10
99.462245
20
620.967494
11
118.167504
21
620.967494
0
LINE
8
hole
62
5
39
2
10
118.167504
20
620.967494
11
118.167504
21
618.953176
0
LINE
8
hole
62
5
39
2
10
118.167504
20
618.953176
11
118.167505
21
612.967491
0
LINE
8
hole
62
5
39
2
10
118.167505
20
612.967491
11
111.872761
21
612.967490
0
LINE
8
hole
62
5
39
2
10
111.872761
20
612.967490
11
93.167501
21
612.967490
0
LINE
8
hole
62
5
39
2
10
93.167501
20
612.967490
11
93.167501
21
614.981809
0
LINE
8
hole
62
5
39
2
10
93.167501
20
614.981809
11
93.167501
21
620.967494
0
LINE
8
boundary
62
5
39
2
10
117.402623
20
659.592499
11
6.667500
21
659.592498
0
LINE
8
boundary
62
5
39
2
10
6.667500
20
659.592498
11
6.667500
21
646.625328
0
LINE
8
boundary
62
5
39
2
10
6.667500
20
646.625328
11
6.667500
21
608.092499
0
LINE
8
boundary
62
5
39
2
10
6.667500
20
608.092499
11
43.932379
21
608.092499
0
LINE
8
boundary
62
5
39
2
10
43.932379
20
608.092499
11
154.667502
21
608.092499
0
LINE
8
boundary
62
5
39
2
10
154.667502
20
608.092499
11
154.667502
21
621.059669
0
LINE
8
boundary
62
5
39
2
10
154.667502
20
621.059669
11
154.667502
21
659.592498
0
LINE
8
boundary
62
5
39
2
10
154.667502
20
659.592498
11
117.402623
21
659.592499
0
LINE
8
annotation
62
1
39
211
10
139.867502
20
633.842499
11
139.867502
21
635.271249
0
LINE
8
annotation
62
1
39
211
10
139.867502
20
633.842499
11
139.867502
21
635.271249
0
LINE
8
annotation
62
1
39
211
10
139.867502
20
635.271249
11
139.867502
21
633.842499
0
LINE
8
annotation
62
1
39
211
10
139.867502
20
633.842499
11
141.296252
21
633.842499
0
LINE
8
annotation
62
1
39
211
10
21.467500
20
633.842499
11
21.467500
21
632.413749
0
LINE
8
annotation
62
1
39
211
10
80.667501
20
654.442499
11
80.667501
21
655.871249
0
LINE
8
annotation
62
1
39
211
10
80.667501
20
654.442499
11
80.667501
21
655.871249
0
LINE
8
annotation
62
1
39
211
10
80.667501
20
655.871249
11
80.667501
21
654.442499
0
LINE
8
annotation
62
1
39
211
10
80.667501
20
654.442499
11
80.667501
21
653.013749
0
LINE
8
annotation
62
1
39
211
10
80.667501
20
613.242499
11
82.096251
21
613.242499
0
LINE
8
annotation
62
1
39
211
10
80.667501
20
613.242499
11
82.096251
21
613.242499
0
LINE
8
annotation
62
1
39
211
10
82.096251
20
613.242499
11
80.667501
21
613.242499
0
LINE
8
annotation
62
1
39
211
10
80.667501
20
613.242499
11
80.667501
21
611.813749
0
LINE
8
annotation
62
1
39
211
10
33.396233
20
618.208435
11
33.396233
21
644.851100
0
LINE
8
annotation
62
1
39
211
10
33.396233
20
644.851100
11
27.473227
21
638.926423
0
LINE
8
annotation
62
1
39
211
10
55.221052
20
618.208219
11
43.388408
21
618.208219
0
LINE
8
annotation
62
1
39
211
10
43.388408
20
618.208219
11
54.322159
21
635.810155
0
LINE
8
annotation
62
1
39
211
10
54.322159
20
635.810155
11
54.322159
21
635.810155
0
LINE
8
annotation
62
1
39
211
10
54.322159
20
635.810155
11
54.335230
21
635.826329
0
LINE
8
annotation
62
1
39
211
10
54.335230
20
635.826329
11
54.347764
21
635.842640
0
LINE
8
annotation
62
1
39
211
10
54.347764
20
635.842640
11
54.359845
21
635.859227
0
LINE
8
annotation
62
1
39
211
10
54.359845
20
635.859227
11
54.371554
21
635.876226
0
LINE
8
annotation
62
1
39
211
10
54.371554
20
635.876226
11
54.382975
21
635.893775
0
LINE
8
annotation
62
1
39
211
10
54.382975
20
635.893775
11
54.394189
21
635.912012
0
LINE
8
annotation
62
1
39
211
10
54.394189
20
635.912012
11
54.405280
21
635.931074
0
LINE
8
annotation
62
1
39
211
10
54.405280
20
635.931074
11
54.416329
21
635.951098
0
LINE
8
annotation
62
1
39
211
10
54.416329
20
635.951098
11
54.427420
21
635.972223
0
LINE
8
annotation
62
1
39
211
10
54.427420
20
635.972223
11
54.427420
21
635.972223
0
LINE
8
annotation
62
1
39
211
10
54.427420
20
635.972223
11
54.878872
21
636.941528
0
LINE
8
annotation
62
1
39
211
10
54.878872
20
636.941528
11
55.142602
21
637.946299
0
LINE
8
annotation
62
1
39
211
10
55.142602
20
637.946299
11
55.225075
21
638.963831
0
LINE
8
annotation
62
1
39
211
10
55.225075
20
638.963831
11
55.132752
21
639.971421
0
LINE
8
annotation
62
1
39
211
10
55.132752
20
639.971421
11
54.872097
21
640.946364
0
LINE
8
annotation
62
1
39
211
10
54.872097
20
640.946364
11
54.449573
21
641.865958
0
LINE
8
annotation
62
1
39
211
10
54.449573
20
641.865958
11
53.871644
21
642.707499
0
LINE
8
annotation
62
1
39
211
10
53.871644
20
642.707499
11
53.144773
21
643.448282
0
LINE
8
annotation
62
1
39
211
10
53.144773
20
643.448282
11
52.275422
21
644.065605
0
LINE
8
annotation
62
1
39
211
10
52.275422
20
644.065605
11
52.275422
21
644.065605
0
LINE
8
annotation
62
1
39
211
10
52.275422
20
644.065605
11
51.303421
21
644.510642
0
LINE
8
annotation
62
1
39
211
10
51.303421
20
644.510642
11
50.297111
21
644.770309
0
LINE
8
annotation
62
1
39
211
10
50.297111
20
644.770309
11
49.278987
21
644.850450
0
LINE
8
annotation
62
1
39
211
10
49.278987
20
644.850450
11
48.271549
21
644.756910
0
LINE
8
annotation
62
1
39
211
10
48.271549
20
644.756910
11
47.297293
21
644.495533
0
LINE
8
annotation
62
1
39
211
10
47.297293
20
644.495533
11
46.378716
21
644.072164
0
LINE
8
annotation
62
1
39
211
10
46.378716
20
644.072164
11
45.538317
21
643.492647
0
LINE
8
annotation
62
1
39
211
10
45.538317
20
643.492647
11
44.798593
21
642.762825
0
LINE
8
annotation
62
1
39
211
10
44.798593
20
642.762825
11
44.182040
21
641.888545
0
LINE
8
annotation
62
1
39
211
10
44.182040
20
641.888545
11
43.405116
21
640.398186
0
LINE
8
hole
62
5
39
2
10
139.581752
20
688.231749
11
140.153252
21
688.231749
0
LINE
8
hole
62
5
39
2
10
140.153252
20
688.231749
11
140.153252
21
688.803249
0
LINE
8
hole
62
5
39
2
10
140.153252
20
688.803249
11
139.581752
21
688.803249
0
LINE
8
hole
62
5
39
2
10
139.581752
20
688.803249
11
139.581752
21
688.231749
0
LINE
8
hole
62
5
39
2
10
80.381751
20
708.831749
11
80.953251
21
708.831749
0
LINE
8
hole
62
5
39
2
10
80.953251
20
708.831749
11
80.953251
21
709.403249
0
LINE
8
hole
62
5
39
2
10
80.953251
20
709.403249
11
80.381751
21
709.403249
0
LINE
8
hole
62
5
39
2
10
80.381751
20
709.403249
11
80.381751
21
708.831749
0
LINE
8
hole
62
5
39
2
10
80.381751
20
667.631749
11
80.953251
21
667.631749
0
LINE
8
hole
62
5
39
2
10
80.953251
20
667.631749
11
80.953251
21
668.203249
0
LINE
8
hole
62
5
39
2
10
80.953251
20
668.203249
11
80.381751
21
668.203249
0
LINE
8
hole
62
5
39
2
10
80.381751
20
668.203249
11
80.381751
21
667.631749
0
LINE
8
hole
62
5
39
2
10
21.181750
20
688.231749
11
21.753250
21
688.231749
0
LINE
8
hole
62
5
39
2
10
21.753250
20
688.231749
11
21.753250
21
688.803249
0
LINE
8
hole
62
5
39
2
10
21.753250
20
688.803249
11
21.181750
21
688.803249
0
LINE
8
hole
62
5
39
2
10
21.181750
20
688.803249
11
21.181750
21
688.231749
0
LINE
8
hole
62
5
39
2
10
87.752831
20
700.707036
11
88.205590
21
701.105516
0
LINE
8
hole
62
5
39
2
10
88.205590
20
701.105516
11
88.707752
21
701.547477
0
LINE
8
hole
62
5
39
2
10
88.707752
20
701.547477
11
89.221341
21
701.863705
0
LINE
8
hole
62
5
39
2
10
89.221341
20
701.863705
11
89.790972
21
702.214439
0
LINE
8
hole
62
5
39
2
10
89.790972
20
702.214439
11
90.350619
21
702.439322
0
LINE
8
hole
62
5
39
2
10
90.350619
20
702.439322
11
90.971332
21
702.688743
0
LINE
8
hole
62
5
39
2
10
90.971332
20
702.688743
11
91.560934
21
702.815813
0
LINE
8
hole
62
5
39
2
10
91.560934
20
702.815813
11
92.214871
21
702.956749
0
LINE
8
hole
62
5
39
2
10
92.214871
20
702.956749
11
92.817466
21
702.982346
0
LINE
8
hole
62
5
39
2
10
92.817466
20
702.982346
11
93.485813
21
703.010736
0
LINE
8
hole
62
5
39
2
10
93.485813
20
703.010736
11
94.084062
21
702.934127
0
LINE
8
hole
62
5
39
2
10
94.084062
20
702.934127
11
94.747591
21
702.849158
0
LINE
8
hole
62
5
39
2
10
94.747591
20
702.849158
11
95.324294
21
702.672548
0
LINE
8
hole
62
5
39
2
10
95.324294
20
702.672548
11
95.963925
21
702.476667
0
LINE
8
hole
62
5
39
2
10
95.963925
20
702.476667
11
96.502483
21
702.205131
0
LINE
8
hole
62
5
39
2
10
96.502483
20
702.205131
11
97.099806
21
701.903967
0
LINE
8
hole
62
5
39
2
10
97.099806
20
701.903967
11
97.584728
21
701.545319
0
LINE
8
hole
62
5
39
2
10
97.584728
20
701.545319
11
98.122562
21
701.147537
0
LINE
8
hole
62
5
39
2
10
98.122562
20
701.147537
11
98.539897
21
700.712098
0
LINE
8
hole
62
5
39
2
10
98.539897
20
700.712098
11
99.002771
21
700.229145
0
LINE
8
hole
62
5
39
2
10
99.002771
20
700.229145
11
99.340513
21
699.729439
0
LINE
8
hole
62
5
39
2
10
99.340513
20
699.729439
11
99.715109
21
699.175206
0
LINE
8
hole
62
5
39
2
10
99.715109
20
699.175206
11
99.963542
21
698.625611
0
LINE
8
hole
62
5
39
2
10
99.963542
20
698.625611
11
100.239082
21
698.016045
0
LINE
8
hole
62
5
39
2
10
100.239082
20
698.016045
11
100.391060
21
697.432370
0
LINE
8
hole
62
5
39
2
10
100.391060
20
697.432370
11
100.559620
21
696.785007
0
LINE
8
hole
62
5
39
2
10
100.559620
20
696.785007
11
100.610771
21
696.184039
0
LINE
8
hole
62
5
39
2
10
100.610771
20
696.184039
11
100.667502
21
695.517496
0
LINE
8
hole
62
5
39
2
10
100.667502
20
695.517496
11
100.616352
21
694.916528
0
LINE
8
hole
62
5
39
2
10
100.616352
20
694.916528
11
100.559621
21
694.249985
0
LINE
8
hole
62
5
39
2
10
100.559621
20
694.249985
11
100.407643
21
693.666310
0
LINE
8
hole
62
5
39
2
10
100.407643
20
693.666310
11
100.239082
21
693.018947
0
LINE
8
hole
62
5
39
2
10
100.239082
20
693.018947
11
99.990650
21
692.469350
0
LINE
8
hole
62
5
39
2
10
99.990650
20
692.469350
11
99.715109
21
691.859785
0
LINE
8
hole
62
5
39
2
10
99.715109
20
691.859785
11
99.377366
21
691.360079
0
LINE
8
hole
62
5
39
2
10
99.377366
20
691.360079
11
99.002771
21
690.805847
0
LINE
8
hole
62
5
39
2
10
99.002771
20
690.805847
11
98.585435
21
690.370407
0
LINE
8
hole
62
5
39
2
10
98.585435
20
690.370407
11
98.122562
21
689.887455
0
LINE
8
hole
62
5
39
2
10
98.122562
20
689.887455
11
97.637640
21
689.528807
0
LINE
8
hole
62
5
39
2
10
97.637640
20
689.528807
11
97.099806
21
689.131026
0
LINE
8
hole
62
5
39
2
10
97.099806
20
689.131026
11
96.561248
21
688.859490
0
LINE
8
hole
62
5
39
2
10
96.561248
20
688.859490
11
95.963926
21
688.558326
0
LINE
8
hole
62
5
39
2
10
95.963926
20
688.558326
11
95.387221
21
688.381716
0
LINE
8
hole
62
5
39
2
10
95.387221
20
688.381716
11
94.747590
21
688.185834
0
LINE
8
hole
62
5
39
2
10
94.747590
20
688.185834
11
94.149341
21
688.109224
0
LINE
8
hole
62
5
39
2
10
94.149341
20
688.109224
11
93.485812
21
688.024255
0
LINE
8
hole
62
5
39
2
10
93.485812
20
688.024255
11
92.883218
21
688.049853
0
LINE
8
hole
62
5
39
2
10
92.883218
20
688.049853
11
92.214871
21
688.078243
0
LINE
8
hole
62
5
39
2
10
92.214871
20
688.078243
11
91.625269
21
688.205311
0
LINE
8
hole
62
5
39
2
10
91.625269
20
688.205311
11
90.971332
21
688.346244
0
LINE
8
hole
62
5
39
2
10
90.971332
20
688.346244
11
90.411685
21
688.571130
0
LINE
8
hole
62
5
39
2
10
90.411685
20
688.571130
11
89.790971
21
688.820553
0
LINE
8
hole
62
5
39
2
10
89.790971
20
688.820553
11
89.277382
21
689.136782
0
LINE
8
hole
62
5
39
2
10
89.277382
20
689.136782
11
88.707752
21
689.487515
0
LINE
8
hole
62
5
39
2
10
88.707752
20
689.487515
11
88.254993
21
689.885996
0
LINE
8
hole
62
5
39
2
10
88.254993
20
689.885996
11
87.752831
21
690.327956
0
LINE
8
hole
62
5
39
2
10
87.752831
20
690.327956
11
87.373928
21
690.797220
0
LINE
8
hole
62
5
39
2
10
87.373928
20
690.797220
11
86.953682
21
691.317687
0
LINE
8
hole
62
5
39
2
10
86.953682
20
691.317687
11
86.659535
21
691.844235
0
LINE
8
hole
62
5
39
2
10
86.659535
20
691.844235
11
86.333291
21
692.428238
0
LINE
8
hole
62
5
39
2
10
86.333291
20
692.428238
11
86.132359
21
692.996921
0
LINE
8
hole
62
5
39
2
10
86.132359
20
692.996921
11
85.909503
21
693.627656
0
LINE
8
hole
62
5
39
2
10
85.909503
20
693.627656
11
85.807573
21
694.222124
0
LINE
8
hole
62
5
39
2
10
85.807573
20
694.222124
11
85.694521
21
694.881458
0
LINE
8
hole
62
5
39
2
10
85.694521
20
694.881458
11
85.694521
21
695.484591
0
LINE
8
hole
62
5
39
2
10
85.694521
20
695.484591
11
85.694521
21
696.153534
0
LINE
8
hole
62
5
39
2
10
85.694521
20
696.153534
11
85.796451
21
696.748002
0
LINE
8
hole
62
5
39
2
10
85.796451
20
696.748002
11
85.909503
21
697.407337
0
LINE
8
hole
62
5
39
2
10
85.909503
20
697.407337
11
86.110435
21
697.976020
0
LINE
8
hole
62
5
39
2
10
86.110435
20
697.976020
11
86.333291
21
698.606755
0
LINE
8
hole
62
5
39
2
10
86.333291
20
698.606755
11
86.627439
21
699.133303
0
LINE
8
hole
62
5
39
2
10
86.627439
20
699.133303
11
86.953682
21
699.717305
0
LINE
8
hole
62
5
39
2
10
86.953682
20
699.717305
11
87.332584
21
700.186568
0
LINE
8
hole
62
5
39
2
10
87.332584
20
700.186568
11
87.752831
21
700.707036
0
LINE
8
hole
62
5
39
2
10
112.752831
20
700.707036
11
113.205589
21
701.105516
0
LINE
8
hole
62
5
39
2
10
113.205589
20
701.105516
11
113.707751
21
701.547476
0
LINE
8
hole
62
5
39
2
10
113.707751
20
701.547476
11
114.221341
21
701.863705
0
LINE
8
hole
62
5
39
2
10
114.221341
20
701.863705
11
114.790972
21
702.214439
0
LINE
8
hole
62
5
39
2
10
114.790972
20
702.214439
11
115.350620
21
702.439322
0
LINE
8
hole
62
5
39
2
10
115.350620
20
702.439322
11
115.971333
21
702.688743
0
LINE
8
hole
62
5
39
2
10
115.971333
20
702.688743
11
116.560934
21
702.815813
0
LINE
8
hole
62
5
39
2
10
116.560934
20
702.815813
11
117.214871
21
702.956749
0
LINE
8
hole
62
5
39
2
10
117.214871
20
702.956749
11
117.817466
21
702.982346
0
LINE
8
hole
62
5
39
2
10
117.817466
20
702.982346
11
118.485814
21
703.010736
0
LINE
8
hole
62
5
39
2
10
118.485814
20
703.010736
11
119.084064
21
702.934127
0
LINE
8
hole
62
5
39
2
10
119.084064
20
702.934127
11
119.747592
21
702.849158
0
LINE
8
hole
62
5
39
2
10
119.747592
20
702.849158
11
120.324295
21
702.672548
0
LINE
8
hole
62
5
39
2
10
120.324295
20
702.672548
11
120.963924
21
702.476666
0
LINE
8
hole
62
5
39
2
10
120.963924
20
702.476666
11
121.502482
21
702.205131
0
LINE
8
hole
62
5
39
2
10
121.502482
20
702.205131
11
122.099804
21
701.903967
0
LINE
8
hole
62
5
39
2
10
122.099804
20
701.903967
11
122.584725
21
701.545319
0
LINE
8
hole
62
5
39
2
10
122.584725
20
701.545319
11
123.122559
21
701.147537
0
LINE
8
hole
62
5
39
2
10
123.122559
20
701.147537
11
123.539896
21
700.712098
0
LINE
8
hole
62
5
39
2
10
123.539896
20
700.712098
11
124.002771
21
700.229145
0
LINE
8
hole
62
5
39
2
10
124.002771
20
700.229145
11
124.340515
21
699.729439
0
LINE
8
hole
62
5
39
2
10
124.340515
20
699.729439
11
124.715112
21
699.175206
0
LINE
8
hole
62
5
39
2
10
124.715112
20
699.175206
11
124.963543
21
698.625610
0
LINE
8
hole
62
5
39
2
10
124.963543
20
698.625610
11
125.239081
21
698.016045
0
LINE
8
hole
62
5
39
2
10
125.239081
20
698.016045
11
125.391060
21
697.432370
0
LINE
8
hole
62
5
39
2
10
125.391060
20
697.432370
11
125.559622
21
696.785007
0
LINE
8
hole
62
5
39
2
10
125.559622
20
696.785007
11
125.610774
21
696.184039
0
LINE
8
hole
62
5
39
2
10
125.610774
20
696.184039
11
125.667507
21
695.517496
0
LINE
8
hole
62
5
39
2
10
125.667507
20
695.517496
11
125.616355
21
694.916528
0
LINE
8
hole
62
5
39
2
10
125.616355
20
694.916528
11
125.559622
21
694.249985
0
LINE
8
hole
62
5
39
2
10
125.559622
20
694.249985
11
125.407643
21
693.666310
0
LINE
8
hole
62
5
39
2
10
125.407643
20
693.666310
11
125.239081
21
693.018947
0
LINE
8
hole
62
5
39
2
10
125.239081
20
693.018947
11
124.990650
21
692.469351
0
LINE
8
hole
62
5
39
2
10
124.990650
20
692.469351
11
124.715112
21
691.859785
0
LINE
8
hole
62
5
39
2
10
124.715112
20
691.859785
11
124.377368
21
691.360079
0
LINE
8
hole
62
5
39
2
10
124.377368
20
691.360079
11
124.002771
21
690.805847
0
LINE
8
hole
62
5
39
2
10
124.002771
20
690.805847
11
123.585434
21
690.370408
0
LINE
8
hole
62
5
39
2
10
123.585434
20
690.370408
11
123.122559
21
689.887455
0
LINE
8
hole
62
5
39
2
10
123.122559
20
689.887455
11
122.637638
21
689.528807
0
LINE
8
hole
62
5
39
2
10
122.637638
20
689.528807
11
122.099805
21
689.131026
0
LINE
8
hole
62
5
39
2
10
122.099805
20
689.131026
11
121.561247
21
688.859490
0
LINE
8
hole
62
5
39
2
10
121.561247
20
688.859490
11
120.963924
21
688.558326
0
LINE
8
hole
62
5
39
2
10
120.963924
20
688.558326
11
120.387222
21
688.381715
0
LINE
8
hole
62
5
39
2
10
120.387222
20
688.381715
11
119.747592
21
688.185834
0
LINE
8
hole
62
5
39
2
10
119.747592
20
688.185834
11
119.149342
21
688.109224
0
LINE
8
hole
62
5
39
2
10
119.149342
20
688.109224
11
118.485814
21
688.024256
0
LINE
8
hole
62
5
39
2
10
118.485814
20
688.024256
11
117.883219
21
688.049852
0
LINE
8
hole
62
5
39
2
10
117.883219
20
688.049852
11
117.214871
21
688.078243
0
LINE
8
hole
62
5
39
2
10
117.214871
20
688.078243
11
116.625269
21
688.205311
0
LINE
8
hole
62
5
39
2
10
116.625269
20
688.205311
11
115.971333
21
688.346244
0
LINE
8
hole
62
5
39
2
10
115.971333
20
688.346244
11
115.411686
21
688.571130
0
LINE
8
hole
62
5
39
2
10
115.411686
20
688.571130
11
114.790972
21
688.820553
0
LINE
8
hole
62
5
39
2
10
114.790972
20
688.820553
11
114.277382
21
689.136782
0
LINE
8
hole
62
5
39
2
10
114.277382
20
689.136782
11
113.707751
21
689.487515
0
LINE
8
hole
62
5
39
2
10
113.707751
20
689.487515
11
113.254992
21
689.885995
0
LINE
8
hole
62
5
39
2
10
113.254992
20
689.885995
11
112.752831
21
690.327956
0
LINE
8
hole
62
5
39
2
10
112.752831
20
690.327956
11
112.373928
21
690.797220
0
LINE
8
hole
62
5
39
2
10
112.373928
20
690.797220
11
111.953682
21
691.317687
0
LINE
8
hole
62
5
39
2
10
111.953682
20
691.317687
11
111.659532
21
691.844235
0
LINE
8
hole
62
5
39
2
10
111.659532
20
691.844235
11
111.333286
21
692.428238
0
LINE
8
hole
62
5
39
2
10
111.333286
20
692.428238
11
111.132358
21
692.996921
0
LINE
8
hole
62
5
39
2
10
111.132358
20
692.996921
11
110.909505
21
693.627656
0
LINE
8
hole
62
5
39
2
10
110.909505
20
693.627656
11
110.807574
21
694.222124
0
LINE
8
hole
62
5
39
2
10
110.807574
20
694.222124
11
110.694520
21
694.881458
0
LINE
8
hole
62
5
39
2
10
110.694520
20
694.881458
11
110.694520
21
695.484590
0
LINE
8
hole
62
5
39
2
10
110.694520
20
695.484590
11
110.694520
21
696.153534
0
LINE
8
hole
62
5
39
2
10
110.694520
20
696.153534
11
110.796451
21
696.748002
0
LINE
8
hole
62
5
39
2
10
110.796451
20
696.748002
11
110.909505
21
697.407337
0
LINE
8
hole
62
5
39
2
10
110.909505
20
697.407337
11
111.110433
21
697.976020
0
LINE
8
hole
62
5
39
2
10
111.110433
20
697.976020
11
111.333286
21
698.606755
0
LINE
8
hole
62
5
39
2
10
111.333286
20
698.606755
11
111.627436
21
699.133302
0
LINE
8
hole
62
5
39
2
10
111.627436
20
699.133302
11
111.953682
21
699.717305
0
LINE
8
hole
62
5
39
2
10
111.953682
20
699.717305
11
112.332584
21
700.186568
0
LINE
8
hole
62
5
39
2
10
112.332584
20
700.186568
11
112.752831
21
700.707036
0
LINE
8
hole
62
5
39
2
10
93.167501
20
675.642494
11
97.807510
21
675.642494
0
LINE
8
hole
62
5
39
2
10
97.807510
20
675.642494
11
118.167504
21
675.642494
0
LINE
8
hole
62
5
39
2
10
118.167504
20
675.642494
11
118.167504
21
674.157691
0
LINE
8
hole
62
5
39
2
10
118.167504
20
674.157691
11
118.167505
21
667.642491
0
LINE
8
hole
62
5
39
2
10
118.167505
20
667.642491
11
113.527496
21
667.642490
0
LINE
8
hole
62
5
39
2
10
113.527496
20
667.642490
11
93.167501
21
667.642490
0
LINE
8
hole
62
5
39
2
10
93.167501
20
667.642490
11
93.167501
21
669.127294
0
LINE
8
hole
62
5
39
2
10
93.167501
20
669.127294
11
93.167501
21
675.642494
0
LINE
8
boundary
62
5
39
2
10
127.198656
20
714.267499
11
6.667500
21
714.267498
0
LINE
8
boundary
62
5
39
2
10
6.667500
20
714.267498
11
6.667500
21
704.709083
0
LINE
8
boundary
62
5
39
2
10
6.667500
20
704.709083
11
6.667500
21
662.767499
0
LINE
8
boundary
62
5
39
2
10
6.667500
20
662.767499
11
34.136347
21
662.767499
0
LINE
8
boundary
62
5
39
2
10
34.136347
20
662.767499
11
154.667502
21
662.767499
0
LINE
8
boundary
62
5
39
2
10
154.667502
20
662.767499
11
154.667502
21
672.325915
0
LINE
8
boundary
62
5
39
2
10
154.667502
20
672.325915
11
154.667502
21
714.267498
0
LINE
8
boundary
62
5
39
2
10
154.667502
20
714.267498
11
127.198656
21
714.267499
0
LINE
8
annotation
62
1
39
211
10
80.667501
20
709.117499
11
80.667501
21
710.546249
0
LINE
8
annotation
62
1
39
211
10
80.667501
20
709.117499
11
80.667501
21
710.546249
0
LINE
8
annotation
62
1
39
211
10
80.667501
20
710.546249
11
80.667501
21
709.117499
0
LINE
8
annotation
62
1
39
211
10
80.667501
20
709.117499
11
80.667501
21
707.688749
0
LINE
8
annotation
62
1
39
211
10
80.667501
20
667.917499
11
82.096251
21
667.917499
0
LINE
8
annotation
62
1
39
211
10
80.667501
20
667.917499
11
82.096251
21
667.917499
0
LINE
8
annotation
62
1
39
211
10
82.096251
20
667.917499
11
80.667501
21
667.917499
0
LINE
8
annotation
62
1
39
211
10
80.667501
20
667.917499
11
80.667501
21
666.488749
0
LINE
8
annotation
62
1
39
211
10
139.867502
20
688.517499
11
139.867502
21
689.946249
0
LINE
8
annotation
62
1
39
211
10
21.467500
20
688.517499
11
22.896250
21
688.517499
0
LINE
8
annotation
62
1
39
211
10
33.398244
20
672.883435
11
33.398244
21
699.526100
0
LINE
8
annotation
62
1
39
211
10
33.398244
20
699.526100
11
27.475239
21
693.601423
0
LINE
8
annotation
62
1
39
211
10
43.388408
20
672.884271
11
49.304730
21
672.884271
0
LINE
8
annotation
62
1
39
211
10
49.304730
20
672.884271
11
49.304730
21
672.884271
0
LINE
8
annotation
62
1
39
211
10
49.304730
20
672.884271
11
50.368795
21
672.979724
0
LINE
8
annotation
62
1
39
211
10
50.368795
20
672.979724
11
51.370043
21
673.254827
0
LINE
8
annotation
62
1
39
211
10
51.370043
20
673.254827
11
52.291821
21
673.692693
0
LINE
8
annotation
62
1
39
211
10
52.291821
20
673.692693
11
53.117476
21
674.276434
0
LINE
8
annotation
62
1
39
211
10
53.117476
20
674.276434
11
53.830355
21
674.989165
0
LINE
8
annotation
62
1
39
211
10
53.830355
20
674.989165
11
54.413806
21
675.813997
0
LINE
8
annotation
62
1
39
211
10
54.413806
20
675.813997
11
54.851174
21
676.734045
0
LINE
8
annotation
62
1
39
211
10
54.851174
20
676.734045
11
55.125807
21
677.732421
0
LINE
8
annotation
62
1
39
211
10
55.125807
20
677.732421
11
55.221052
21
678.792239
0
LINE
8
annotation
62
1
39
211
10
55.221052
20
678.792239
11
55.221052
21
681.754577
0
LINE
8
annotation
62
1
39
211
10
55.221052
20
681.754577
11
55.221052
21
681.754577
0
LINE
8
annotation
62
1
39
211
10
55.221052
20
681.754577
11
55.125807
21
682.813955
0
LINE
8
annotation
62
1
39
211
10
55.125807
20
682.813955
11
54.851174
21
683.812097
0
LINE
8
annotation
62
1
39
211
10
54.851174
20
683.812097
11
54.413806
21
684.732076
0
LINE
8
annotation
62
1
39
211
10
54.413806
20
684.732076
11
53.830355
21
685.556964
0
LINE
8
annotation
62
1
39
211
10
53.830355
20
685.556964
11
53.117476
21
686.269831
0
LINE
8
annotation
62
1
39
211
10
53.117476
20
686.269831
11
52.291821
21
686.853752
0
LINE
8
annotation
62
1
39
211
10
52.291821
20
686.853752
11
51.370043
21
687.291796
0
LINE
8
annotation
62
1
39
211
10
51.370043
20
687.291796
11
50.368795
21
687.567037
0
LINE
8
annotation
62
1
39
211
10
50.368795
20
687.567037
11
49.304730
21
687.662545
0
LINE
8
annotation
62
1
39
211
10
49.304730
20
687.662545
11
46.342392
21
687.662545
0
LINE
8
annotation
62
1
39
211
10
46.342392
20
687.662545
11
49.304730
21
687.662545
0
LINE
8
annotation
62
1
39
211
10
49.304730
20
687.662545
11
49.304730
21
687.662545
0
LINE
8
annotation
62
1
39
211
10
49.304730
20
687.662545
11
50.368795
21
687.758077
0
LINE
8
annotation
62
1
39
211
10
50.368795
20
687.758077
11
51.370043
21
688.033478
0
LINE
8
annotation
62
1
39
211
10
51.370043
20
688.033478
11
52.291821
21
688.471958
0
LINE
8
annotation
62
1
39
211
10
52.291821
20
688.471958
11
53.117476
21
689.056726
0
LINE
8
annotation
62
1
39
211
10
53.117476
20
689.056726
11
53.830355
21
689.770992
0
LINE
8
annotation
62
1
39
211
10
53.830355
20
689.770992
11
54.413806
21
690.597965
0
LINE
8
annotation
62
1
39
211
10
54.413806
20
690.597965
11
54.851174
21
691.520854
0
LINE
8
annotation
62
1
39
211
10
54.851174
20
691.520854
11
55.125807
21
692.522870
0
LINE
8
annotation
62
1
39
211
10
55.125807
20
692.522870
11
55.221052
21
693.587221
0
LINE
8
annotation
62
1
39
211
10
55.221052
20
693.587221
11
55.221052
21
693.587221
0
LINE
8
annotation
62
1
39
211
10
55.221052
20
693.587221
11
55.125807
21
694.646599
0
LINE
8
annotation
62
1
39
211
10
55.125807
20
694.646599
11
54.851174
21
695.644742
0
LINE
8
annotation
62
1
39
211
10
54.851174
20
695.644742
11
54.413806
21
696.564721
0
LINE
8
annotation
62
1
39
211
10
54.413806
20
696.564721
11
53.830355
21
697.389608
0
LINE
8
annotation
62
1
39
211
10
53.830355
20
697.389608
11
53.117476
21
698.102476
0
LINE
8
annotation
62
1
39
211
10
53.117476
20
698.102476
11
52.291821
21
698.686396
0
LINE
8
annotation
62
1
39
211
10
52.291821
20
698.686396
11
51.370043
21
699.124440
0
LINE
8
annotation
62
1
39
211
10
51.370043
20
699.124440
11
50.368795
21
699.399681
0
LINE
8
annotation
62
1
39
211
10
50.368795
20
699.399681
11
49.304730
21
699.495190
0
LINE
8
annotation
62
1
39
211
10
49.304730
20
699.495190
11
43.388408
21
699.495190
0
LINE
8
hole
62
5
39
2
10
139.581752
20
742.906749
11
140.153252
21
742.906749
0
LINE
8
hole
62
5
39
2
10
140.153252
20
742.906749
11
140.153252
21
743.478249
0
LINE
8
hole
62
5
39
2
10
140.153252
20
743.478249
11
139.581752
21
743.478249
0
LINE
8
hole
62
5
39
2
10
139.581752
20
743.478249
11
139.581752
21
742.906749
0
LINE
8
hole
62
5
39
2
10
80.381751
20
763.506749
11
80.953251
21
763.506749
0
LINE
8
hole
62
5
39
2
10
80.953251
20
763.506749
11
80.953251
21
764.078249
0
LINE
8
hole
62
5
39
2
10
80.953251
20
764.078249
11
80.381751
21
764.078249
0
LINE
8
hole
62
5
39
2
10
80.381751
20
764.078249
11
80.381751
21
763.506749
0
LINE
8
hole
62
5
39
2
10
80.381751
20
722.306749
11
80.953251
21
722.306749
0
LINE
8
hole
62
5
39
2
10
80.953251
20
722.306749
11
80.953251
21
722.878249
0
LINE
8
hole
62
5
39
2
10
80.953251
20
722.878249
11
80.381751
21
722.878249
0
LINE
8
hole
62
5
39
2
10
80.381751
20
722.878249
11
80.381751
21
722.306749
0
LINE
8
hole
62
5
39
2
10
21.181750
20
742.906749
11
21.753250
21
742.906749
0
LINE
8
hole
62
5
39
2
10
21.753250
20
742.906749
11
21.753250
21
743.478249
0
LINE
8
hole
62
5
39
2
10
21.753250
20
743.478249
11
21.181750
21
743.478249
0
LINE
8
hole
62
5
39
2
10
21.181750
20
743.478249
11
21.181750
21
742.906749
0
LINE
8
hole
62
5
39
2
10
87.752831
20
755.382036
11
88.384673
21
755.938129
0
LINE
8
hole
62
5
39
2
10
88.384673
20
755.938129
11
89.424485
21
756.663785
0
LINE
8
hole
62
5
39
2
10
89.424485
20
756.663785
11
90.571980
21
757.203271
0
LINE
8
hole
62
5
39
2
10
90.571980
20
757.203271
11
91.794144
21
757.541074
0
LINE
8
hole
62
5
39
2
10
91.794144
20
757.541074
11
93.055814
21
757.667471
0
LINE
8
hole
62
5
39
2
10
93.055814
20
757.667471
11
94.320692
21
757.578825
0
LINE
8
hole
62
5
39
2
10
94.320692
20
757.578825
11
95.552402
21
757.277692
0
LINE
8
hole
62
5
39
2
10
95.552402
20
757.277692
11
96.715502
21
756.772728
0
LINE
8
hole
62
5
39
2
10
96.715502
20
756.772728
11
97.776532
21
756.078460
0
LINE
8
hole
62
5
39
2
10
97.776532
20
756.078460
11
98.704969
21
755.214865
0
LINE
8
hole
62
5
39
2
10
98.704969
20
755.214865
11
99.474103
21
754.206786
0
LINE
8
hole
62
5
39
2
10
99.474103
20
754.206786
11
100.061806
21
753.083225
0
LINE
8
hole
62
5
39
2
10
100.061806
20
753.083225
11
100.451173
21
751.876505
0
LINE
8
hole
62
5
39
2
10
100.451173
20
751.876505
11
100.631002
21
750.621334
0
LINE
8
hole
62
5
39
2
10
100.631002
20
750.621334
11
100.596120
21
749.353823
0
LINE
8
hole
62
5
39
2
10
100.596120
20
749.353823
11
100.347531
21
748.110445
0
LINE
8
hole
62
5
39
2
10
100.347531
20
748.110445
11
99.892385
21
746.926965
0
LINE
8
hole
62
5
39
2
10
99.892385
20
746.926965
11
99.243777
21
745.837427
0
LINE
8
hole
62
5
39
2
10
99.243777
20
745.837427
11
98.420363
21
744.873175
0
LINE
8
hole
62
5
39
2
10
98.420363
20
744.873175
11
97.445836
21
744.061949
0
LINE
8
hole
62
5
39
2
10
97.445836
20
744.061949
11
96.348229
21
743.427088
0
LINE
8
hole
62
5
39
2
10
96.348229
20
743.427088
11
95.159114
21
742.986860
0
LINE
8
hole
62
5
39
2
10
95.159114
20
742.986860
11
93.912711
21
742.753922
0
LINE
8
hole
62
5
39
2
10
93.912711
20
742.753922
11
92.644870
21
742.734977
0
LINE
8
hole
62
5
39
2
10
92.644870
20
742.734977
11
91.392060
21
742.930571
0
LINE
8
hole
62
5
39
2
10
91.392060
20
742.930571
11
90.190324
21
743.335080
0
LINE
8
hole
62
5
39
2
10
90.190324
20
743.335080
11
89.074239
21
743.936861
0
LINE
8
hole
62
5
39
2
10
89.074239
20
743.936861
11
88.075910
21
744.718609
0
LINE
8
hole
62
5
39
2
10
88.075910
20
744.718609
11
87.224059
21
745.657830
0
LINE
8
hole
62
5
39
2
10
87.224059
20
745.657830
11
86.543189
21
746.727504
0
LINE
8
hole
62
5
39
2
10
86.543189
20
746.727504
11
86.052883
21
747.896855
0
LINE
8
hole
62
5
39
2
10
86.052883
20
747.896855
11
85.767256
21
749.132258
0
LINE
8
hole
62
5
39
2
10
85.767256
20
749.132258
11
85.694521
21
750.398151
0
LINE
8
hole
62
5
39
2
10
85.694521
20
750.398151
11
85.836768
21
751.658136
0
LINE
8
hole
62
5
39
2
10
85.836768
20
751.658136
11
86.189910
21
752.875954
0
LINE
8
hole
62
5
39
2
10
86.189910
20
752.875954
11
86.743785
21
754.016571
0
LINE
8
hole
62
5
39
2
10
86.743785
20
754.016571
11
87.482454
21
755.047179
0
LINE
8
hole
62
5
39
2
10
87.482454
20
755.047179
11
87.752831
21
755.382036
0
LINE
8
hole
62
5
39
2
10
112.752831
20
755.382036
11
113.384672
21
755.938129
0
LINE
8
hole
62
5
39
2
10
113.384672
20
755.938129
11
114.424485
21
756.663785
0
LINE
8
hole
62
5
39
2
10
114.424485
20
756.663785
11
115.571981
21
757.203271
0
LINE
8
hole
62
5
39
2
10
115.571981
20
757.203271
11
116.794143
21
757.541074
0
LINE
8
hole
62
5
39
2
10
116.794143
20
757.541074
11
118.055815
21
757.667471
0
LINE
8
hole
62
5
39
2
10
118.055815
20
757.667471
11
119.320694
21
757.578825
0
LINE
8
hole
62
5
39
2
10
119.320694
20
757.578825
11
120.552402
21
757.277692
0
LINE
8
hole
62
5
39
2
10
120.552402
20
757.277692
11
121.715501
21
756.772729
0
LINE
8
hole
62
5
39
2
10
121.715501
20
756.772729
11
122.776529
21
756.078461
0
LINE
8
hole
62
5
39
2
10
122.776529
20
756.078461
11
123.704968
21
755.214866
0
LINE
8
hole
62
5
39
2
10
123.704968
20
755.214866
11
124.474105
21
754.206786
0
LINE
8
hole
62
5
39
2
10
124.474105
20
754.206786
11
125.061806
21
753.083225
0
LINE
8
hole
62
5
39
2
10
125.061806
20
753.083225
11
125.451173
21
751.876505
0
LINE
8
hole
62
5
39
2
10
125.451173
20
751.876505
11
125.631006
21
750.621334
0
LINE
8
hole
62
5
39
2
10
125.631006
20
750.621334
11
125.596123
21
749.353823
0
LINE
8
hole
62
5
39
2
10
125.596123
20
749.353823
11
125.347530
21
748.110445
0
LINE
8
hole
62
5
39
2
10
125.347530
20
748.110445
11
124.892387
21
746.926965
0
LINE
8
hole
62
5
39
2
10
124.892387
20
746.926965
11
124.243778
21
745.837427
0
LINE
8
hole
62
5
39
2
10
124.243778
20
745.837427
11
123.420362
21
744.873175
0
LINE
8
hole
62
5
39
2
10
123.420362
20
744.873175
11
122.445834
21
744.061949
0
LINE
8
hole
62
5
39
2
10
122.445834
20
744.061949
11
121.348227
21
743.427088
0
LINE
8
hole
62
5
39
2
10
121.348227
20
743.427088
11
120.159115
21
742.986859
0
LINE
8
hole
62
5
39
2
10
120.159115
20
742.986859
11
118.912712
21
742.753922
0
LINE
8
hole
62
5
39
2
10
118.912712
20
742.753922
11
117.644870
21
742.734977
0
LINE
8
hole
62
5
39
2
10
117.644870
20
742.734977
11
116.392060
21
742.930571
0
LINE
8
hole
62
5
39
2
10
116.392060
20
742.930571
11
115.190325
21
743.335080
0
LINE
8
hole
62
5
39
2
10
115.190325
20
743.335080
11
114.074238
21
743.936861
0
LINE
8
hole
62
5
39
2
10
114.074238
20
743.936861
11
113.075910
21
744.718609
0
LINE
8
hole
62
5
39
2
10
113.075910
20
744.718609
11
112.224059
21
745.657830
0
LINE
8
hole
62
5
39
2
10
112.224059
20
745.657830
11
111.543185
21
746.727504
0
LINE
8
hole
62
5
39
2
10
111.543185
20
746.727504
11
111.052883
21
747.896855
0
LINE
8
hole
62
5
39
2
10
111.052883
20
747.896855
11
110.767256
21
749.132258
0
LINE
8
hole
62
5
39
2
10
110.767256
20
749.132258
11
110.694520
21
750.398151
0
LINE
8
hole
62
5
39
2
10
110.694520
20
750.398151
11
110.836769
21
751.658136
0
LINE
8
hole
62
5
39
2
10
110.836769
20
751.658136
11
111.189908
21
752.875954
0
LINE
8
hole
62
5
39
2
10
111.189908
20
752.875954
11
111.743783
21
754.016571
0
LINE
8
hole
62
5
39
2
10
111.743783
20
754.016571
11
112.482454
21
755.047179
0
LINE
8
hole
62
5
39
2
10
112.482454
20
755.047179
11
112.752831
21
755.382036
0
LINE
8
hole
62
5
39
2
10
93.167501
20
730.317494
11
96.152774
21
730.317494
0
LINE
8
hole
62
5
39
2
10
96.152774
20
730.317494
11
118.167504
21
730.317494
0
LINE
8
hole
62
5
39
2
10
118.167504
20
730.317494
11
118.167504
21
729.362206
0
LINE
8
hole
62
5
39
2
10
118.167504
20
729.362206
11
118.167505
21
722.317490
0
LINE
8
hole
62
5
39
2
10
118.167505
20
722.317490
11
115.182231
21
722.317490
0
LINE
8
hole
62
5
39
2
10
115.182231
20
722.317490
11
93.167501
21
722.317490
0
LINE
8
hole
62
5
39
2
10
93.167501
20
722.317490
11
93.167501
21
723.272778
0
LINE
8
hole
62
5
39
2
10
93.167501
20
723.272778
11
93.167501
21
730.317494
0
LINE
8
boundary
62
5
39
2
10
136.994688
20
768.942499
11
6.667500
21
768.942498
0
LINE
8
boundary
62
5
39
2
10
6.667500
20
768.942498
11
6.667500
21
762.792837
0
LINE
8
boundary
62
5
39
2
10
6.667500
20
762.792837
11
6.667500
21
717.442499
0
LINE
8
boundary
62
5
39
2
10
6.667500
20
717.442499
11
24.340314
21
717.442499
0
LINE
8
boundary
62
5
39
2
10
24.340314
20
717.442499
11
154.667502
21
717.442499
0
LINE
8
boundary
62
5
39
2
10
154.667502
20
717.442499
11
154.667502
21
723.592160
0
LINE
8
boundary
62
5
39
2
10
154.667502
20
723.592160
11
154.667502
21
768.942498
0
LINE
8
boundary
62
5
39
2
10
154.667502
20
768.942498
11
136.994688
21
768.942499
0
LINE
8
annotation
62
1
39
211
10
139.867502
20
743.192499
11
139.867502
21
744.621249
0
LINE
8
annotation
62
1
39
211
10
21.467500
20
743.192499
11
22.896250
21
743.192499
0
LINE
8
annotation
62
1
39
211
10
80.667501
20
763.792499
11
80.667501
21
765.221248
0
LINE
8
annotation
62
1
39
211
10
80.667501
20
763.792499
11
80.667501
21
765.221248
0
LINE
8
annotation
62
1
39
211
10
80.667501
20
765.221248
11
80.667501
21
763.792499
0
LINE
8
annotation
62
1
39
211
10
80.667501
20
763.792499
11
82.096251
21
763.792498
0
LINE
8
annotation
62
1
39
211
10
80.667501
20
722.592499
11
80.667501
21
721.163749
0
LINE
8
annotation
62
1
39
211
10
31.917910
20
727.558435
11
31.917910
21
754.201099
0
LINE
8
annotation
62
1
39
211
10
31.917910
20
754.201099
11
25.994905
21
748.276423
0
LINE
8
annotation
62
1
39
211
10
56.701386
20
733.481441
11
41.908074
21
733.481441
0
LINE
8
annotation
62
1
39
211
10
41.908074
20
733.481441
11
47.816042
21
754.201099
0
LINE
8
annotation
62
1
39
211
10
52.267068
20
727.558435
11
52.267068
21
739.391080
0
LINE
8
hole
62
5
39
2
10
80.381751
20
818.181748
11
80.953251
21
818.181748
0
LINE
8
hole
62
5
39
2
10
80.953251
20
818.181748
11
80.953251
21
818.753248
0
LINE
8
hole
62
5
39
2
10
80.953251
20
818.753248
11
80.381751
21
818.753248
0
LINE
8
hole
62
5
39
2
10
80.381751
20
818.753248
11
80.381751
21
818.181748
0
LINE
8
hole
62
5
39
2
10
80.381751
20
776.981749
11
80.953251
21
776.981749
0
LINE
8
hole
62
5
39
2
10
80.953251
20
776.981749
11
80.953251
21
777.553249
0
LINE
8
hole
62
5
39
2
10
80.953251
20
777.553249
11
80.381751
21
777.553249
0
LINE
8
hole
62
5
39
2
10
80.381751
20
777.553249
11
80.381751
21
776.981749
0
LINE
8
hole
62
5
39
2
10
87.752831
20
810.057036
11
88.563755
21
810.770743
0
LINE
8
hole
62
5
39
2
10
88.563755
20
810.770743
11
89.627628
21
811.463864
0
LINE
8
hole
62
5
39
2
10
89.627628
20
811.463864
11
90.793340
21
811.967221
0
LINE
8
hole
62
5
39
2
10
90.793340
20
811.967221
11
92.027353
21
812.266335
0
LINE
8
hole
62
5
39
2
10
92.027353
20
812.266335
11
93.294162
21
812.352595
0
LINE
8
hole
62
5
39
2
10
93.294162
20
812.352595
11
94.557322
21
812.223523
0
LINE
8
hole
62
5
39
2
10
94.557322
20
812.223523
11
95.780509
21
811.882836
0
LINE
8
hole
62
5
39
2
10
95.780509
20
811.882836
11
96.928522
21
811.340326
0
LINE
8
hole
62
5
39
2
10
96.928522
20
811.340326
11
97.968336
21
810.611602
0
LINE
8
hole
62
5
39
2
10
97.968336
20
810.611602
11
98.870040
21
809.717633
0
LINE
8
hole
62
5
39
2
10
98.870040
20
809.717633
11
99.607693
21
808.684134
0
LINE
8
hole
62
5
39
2
10
99.607693
20
808.684134
11
100.160070
21
807.540840
0
LINE
8
hole
62
5
39
2
10
100.160070
20
807.540840
11
100.511285
21
806.320640
0
LINE
8
hole
62
5
39
2
10
100.511285
20
806.320640
11
100.651234
21
805.058629
0
LINE
8
hole
62
5
39
2
10
100.651234
20
805.058629
11
100.575889
21
803.791118
0
LINE
8
hole
62
5
39
2
10
100.575889
20
803.791118
11
100.287418
21
802.554580
0
LINE
8
hole
62
5
39
2
10
100.287418
20
802.554580
11
99.794121
21
801.384580
0
LINE
8
hole
62
5
39
2
10
99.794121
20
801.384580
11
99.110187
21
800.314774
0
LINE
8
hole
62
5
39
2
10
99.110187
20
800.314774
11
98.255292
21
799.375943
0
LINE
8
hole
62
5
39
2
10
98.255292
20
799.375943
11
97.254031
21
798.595091
0
LINE
8
hole
62
5
39
2
10
97.254031
20
798.595091
11
96.135210
21
797.994686
0
LINE
8
hole
62
5
39
2
10
96.135210
20
797.994686
11
94.931007
21
797.592004
0
LINE
8
hole
62
5
39
2
10
94.931007
20
797.592004
11
93.676081
21
797.398620
0
LINE
8
hole
62
5
39
2
10
93.676081
20
797.398620
11
92.406522
21
797.420102
0
LINE
8
hole
62
5
39
2
10
92.406522
20
797.420102
11
91.158851
21
797.655831
0
LINE
8
hole
62
5
39
2
10
91.158851
20
797.655831
11
89.968963
21
798.099030
0
LINE
8
hole
62
5
39
2
10
89.968963
20
798.099030
11
88.871095
21
798.736941
0
LINE
8
hole
62
5
39
2
10
88.871095
20
798.736941
11
87.896827
21
799.551222
0
LINE
8
hole
62
5
39
2
10
87.896827
20
799.551222
11
87.074189
21
800.518441
0
LINE
8
hole
62
5
39
2
10
87.074189
20
800.518441
11
86.426843
21
801.610773
0
LINE
8
hole
62
5
39
2
10
86.426843
20
801.610773
11
85.973407
21
802.796790
0
LINE
8
hole
62
5
39
2
10
85.973407
20
802.796790
11
85.726939
21
804.042392
0
LINE
8
hole
62
5
39
2
10
85.726939
20
804.042392
11
85.694521
21
805.311712
0
LINE
8
hole
62
5
39
2
10
85.694521
20
805.311712
11
85.877085
21
806.568270
0
LINE
8
hole
62
5
39
2
10
85.877085
20
806.568270
11
86.269386
21
807.775889
0
LINE
8
hole
62
5
39
2
10
86.269386
20
807.775889
11
86.860131
21
808.899840
0
LINE
8
hole
62
5
39
2
10
86.860131
20
808.899840
11
87.632324
21
809.907790
0
LINE
8
hole
62
5
39
2
10
87.632324
20
809.907790
11
87.752831
21
810.057036
0
LINE
8
hole
62
5
39
2
10
112.752831
20
810.057036
11
113.563754
21
810.770743
0
LINE
8
hole
62
5
39
2
10
113.563754
20
810.770743
11
114.627629
21
811.463864
0
LINE
8
hole
62
5
39
2
10
114.627629
20
811.463864
11
115.793341
21
811.967221
0
LINE
8
hole
62
5
39
2
10
115.793341
20
811.967221
11
117.027352
21
812.266335
0
LINE
8
hole
62
5
39
2
10
117.027352
20
812.266335
11
118.294163
21
812.352595
0
LINE
8
hole
62
5
39
2
10
118.294163
20
812.352595
11
119.557323
21
812.223523
0
LINE
8
hole
62
5
39
2
10
119.557323
20
812.223523
11
120.780508
21
811.882836
0
LINE
8
hole
62
5
39
2
10
120.780508
20
811.882836
11
121.928520
21
811.340326
0
LINE
8
hole
62
5
39
2
10
121.928520
20
811.340326
11
122.968333
21
810.611602
0
LINE
8
hole
62
5
39
2
10
122.968333
20
810.611602
11
123.870040
21
809.717633
0
LINE
8
hole
62
5
39
2
10
123.870040
20
809.717633
11
124.607695
21
808.684134
0
LINE
8
hole
62
5
39
2
10
124.607695
20
808.684134
11
125.160070
21
807.540840
0
LINE
8
hole
62
5
39
2
10
125.160070
20
807.540840
11
125.511286
21
806.320640
0
LINE
8
hole
62
5
39
2
10
125.511286
20
806.320640
11
125.651239
21
805.058629
0
LINE
8
hole
62
5
39
2
10
125.651239
20
805.058629
11
125.575891
21
803.791118
0
LINE
8
hole
62
5
39
2
10
125.575891
20
803.791118
11
125.287417
21
802.554580
0
LINE
8
hole
62
5
39
2
10
125.287417
20
802.554580
11
124.794124
21
801.384580
0
LINE
8
hole
62
5
39
2
10
124.794124
20
801.384580
11
124.110188
21
800.314775
0
LINE
8
hole
62
5
39
2
10
124.110188
20
800.314775
11
123.255290
21
799.375943
0
LINE
8
hole
62
5
39
2
10
123.255290
20
799.375943
11
122.254030
21
798.595091
0
LINE
8
hole
62
5
39
2
10
122.254030
20
798.595091
11
121.135208
21
797.994685
0
LINE
8
hole
62
5
39
2
10
121.135208
20
797.994685
11
119.931008
21
797.592004
0
LINE
8
hole
62
5
39
2
10
119.931008
20
797.592004
11
118.676083
21
797.398620
0
LINE
8
hole
62
5
39
2
10
118.676083
20
797.398620
11
117.406522
21
797.420102
0
LINE
8
hole
62
5
39
2
10
117.406522
20
797.420102
11
116.158851
21
797.655831
0
LINE
8
hole
62
5
39
2
10
116.158851
20
797.655831
11
114.968964
21
798.099030
0
LINE
8
hole
62
5
39
2
10
114.968964
20
798.099030
11
113.871094
21
798.736941
0
LINE
8
hole
62
5
39
2
10
113.871094
20
798.736941
11
112.896827
21
799.551222
0
LINE
8
hole
62
5
39
2
10
112.896827
20
799.551222
11
112.074189
21
800.518441
0
LINE
8
hole
62
5
39
2
10
112.074189
20
800.518441
11
111.426838
21
801.610773
0
LINE
8
hole
62
5
39
2
10
111.426838
20
801.610773
11
110.973409
21
802.796790
0
LINE
8
hole
62
5
39
2
10
110.973409
20
802.796790
11
110.726939
21
804.042392
0
LINE
8
hole
62
5
39
2
10
110.726939
20
804.042392
11
110.694520
21
805.311712
0
LINE
8
hole
62
5
39
2
10
110.694520
20
805.311712
11
110.877087
21
806.568270
0
LINE
8
hole
62
5
39
2
10
110.877087
20
806.568270
11
111.269382
21
807.775889
0
LINE
8
hole
62
5
39
2
10
111.269382
20
807.775889
11
111.860130
21
808.899840
0
LINE
8
hole
62
5
39
2
10
111.860130
20
808.899840
11
112.632324
21
809.907790
0
LINE
8
hole
62
5
39
2
10
112.632324
20
809.907790
11
112.752831
21
810.057036
0
LINE
8
hole
62
5
39
2
10
93.167501
20
784.992494
11
94.498039
21
784.992494
0
LINE
8
hole
62
5
39
2
10
94.498039
20
784.992494
11
118.167504
21
784.992494
0
LINE
8
hole
62
5
39
2
10
118.167504
20
784.992494
11
118.167505
21
776.992490
0
LINE
8
hole
62
5
39
2
10
118.167505
20
776.992490
11
116.836967
21
776.992490
0
LINE
8
hole
62
5
39
2
10
116.836967
20
776.992490
11
93.167501
21
776.992490
0
LINE
8
hole
62
5
39
2
10
93.167501
20
776.992490
11
93.167501
21
784.992494
0
LINE
8
boundary
62
5
39
2
10
146.790721
20
823.617498
11
6.667500
21
823.617498
0
LINE
8
boundary
62
5
39
2
10
6.667500
20
823.617498
11
6.667500
21
820.876591
0
LINE
8
boundary
62
5
39
2
10
6.667500
20
820.876591
11
6.667500
21
772.117499
0
LINE
8
boundary
62
5
39
2
10
6.667500
20
772.117499
11
14.544282
21
772.117499
0
LINE
8
boundary
62
5
39
2
10
14.544282
20
772.117499
11
154.667502
21
772.117499
0
LINE
8
boundary
62
5
39
2
10
154.667502
20
772.117499
11
154.667502
21
774.858406
0
LINE
8
boundary
62
5
39
2
10
154.667502
20
774.858406
11
154.667502
21
823.617498
0
LINE
8
boundary
62
5
39
2
10
154.667502
20
823.617498
11
146.790721
21
823.617498
0
LINE
8
annotation
62
1
39
211
10
80.667501
20
818.467498
11
80.667501
21
819.896248
0
LINE
8
annotation
62
1
39
211
10
80.667501
20
818.467498
11
80.667501
21
819.896248
0
LINE
8
annotation
62
1
39
211
10
80.667501
20
819.896248
11
80.667501
21
818.467498
0
LINE
8
annotation
62
1
39
211
10
80.667501
20
818.467498
11
82.096251
21
818.467498
0
LINE
8
annotation
62
1
39
211
10
80.667501
20
777.267499
11
80.667501
21
775.838749
0
LINE
8
annotation
62
1
39
211
10
33.398244
20
782.233435
11
33.398244
21
808.876099
0
LINE
8
annotation
62
1
39
211
10
33.398244
20
808.876099
11
27.475239
21
802.951423
0
LINE
8
annotation
62
1
39
211
10
43.388408
20
782.233435
11
49.304730
21
782.233435
0
LINE
8
annotation
62
1
39
211
10
49.304730
20
782.233435
11
49.304730
21
782.233435
0
LINE
8
annotation
62
1
39
211
10
49.304730
20
782.233435
11
50.366594
21
782.328909
0
LINE
8
annotation
62
1
39
211
10
50.366594
20
782.328909
11
51.366674
21
782.604157
0
LINE
8
annotation
62
1
39
211
10
51.366674
20
782.604157
11
52.288108
21
783.042414
0
LINE
8
annotation
62
1
39
211
10
52.288108
20
783.042414
11
53.114038
21
783.626919
0
LINE
8
annotation
62
1
39
211
10
53.114038
20
783.626919
11
53.827605
21
784.340907
0
LINE
8
annotation
62
1
39
211
10
53.827605
20
784.340907
11
54.411949
21
785.167617
0
LINE
8
annotation
62
1
39
211
10
54.411949
20
785.167617
11
54.850211
21
786.090284
0
LINE
8
annotation
62
1
39
211
10
54.850211
20
786.090284
11
55.125532
21
787.092147
0
LINE
8
annotation
62
1
39
211
10
55.125532
20
787.092147
11
55.221052
21
788.156440
0
LINE
8
annotation
62
1
39
211
10
55.221052
20
788.156440
11
55.221052
21
791.103741
0
LINE
8
annotation
62
1
39
211
10
55.221052
20
791.103741
11
55.221052
21
791.103741
0
LINE
8
annotation
62
1
39
211
10
55.221052
20
791.103741
11
55.125587
21
792.167520
0
LINE
8
annotation
62
1
39
211
10
55.125587
20
792.167520
11
54.850404
21
793.168000
0
LINE
8
annotation
62
1
39
211
10
54.850404
20
793.168000
11
54.412320
21
794.088666
0
LINE
8
annotation
62
1
39
211
10
54.412320
20
794.088666
11
53.828155
21
794.913004
0
LINE
8
annotation
62
1
39
211
10
53.828155
20
794.913004
11
53.114726
21
795.624496
0
LINE
8
annotation
62
1
39
211
10
53.114726
20
795.624496
11
52.288850
21
796.206629
0
LINE
8
annotation
62
1
39
211
10
52.288850
20
796.206629
11
51.367347
21
796.642886
0
LINE
8
annotation
62
1
39
211
10
51.367347
20
796.642886
11
50.367035
21
796.916751
0
LINE
8
annotation
62
1
39
211
10
50.367035
20
796.916751
11
49.304730
21
797.011710
0
LINE
8
annotation
62
1
39
211
10
49.304730
20
797.011710
11
43.388408
21
797.011710
0
LINE
8
annotation
62
1
39
211
10
43.388408
20
797.011710
11
43.388408
21
808.876099
0
LINE
8
annotation
62
1
39
211
10
43.388408
20
808.876099
11
55.221052
21
808.876099
0
LINE
8
frame
62
5
39
2
10
0.000000
20
0.000000
11
200.000000
21
0.000000
0
LINE
8
frame
62
5
39
2
10
200.000000
20
0.000000
11
200.000000
21
850.000000
0
LINE
8
frame
62
5
39
2
10
200.000000
20
850.000000
11
0.000000
21
850.000000
0
LINE
8
frame
62
5
39
2
10
0.000000
20
850.000000
11
0.000000
21
0.000000
0
ENDSEC
0
EOF
