0
SECTION
2
HEADER
9
$INSUNITS
70
4
9
$ACADVER
1
AC1014
9
$HANDSEED
5
FFFF
0
ENDSEC
0
SECTION
2
TABLES
0
TABLE
2
VPORT
5
8
100
AcDbSymbolTable
0
ENDTAB
0
TABLE
2
LTYPE
5
5
100
AcDbSymbolTable
0
LTYPE
5
14
100
AcDbSymbolTableRecord
100
AcDbLinetypeTableRecord
2
BYBLOCK
70
0
0
LTYPE
5
15
100
AcDbSymbolTableRecord
100
AcDbLinetypeTableRecord
2
BYLAYER
70
0
0
ENDTAB
0
TABLE
2
LAYER
5
2
100
AcDbSymbolTable
70
2
0
LAYER
5
50
100
AcDbSymbolTableRecord
100
AcDbLayerTableRecord
2
0
70
0
6
CONTINUOUS
0
ENDTAB
0
TABLE
2
STYLE
5
3
100
AcDbSymbolTable
70
1
0
STYLE
5
11
100
AcDbSymbolTableRecord
100
AcDbTextStyleTableRecord
2
STANDARD
70
0
0
ENDTAB
0
TABLE
2
VIEW
5
6
100
AcDbSymbolTable
70
0
0
ENDTAB
0
TABLE
2
UCS
5
7
100
AcDbSymbolTable
70
0
0
ENDTAB
0
TABLE
2
APPID
5
9
100
AcDbSymbolTable
70
2
0
APPID
5
12
100
AcDbSymbolTableRecord
100
AcDbRegAppTableRecord
2
ACAD
70
0
0
ENDTAB
0
TABLE
2
DIMSTYLE
5
A
100
AcDbSymbolTable
70
1
0
ENDTAB
0
TABLE
2
BLOCK_RECORD
5
1
100
AcDbSymbolTable
70
1
0
BLOCK_RECORD
5
1F
100
AcDbSymbolTableRecord
100
AcDbBlockTableRecord
2
*MODEL_SPACE
0
BLOCK_RECORD
5
1B
100
AcDbSymbolTableRecord
100
AcDbBlockTableRecord
2
*PAPER_SPACE
0
ENDTAB
0
ENDSEC
0
SECTION
2
BLOCKS
0
BLOCK
5
20
100
AcDbEntity
100
AcDbBlockBegin
2
*MODEL_SPACE
0
ENDBLK
5
21
100
AcDbEntity
100
AcDbBlockEnd
0
BLOCK
5
1C
100
AcDbEntity
100
AcDbBlockBegin
2
*PAPER_SPACE
0
ENDBLK
5
1D
100
AcDbEntity
100
AcDbBlockEnd
0
ENDSEC
0
SECTION
2
ENTITIES
0
LWPOLYLINE
5
100
100
AcDbEntity
8
0
100
AcDbPolyline
90
36
70
1
43
0.0
10
-1070
20
100
10
-1070
20
82
10
-1020
20
82
10
-1020
20
100
10
-880
20
100
10
-880
20
82
10
-830
20
82
10
-830
20
100
10
-760
20
100
10
-760
20
16.000000000000014
10
-778
20
16.000000000000014
10
-778
20
-33.999999999999993
10
-760
20
-33.999999999999986
10
-760
20
-166
10
-778
20
-166
10
-778
20
-216
10
-760
20
-216
10
-760
20
-300
10
-830
20
-300
10
-830
20
-282
10
-880
20
-282
10
-880
20
-300
10
-1020
20
-300
10
-1020
20
-282
10
-1070
20
-282
10
-1070
20
-300
10
-1140
20
-300
10
-1140
20
-216
10
-1122
20
-216
10
-1122
20
-166
10
-1140
20
-166
10
-1140
20
-33.999999999999993
10
-1122
20
-33.999999999999993
10
-1122
20
16.000000000000014
10
-1140
20
16.000000000000014
10
-1140
20
100
0
CIRCLE
5
101
100
AcDbEntity
8
0
100
AcDbCircle
10
-788.5
20
70
30
0
40
5.5000000000000178
0
CIRCLE
5
102
100
AcDbEntity
8
0
100
AcDbCircle
10
-1111.5
20
-270
30
0
40
5.5
0
CIRCLE
5
103
100
AcDbEntity
8
0
100
AcDbCircle
10
-1111.5
20
70
30
0
40
5.5
0
CIRCLE
5
104
100
AcDbEntity
8
0
100
AcDbCircle
10
-788.5
20
-270
30
0
40
5.5000000000000178
0
CIRCLE
5
105
100
AcDbEntity
8
0
100
AcDbCircle
10
-787.7547995989321
20
-2.8724220866071448
30
0
40
2.2499999999999964
0
CIRCLE
5
106
100
AcDbEntity
8
0
100
AcDbCircle
10
-913.7547995989321
20
-2.8724220866071448
30
0
40
2.2500000000000009
0
CIRCLE
5
107
100
AcDbEntity
8
0
100
AcDbCircle
10
-834.07955361378527
20
-171.59784358105179
30
0
40
1.9999999999999929
0
CIRCLE
5
108
100
AcDbEntity
8
0
100
AcDbCircle
10
-907.31532388092376
20
-119.28606714993705
30
0
40
2.0000000000000018
0
CIRCLE
5
109
100
AcDbEntity
8
0
100
AcDbCircle
10
-1004.0149101742701
20
-22.439706883371677
30
0
40
1.7500000000000071
0
CIRCLE
5
110
100
AcDbEntity
8
0
100
AcDbCircle
10
-1004.0149074740257
20
-65.439706883371599
30
0
40
1.7500000000000071
0
CIRCLE
5
111
100
AcDbEntity
8
0
100
AcDbCircle
10
-1074.01491017427
20
-64.387522478164385
30
0
40
1.7500000000000071
0
CIRCLE
5
112
100
AcDbEntity
8
0
100
AcDbCircle
10
-1074.01491017427
20
-22.439706883371677
30
0
40
1.7500000000000071
0
ENDSEC
0
SECTION
2
OBJECTS
0
DICTIONARY
5
C
100
AcDbDictionary
3
ACAD_GROUP
350
D
3
ACAD_MLINESTYLE
350
17
0
DICTIONARY
5
D
100
AcDbDictionary
0
DICTIONARY
5
1A
330
C
100
AcDbDictionary
0
DICTIONARY
5
17
100
AcDbDictionary
0
ENDSEC
0
EOF
