0
SECTION
2
HEADER
9
$INSUNITS
70
4
9
$ACADVER
1
AC1014
9
$HANDSEED
5
FFFF
0
ENDSEC
0
SECTION
2
TABLES
0
TABLE
2
VPORT
5
8
100
AcDbSymbolTable
0
ENDTAB
0
TABLE
2
LTYPE
5
5
100
AcDbSymbolTable
0
LTYPE
5
14
100
AcDbSymbolTableRecord
100
AcDbLinetypeTableRecord
2
BYBLOCK
70
0
0
LTYPE
5
15
100
AcDbSymbolTableRecord
100
AcDbLinetypeTableRecord
2
BYLAYER
70
0
0
ENDTAB
0
TABLE
2
LAYER
5
2
100
AcDbSymbolTable
70
2
0
LAYER
5
50
100
AcDbSymbolTableRecord
100
AcDbLayerTableRecord
2
0
70
0
6
CONTINUOUS
0
ENDTAB
0
TABLE
2
STYLE
5
3
100
AcDbSymbolTable
70
1
0
STYLE
5
11
100
AcDbSymbolTableRecord
100
AcDbTextStyleTableRecord
2
STANDARD
70
0
0
ENDTAB
0
TABLE
2
VIEW
5
6
100
AcDbSymbolTable
70
0
0
ENDTAB
0
TABLE
2
UCS
5
7
100
AcDbSymbolTable
70
0
0
ENDTAB
0
TABLE
2
APPID
5
9
100
AcDbSymbolTable
70
2
0
APPID
5
12
100
AcDbSymbolTableRecord
100
AcDbRegAppTableRecord
2
ACAD
70
0
0
ENDTAB
0
TABLE
2
DIMSTYLE
5
A
100
AcDbSymbolTable
70
1
0
ENDTAB
0
TABLE
2
BLOCK_RECORD
5
1
100
AcDbSymbolTable
70
1
0
BLOCK_RECORD
5
1F
100
AcDbSymbolTableRecord
100
AcDbBlockTableRecord
2
*MODEL_SPACE
0
BLOCK_RECORD
5
1B
100
AcDbSymbolTableRecord
100
AcDbBlockTableRecord
2
*PAPER_SPACE
0
ENDTAB
0
ENDSEC
0
SECTION
2
BLOCKS
0
BLOCK
5
20
100
AcDbEntity
100
AcDbBlockBegin
2
*MODEL_SPACE
0
ENDBLK
5
21
100
AcDbEntity
100
AcDbBlockEnd
0
BLOCK
5
1C
100
AcDbEntity
100
AcDbBlockBegin
2
*PAPER_SPACE
0
ENDBLK
5
1D
100
AcDbEntity
100
AcDbBlockEnd
0
ENDSEC
0
SECTION
2
ENTITIES
0
LINE
5
100
100
AcDbEntity
8
0
100
AcDbLine
10
-1840.5915241212674
20
-574.16088874554646
30
0
11
-1840.5915241212674
21
-575.51263493327872
31
0
0
LINE
5
101
100
AcDbEntity
8
0
100
AcDbLine
10
-1876.3081044452333
20
-583.96380728911117
30
0
11
-1876.2469246070327
21
-584.11150848423847
31
0
0
LINE
5
102
100
AcDbEntity
8
0
100
AcDbLine
10
-1996.7915241212665
20
-719.36263716100268
30
0
11
-2002.4415241212664
21
-719.36263716100268
31
0
0
LINE
5
103
100
AcDbEntity
8
0
100
AcDbLine
10
-1932.0633547847324
20
-613.89080649753646
30
0
11
-1949.2814049066249
21
-596.67275637564433
31
0
0
LINE
5
104
100
AcDbEntity
8
0
100
AcDbLine
10
-1890.8463653820122
20
-563.62950206532389
30
0
11
-1893.0085267748746
21
-558.40958270663521
31
0
0
LINE
5
105
100
AcDbEntity
8
0
100
AcDbLine
10
-1930.0658488385584
20
-611.89315913000701
30
0
11
-1926.0519989241443
21
-615.90700904442122
31
0
0
ARC
5
106
100
AcDbEntity
8
0
100
AcDbCircle
10
-1120.9415241212664
20
-725.01263716100243
30
0
40
470.00000000000028
100
AcDbArc
50
171.59438628032061
51
179.31121499651329
0
LINE
5
107
100
AcDbEntity
8
0
100
AcDbLine
10
-861.36282219566681
20
69.896427382069419
30
0
11
-866.58274155435549
21
72.05858877493219
31
0
0
LINE
5
108
100
AcDbEntity
8
0
100
AcDbLine
10
-1982.3043463169336
20
-655.11620977893301
30
0
11
-1984.4665077097964
21
-660.33612913762181
31
0
0
LINE
5
109
100
AcDbEntity
8
0
100
AcDbLine
10
-714.00000000000045
20
151.50000000000014
30
0
11
-714.00000000000045
21
156.50174841545586
31
0
0
LINE
5
110
100
AcDbEntity
8
0
100
AcDbLine
10
79.574626069062532
20
-9.3104100183249283
30
0
11
85.224626069062523
21
-9.310410018324923
31
0
0
LINE
5
111
100
AcDbEntity
8
0
100
AcDbLine
10
-705.65000000000043
20
151.50000000000003
30
0
11
-705.65000000000043
21
151.39460855657975
31
0
0
LINE
5
112
100
AcDbEntity
8
0
100
AcDbLine
10
-1881.0802255174406
20
-579.82496862685366
30
0
11
-1888.2364057026678
21
-562.54842136889249
31
0
0
LINE
5
113
100
AcDbEntity
8
0
100
AcDbLine
10
-1947.283828249773
20
-602.66548634620005
30
0
11
-1951.2789815634769
21
-598.67033303249627
31
0
0
LINE
5
114
100
AcDbEntity
8
0
100
AcDbLine
10
-714.00000000000034
20
175.30924955635723
30
0
11
-714.00000000000034
21
180.95924955635726
31
0
0
ARC
5
115
100
AcDbEntity
8
0
100
AcDbCircle
10
-700
20
0
30
0
40
181.50000000000003
100
AcDbArc
50
91.783875814978074
51
94.423903476226158
0
ARC
5
116
100
AcDbEntity
8
0
100
AcDbCircle
10
-700
20
0
30
0
40
181.50000000000003
100
AcDbArc
50
96.215279106417285
51
111.60817017489427
0
ARC
5
117
100
AcDbEntity
8
0
100
AcDbCircle
10
-700
20
0
30
0
40
151.50000000000003
100
AcDbArc
50
92.13726891760426
51
95.302224194216066
0
ARC
5
118
100
AcDbEntity
8
0
100
AcDbCircle
10
-1820.9415241212664
20
-725.01263716100243
30
0
40
181.49999999999994
100
AcDbArc
50
158.39182982510573
51
178.21612418502247
0
LINE
5
119
100
AcDbEntity
8
0
100
AcDbLine
10
-705.65000000000043
20
157.15000000000003
30
0
11
-705.65000000000043
21
151.50000000000003
31
0
0
LINE
5
120
100
AcDbEntity
8
0
100
AcDbLine
10
-1840.5915241212674
20
-568.51088874554648
30
0
11
-1840.5915241212674
21
-574.16088874554646
31
0
0
LINE
5
121
100
AcDbEntity
8
0
100
AcDbLine
10
-1934.0609314415838
20
-615.88838315438863
30
0
11
-1929.9501437827578
21
-619.9991708132153
31
0
0
LINE
5
122
100
AcDbEntity
8
0
100
AcDbLine
10
-1834.9415241212671
20
-549.70338760464517
30
0
11
-1834.9415241212671
21
-544.0533876046452
31
0
0
LINE
5
123
100
AcDbEntity
8
0
100
AcDbLine
10
-714.00000000000045
20
150.85174841545589
30
0
11
-714.00000000000045
21
156.50174841545586
31
0
0
LINE
5
124
100
AcDbEntity
8
0
100
AcDbLine
10
105.22462606906248
20
0.039589981675054488
30
0
11
105.22462606906248
21
-3.6604100183249337
31
0
0
LINE
5
125
100
AcDbEntity
8
0
100
AcDbLine
10
-705.65000000000043
20
175.85000000000005
30
0
11
-705.65000000000043
21
181.50000000000003
31
0
0
LINE
5
126
100
AcDbEntity
8
0
100
AcDbLine
10
-1834.9415241212673
20
-568.51088874554648
30
0
11
-1840.5915241212674
21
-568.51088874554648
31
0
0
LINE
5
127
100
AcDbEntity
8
0
100
AcDbLine
10
-1965.048111958984
20
-662.26397608548427
30
0
11
-1967.2102733518466
21
-667.48389544417296
31
0
0
LINE
5
128
100
AcDbEntity
8
0
100
AcDbLine
10
-1591.4854251412439
20
-655.44726978684014
30
0
11
-1585.9011826071005
21
-656.30676691881285
31
0
0
LINE
5
129
100
AcDbEntity
8
0
100
AcDbLine
10
-1596.5915241212667
20
-719.36263716100245
30
0
11
-1596.5915241212667
21
-725.01263716100243
31
0
0
LINE
5
130
100
AcDbEntity
8
0
100
AcDbLine
10
-1961.9903539931577
20
-669.64605683703564
30
0
11
-1961.7404566623004
21
-669.74956770067809
31
0
0
ARC
5
131
100
AcDbEntity
8
0
100
AcDbCircle
10
-1820.9415241212664
20
-725.01263716100243
30
0
40
151.5
100
AcDbArc
50
92.137268917604231
51
95.302224194216151
0
ARC
5
132
100
AcDbEntity
8
0
100
AcDbCircle
10
-1820.9415241212664
20
-725.01263716100243
30
0
40
151.5
100
AcDbArc
50
136.06844857137264
51
156.43155142862756
0
LINE
5
133
100
AcDbEntity
8
0
100
AcDbLine
10
-1890.8463653820122
20
-563.62950206532389
30
0
11
-1893.0085267748746
21
-558.40958270663521
31
0
0
LINE
5
134
100
AcDbEntity
8
0
100
AcDbLine
10
-1959.8281926002949
20
-664.42613747834685
30
0
11
-1965.048111958984
21
-662.26397608548427
31
0
0
LINE
5
135
100
AcDbEntity
8
0
100
AcDbLine
10
-714.00000000000045
20
156.50174841545586
30
0
11
-719.65000000000032
21
156.50174841545586
31
0
0
ARC
5
136
100
AcDbEntity
8
0
100
AcDbCircle
10
-1820.9415241212664
20
-725.01263716100243
30
0
40
151.50000000000006
100
AcDbArc
50
113.56844857137246
51
133.93155142862773
0
LINE
5
137
100
AcDbEntity
8
0
100
AcDbLine
10
84.503568354412138
20
-4.5029108309203174
30
0
11
84.332075732921808
21
-4.5029108309203174
31
0
0
LINE
5
138
100
AcDbEntity
8
0
100
AcDbLine
10
-719.65000000000032
20
150.85174841545589
30
0
11
-719.65000000000032
21
149.5000022277236
31
0
0
LINE
5
139
100
AcDbEntity
8
0
100
AcDbLine
10
-700.00000000000045
20
157.15000000000003
30
0
11
-705.65000000000043
21
157.15000000000003
31
0
0
LINE
5
140
100
AcDbEntity
8
0
100
AcDbLine
10
-1978.0915241212665
20
-725.01263716100254
30
0
11
-1996.7915241212665
21
-725.012637161003
31
0
0
LINE
5
141
100
AcDbEntity
8
0
100
AcDbLine
10
-851.5
20
5.6499999999996895
30
0
11
-851.39460855657944
21
5.6499999999997019
31
0
0
LINE
5
142
100
AcDbEntity
8
0
100
AcDbLine
10
-838.88666847902857
20
60.586499682655528
30
0
11
-844.10658783771737
21
62.748661075518228
31
0
0
LINE
5
143
100
AcDbEntity
8
0
100
AcDbLine
10
85.224626069062523
20
-3.6604100183249413
30
0
11
85.224626069062523
21
0.039589981675048347
31
0
0
LINE
5
144
100
AcDbEntity
8
0
100
AcDbLine
10
-1982.3043463169336
20
-655.11620977893301
30
0
11
-1987.5242656756225
21
-652.95404838607044
31
0
0
ARC
5
145
100
AcDbEntity
8
0
100
AcDbCircle
10
-1820.9415241212664
20
-725.01263716100243
30
0
40
181.4999999999998
100
AcDbArc
50
135.8918298251059
51
156.60817017489447
0
LINE
5
146
100
AcDbEntity
8
0
100
AcDbLine
10
-1996.7915241212665
20
-725.012637161003
30
0
11
-1996.7915241212665
21
-719.36263716100268
31
0
0
ARC
5
147
100
AcDbEntity
8
0
100
AcDbCircle
10
-1820.9415241212664
20
-725.01263716100243
30
0
40
181.50000000000006
100
AcDbArc
50
113.39182982510575
51
134.10817017489438
0
LINE
5
148
100
AcDbEntity
8
0
100
AcDbLine
10
-1826.5915241212667
20
-573.51263716100232
30
0
11
-1826.5915241212667
21
-573.61802860442265
31
0
0
LINE
5
149
100
AcDbEntity
8
0
100
AcDbLine
10
-1972.4415241212664
20
-719.36263716100268
30
0
11
-1972.3361326778465
21
-719.36263716100268
31
0
0
LINE
5
150
100
AcDbEntity
8
0
100
AcDbLine
10
-1607.9415313781319
20
-719.36263716100245
30
0
11
-1650.4415313781319
21
-719.36263716100245
31
0
0
LINE
5
151
100
AcDbEntity
8
0
100
AcDbLine
10
-1837.7665241212667
20
-567.86263716100223
30
0
11
-1837.7665241212667
21
-549.16263716100229
31
0
0
ARC
5
152
100
AcDbEntity
8
0
100
AcDbCircle
10
-1820.9415241212664
20
-725.01263716100243
30
0
40
181.5
100
AcDbArc
50
91.783875814978117
51
94.423903476226286
0
LINE
5
153
100
AcDbEntity
8
0
100
AcDbLine
10
-1881.5280238039215
20
-586.12596868197375
30
0
11
-1881.4895068056476
21
-586.21895694159036
31
0
0
LINE
5
154
100
AcDbEntity
8
0
100
AcDbLine
10
-1820.9415241212671
20
-567.86263716100234
30
0
11
-1820.9415241212671
21
-549.16263716100229
31
0
0
LINE
5
155
100
AcDbEntity
8
0
100
AcDbLine
10
-1834.9415241212671
20
-549.70338760464517
30
0
11
-1840.5915241212667
21
-549.70338760464517
31
0
0
ARC
5
156
100
AcDbEntity
8
0
100
AcDbCircle
10
-1820.9415241212664
20
-725.01263716100243
30
0
40
151.50000000000009
100
AcDbArc
50
158.56844857137247
51
177.86273108239598
0
LINE
5
157
100
AcDbEntity
8
0
100
AcDbLine
10
-1883.6901851967853
20
-580.90604932328495
30
0
11
-1881.5280238039215
21
-586.12596868197375
31
0
0
LINE
5
158
100
AcDbEntity
8
0
100
AcDbLine
10
110.87462606906246
20
-9.3104100183249106
30
0
11
110.87462606906246
21
-3.6604100183249333
31
0
0
LINE
5
159
100
AcDbEntity
8
0
100
AcDbLine
10
79.574626069062532
20
0.039589981675047924
30
0
11
79.574626069062532
21
-3.6604100183249444
31
0
0
LINE
5
160
100
AcDbEntity
8
0
100
AcDbLine
10
105.22462606906248
20
-3.6604100183249337
30
0
11
105.22462606906248
21
-9.3104100183249177
31
0
0
LINE
5
161
100
AcDbEntity
8
0
100
AcDbLine
10
110.87462606906246
20
-3.6604100183249333
30
0
11
110.87462606906246
21
0.039589981675055008
31
0
0
ARC
5
162
100
AcDbEntity
8
0
100
AcDbCircle
10
-700
20
0
30
0
40
151.50000000000003
100
AcDbArc
50
97.452428449321772
51
111.43155142862759
0
LINE
5
163
100
AcDbEntity
8
0
100
AcDbLine
10
-700.00000000000011
20
175.85000000000005
30
0
11
-705.65000000000043
21
175.85000000000005
31
0
0
LINE
5
164
100
AcDbEntity
8
0
100
AcDbLine
10
-494.35000000000014
20
16.825000000000017
30
0
11
-475.64999999999998
21
16.82500000000006
31
0
0
LINE
5
165
100
AcDbEntity
8
0
100
AcDbLine
10
-719.65000000000032
20
156.50174841545586
30
0
11
-719.65000000000032
21
150.85174841545589
31
0
0
LINE
5
166
100
AcDbEntity
8
0
100
AcDbLine
10
-414.4138859376605
20
269.63619441641703
30
0
11
-399.0839698178425
21
258.90207160738902
31
0
0
LINE
5
167
100
AcDbEntity
8
0
100
AcDbLine
10
74.631710196373135
20
-3.714110188496909
30
0
11
74.80320281786345
21
-3.714110188496909
31
0
0
LINE
5
168
100
AcDbEntity
8
0
100
AcDbLine
10
-826.34230412850661
20
122.34715081480221
30
0
11
-830.33745744221051
21
126.34230412850613
31
0
0
LINE
5
169
100
AcDbEntity
8
0
100
AcDbLine
10
95.224626069062523
20
0.03958998167505369
30
0
11
85.224626069062523
21
0.039589981675048347
31
0
0
LINE
5
170
100
AcDbEntity
8
0
100
AcDbLine
10
105.22462606906248
20
-9.3104100183249177
30
0
11
110.87462606906246
21
-9.3104100183249106
31
0
0
LINE
5
171
100
AcDbEntity
8
0
100
AcDbLine
10
105.64937912896269
20
2.9553555899243293
30
0
11
85.64937912896275
21
2.9553555899243267
31
0
0
LINE
5
172
100
AcDbEntity
8
0
100
AcDbLine
10
-977.84698505989184
20
-592.15904999216161
30
0
11
-967.25892683903851
21
-597.38050247432921
31
0
0
ARC
5
173
100
AcDbEntity
8
0
100
AcDbCircle
10
95.224626069062481
20
0.039589981675058124
30
0
40
22.499999999999968
100
AcDbArc
50
-0.10081511250795926
51
0
0
LINE
5
174
100
AcDbEntity
8
0
100
AcDbLine
10
-972.77965407023203
20
-594.65798109189927
30
0
11
-977.84698505989184
21
-592.15904999216161
31
0
0
LINE
5
175
100
AcDbEntity
8
0
100
AcDbLine
10
95.26025705257004
20
0
30
0
11
95.224626069062523
21
0.03958998167505369
31
0
0
LINE
5
176
100
AcDbEntity
8
0
100
AcDbLine
10
-485.00000000000006
20
16.825000000000038
30
0
11
-486.79570243443061
21
16.825000000000038
31
0
0
LINE
5
177
100
AcDbEntity
8
0
100
AcDbLine
10
-1026.0089814905141
20
-646.95284986199954
30
0
11
-1020.6204807187863
21
-648.65183762919878
31
0
0
LINE
5
178
100
AcDbEntity
8
0
100
AcDbLine
10
-999.09646073526642
20
-661.36252461885533
30
0
11
-999.08836357985592
21
-661.36507764214969
31
0
0
LINE
5
179
100
AcDbEntity
8
0
100
AcDbLine
10
85.224626069062523
20
-9.310410018324923
30
0
11
85.224626069062523
21
-3.6604100183249413
31
0
0
LINE
5
180
100
AcDbEntity
8
0
100
AcDbLine
10
-997.3974729680674
20
-655.9740238471278
30
0
11
-1002.7859737397946
21
-654.27503607992878
31
0
0
LWPOLYLINE
5
181
100
AcDbEntity
8
0
100
AcDbPolyline
90
19
70
1
43
0.0
10
105.64937912896269
20
2.9157656082492807
10
95.649379128962707
20
2.9157656082492744
10
85.64937912896275
20
2.9157656082492718
10
85.64937912896275
20
6.6157656082492613
10
85.64937912896275
20
12.265765608249239
10
79.99937912896273
20
12.265765608249238
10
79.99937912896273
20
6.6157656082492586
10
79.99937912896273
20
2.9157656082492709
10
73.149379128962764
20
2.9157656082492722
10
73.149379128962721
20
17.915765608249249
42
-0.41421356237309559
10
83.149379128962721
20
27.91576560824927
10
108.14937912896269
20
27.915765608249284
42
-0.4142135623730937
10
118.14937912896269
20
17.915765608249256
10
118.14937912896269
20
2.9157656082492696
10
111.29937912896268
20
2.9157656082492829
10
111.29937912896268
20
6.6157656082492728
10
111.29937912896268
20
12.265765608249257
10
105.64937912896269
20
12.265765608249257
10
105.64937912896269
20
6.6157656082492693
0
LINE
5
182
100
AcDbEntity
8
0
100
AcDbLine
10
-962.79353250496911
20
-528.04970105846655
30
0
11
-966.03423937035234
21
-532.67791010869939
31
0
0
ARC
5
183
100
AcDbEntity
8
0
100
AcDbCircle
10
95.649379128962721
20
2.9157656082492696
30
0
40
22.499999999999968
100
AcDbArc
50
179.89918488749205
51
180
0
LINE
5
184
100
AcDbEntity
8
0
100
AcDbLine
10
79.574626069062532
20
-3.6604100183249444
30
0
11
79.574626069062532
21
-9.3104100183249283
31
0
0
LINE
5
185
100
AcDbEntity
8
0
100
AcDbLine
10
106.37043684361305
20
7.4582664208446472
30
0
11
106.54192946510338
21
7.4582664208446472
31
0
0
LINE
5
186
100
AcDbEntity
8
0
100
AcDbLine
10
-484.96708908955867
20
5.6500000000000128
30
0
11
-487.0000072568655
21
5.6500000000000092
31
0
0
ARC
5
187
100
AcDbEntity
8
0
100
AcDbCircle
10
95.649379128962721
20
2.9157656082492696
30
0
40
22.499999999999964
100
AcDbArc
50
0
51
0.10081511250797891
0
LINE
5
188
100
AcDbEntity
8
0
100
AcDbLine
10
-484.96708908955867
20
5.6500000000000128
30
0
11
-442.46708908955867
21
5.6500000000001291
31
0
0
LINE
5
189
100
AcDbEntity
8
0
100
AcDbLine
10
-487.0000072568655
20
5.6500000000000092
30
0
11
-529.5000072568655
21
5.6499999999999408
31
0
0
LINE
5
190
100
AcDbEntity
8
0
100
AcDbLine
10
-1020.6204807187863
20
-648.65183762919878
30
0
11
-1022.3194684859857
21
-654.04033840092643
31
0
0
LINE
5
191
100
AcDbEntity
8
0
100
AcDbLine
10
117.72462606906245
20
0.039589981675058124
30
0
11
117.72462606906245
21
-14.960410018324946
31
0
0
LINE
5
192
100
AcDbEntity
8
0
100
AcDbLine
10
-970.28072297049471
20
-589.59065010223958
30
0
11
-970.27310842829149
21
-589.59440517889834
31
0
0
LINE
5
193
100
AcDbEntity
8
0
100
AcDbLine
10
-1002.7859737397946
20
-654.27503607992878
30
0
11
-1004.4849615069938
21
-659.66353685165632
31
0
0
LINE
5
194
100
AcDbEntity
8
0
100
AcDbLine
10
-999.68583631621311
20
-581.38932038532914
30
0
11
-994.61850532655365
21
-583.88825148506658
31
0
0
LINE
5
195
100
AcDbEntity
8
0
100
AcDbLine
10
-975.34805396015463
20
-587.09171900250215
30
0
11
-963.78096494783335
21
-592.79597604142521
31
0
0
LINE
5
196
100
AcDbEntity
8
0
100
AcDbLine
10
-485.00000000000006
20
16.825000000000038
30
0
11
-445.00000000000006
21
16.825000000000134
31
0
0
LINE
5
197
100
AcDbEntity
8
0
100
AcDbLine
10
95.224626069062523
20
0.03958998167505369
30
0
11
105.22462606906248
21
0.039589981675054488
31
0
0
LINE
5
198
100
AcDbEntity
8
0
100
AcDbLine
10
0
20
0
30
0
11
79.574626069062532
21
-8.6736173798840339e-18
31
0
0
LINE
5
199
100
AcDbEntity
8
0
100
AcDbLine
10
-1004.4849615069938
20
-659.66353685165632
30
0
11
-999.08836357985592
21
-661.36507764214969
31
0
0
LINE
5
200
100
AcDbEntity
8
0
100
AcDbLine
10
-1019.684403888004
20
-724.85039009169452
30
0
11
-1007.999925057979
21
-726.64880339154752
31
0
0
ARC
5
201
100
AcDbEntity
8
0
100
AcDbCircle
10
-550
20
-800
30
0
40
470.00000000000006
100
AcDbArc
50
161.2002506189412
51
162.15561371967945
0
LINE
5
202
100
AcDbEntity
8
0
100
AcDbLine
10
-1020.6204807187863
20
-648.65183762919878
30
0
11
-1026.0847775814939
21
-646.92895144631188
31
0
0
ARC
5
203
100
AcDbEntity
8
0
100
AcDbCircle
10
-1120.9415241212664
20
-725.01263716100243
30
0
40
500.00000000000023
100
AcDbArc
50
162.8237228766051
51
170.92627712339495
0
LWPOLYLINE
5
204
100
AcDbEntity
8
0
100
AcDbPolyline
90
4
70
1
43
0.0
10
607.99969360186094
20
4.9874217329439938
10
612.99969360186094
20
4.9874217329439938
10
612.99969360186094
20
-5.0125782670560062
10
607.99969360186094
20
-5.0125782670560062
0
LWPOLYLINE
5
205
100
AcDbEntity
8
0
100
AcDbPolyline
90
7
70
1
43
0.0
10
-1025.5141845521623
20
-794.68804794161451
10
-1031.1641845521626
20
-794.68804794161451
10
-1034.8641845521627
20
-794.68804794161451
10
-1038.5641845521627
20
-794.68804794161451
10
-1044.2141845521628
20
-794.68804794161451
10
-1044.2141845521628
20
-800.33804794161483
10
-1025.5141845521623
20
-800.33804794161483
0
ARC
5
206
100
AcDbEntity
8
0
100
AcDbCircle
10
-1820.9415241212664
20
-725.01263716100243
30
0
40
166.50000000000006
100
AcDbArc
50
90.000000000000242
51
180
0
LWPOLYLINE
5
207
100
AcDbEntity
8
0
100
AcDbPolyline
90
4
70
1
43
0.0
10
537.00024693526711
20
-5.0411645205585671
10
537.00024693526711
20
4.9588354794414329
10
542.00024693526711
20
4.9588354794414329
10
542.00024693526711
20
-5.0411645205585671
0
LINE
5
208
100
AcDbEntity
8
0
100
AcDbLine
10
-1585.0416854751277
20
-650.72252438467012
30
0
11
-1585.0330874400581
21
-650.72252438467046
31
0
0
LINE
5
209
100
AcDbEntity
8
0
100
AcDbLine
10
-1596.9505056117805
20
-571.96548702300208
30
0
11
-1591.5620048400529
21
-573.66447479020121
31
0
0
LINE
5
210
100
AcDbEntity
8
0
100
AcDbLine
10
-1878.4702658380961
20
-578.74388793042249
30
0
11
-1883.6901851967853
21
-580.90604932328495
31
0
0
LINE
5
211
100
AcDbEntity
8
0
100
AcDbLine
10
-1039.3529851945859
20
-860.03841347816297
30
0
11
-1039.3529851945859
21
-859.866920856673
31
0
0
LINE
5
212
100
AcDbEntity
8
0
100
AcDbLine
10
-1675.928986495278
20
-456.1955947888743
30
0
11
-1660.5990703840075
21
-466.92971761010875
31
0
0
LINE
5
213
100
AcDbEntity
8
0
100
AcDbLine
10
-1593.2609926072519
20
-579.05297556192875
30
0
11
-1598.6494933789797
21
-577.35398779472962
31
0
0
LINE
5
214
100
AcDbEntity
8
0
100
AcDbLine
10
-1605.9086132108248
20
-719.36263716100245
30
0
11
-1607.9415313781319
21
-719.36263716100245
31
0
0
LWPOLYLINE
5
215
100
AcDbEntity
8
0
100
AcDbPolyline
90
4
70
1
43
0.0
10
362.00024693526711
20
-5.0411645205585671
10
362.00024693526711
20
4.9588354794414329
10
367.00024693526711
20
4.9588354794414329
10
367.00024693526711
20
-5.0411645205585671
0
LINE
5
216
100
AcDbEntity
8
0
100
AcDbLine
10
-1609.1082882550177
20
-647.01831993094561
30
0
11
-1609.967785386991
21
-652.60256246508845
31
0
0
LINE
5
217
100
AcDbEntity
8
0
100
AcDbLine
10
-1568.3389970893336
20
-580.98666100813034
30
0
11
-1568.3308999339235
21
-580.98921403142413
31
0
0
LINE
5
218
100
AcDbEntity
8
0
100
AcDbLine
10
-1591.5620048400529
20
-573.66447479020121
30
0
11
-1593.2609926072519
21
-579.05297556192875
31
0
0
LINE
5
219
100
AcDbEntity
8
0
100
AcDbLine
10
-1590.6259280092706
20
-649.86302725269695
30
0
11
-1591.4854251412439
21
-655.44726978684014
31
0
0
LINE
5
220
100
AcDbEntity
8
0
100
AcDbLine
10
-1568.3389970893336
20
-580.98666100813034
30
0
11
-1573.7274978610617
21
-579.2876732409311
31
0
0
LINE
5
221
100
AcDbEntity
8
0
100
AcDbLine
10
-1614.6925307891604
20
-646.15882279897278
30
0
11
-1609.1082882550177
21
-647.01831993094561
31
0
0
LINE
5
222
100
AcDbEntity
8
0
100
AcDbLine
10
-1575.4264856282607
20
-584.67617401265875
30
0
11
-1570.0379848565331
21
-586.37516177985776
31
0
0
LINE
5
223
100
AcDbEntity
8
0
100
AcDbLine
10
-1657.5912147664658
20
-472.4845290006084
30
0
11
-1657.4146727763209
21
-472.60613487639944
31
0
0
LINE
5
224
100
AcDbEntity
8
0
100
AcDbLine
10
-1620.9415241212664
20
-719.36263716100245
30
0
11
-1615.2915241212668
21
-719.36263716100245
31
0
0
LINE
5
225
100
AcDbEntity
8
0
100
AcDbLine
10
-1143.9690586109355
20
-588.47851868083023
30
0
11
-1160.2492774185064
21
-589.53179156548208
31
0
0
ARC
5
226
100
AcDbEntity
8
0
100
AcDbCircle
10
-1144.8755562647634
20
-659.32531593126237
30
0
40
72.499999999997314
100
AcDbArc
50
113.17727070973159
51
119.22717089602247
0
LINE
5
227
100
AcDbEntity
8
0
100
AcDbLine
10
-941.72830645095917
20
-521.48913416242362
30
0
11
-941.82667057765389
21
-521.62961269389768
31
0
0
LINE
5
228
100
AcDbEntity
8
0
100
AcDbLine
10
-1885.6264460233233
20
-561.46734067246121
30
0
11
-1890.8463653820122
21
-563.62950206532389
31
0
0
LINE
5
229
100
AcDbEntity
8
0
100
AcDbLine
10
-1885.6264460233233
20
-561.46734067246121
30
0
11
-1887.7886074161859
21
-556.24742131377252
31
0
0
LINE
5
230
100
AcDbEntity
8
0
100
AcDbLine
10
-1044.3499999999999
20
-794.35000000000002
30
0
11
-1058.1482487194626
21
-794.35000000000002
31
0
0
ARC
5
231
100
AcDbEntity
8
0
100
AcDbCircle
10
-1260.9415241212664
20
-725.01263716100243
30
0
40
484.99999999999994
100
AcDbArc
50
145.00000000000003
51
180
0
LINE
5
232
100
AcDbEntity
8
0
100
AcDbLine
10
-1590.9415241212664
20
-719.36263716100245
30
0
11
-1590.9075627878924
21
-719.36263716100393
31
0
0
LINE
5
233
100
AcDbEntity
8
0
100
AcDbLine
10
-1704.3105638979509
20
-506.3672231512391
30
0
11
-1687.5390436312898
21
-514.63802165833431
31
0
0
LINE
5
234
100
AcDbEntity
8
0
100
AcDbLine
10
-1609.967785386991
20
-652.60256246508845
30
0
11
-1615.5520279211332
21
-651.74306533311551
31
0
0
LINE
5
235
100
AcDbEntity
8
0
100
AcDbLine
10
-1573.7274978610617
20
-579.2876732409311
30
0
11
-1575.4264856282607
21
-584.67617401265875
31
0
0
LINE
5
236
100
AcDbEntity
8
0
100
AcDbLine
10
-1615.2915241212668
20
-719.36263716100245
30
0
11
-1615.2915241212668
21
-725.01263716100243
31
0
0
LINE
5
237
100
AcDbEntity
8
0
100
AcDbLine
10
-1592.4114987236526
20
-576.35872517606504
30
0
11
-1574.5769917446612
21
-581.98192362679492
31
0
0
LINE
5
238
100
AcDbEntity
8
0
100
AcDbLine
10
-1570.0379848565331
20
-586.37516177985776
30
0
11
-1570.0298877011223
21
-586.37771480315212
31
0
0
LINE
5
239
100
AcDbEntity
8
0
100
AcDbLine
10
-1585.0416854751277
20
-650.72252438467012
30
0
11
-1590.6259280092706
21
-649.86302725269695
31
0
0
ARC
5
240
100
AcDbEntity
8
0
100
AcDbCircle
10
-1120.9415241212664
20
-725.01263716100243
30
0
40
470.00000000000006
100
AcDbArc
50
162.84438628032058
51
170.90545426846941
0
LINE
5
241
100
AcDbEntity
8
0
100
AcDbLine
10
-1605.9415241212671
20
-708.18763716100239
30
0
11
-1565.9415241212671
21
-708.18763716100216
31
0
0
LINE
5
242
100
AcDbEntity
8
0
100
AcDbLine
10
-1605.9415241212671
20
-708.18763716100239
30
0
11
-1607.7372265556974
21
-708.18763716100239
31
0
0
LINE
5
243
100
AcDbEntity
8
0
100
AcDbLine
10
-1615.2915241212668
20
-708.18763716100239
30
0
11
-1596.5915241212667
21
-708.18763716100239
31
0
0
ARC
5
244
100
AcDbEntity
8
0
100
AcDbCircle
10
-883.18249617237143
20
-599.09014558760816
30
0
40
122.49999999992426
100
AcDbArc
50
145.20318341609533
51
163.57169322522103
0
LINE
5
245
100
AcDbEntity
8
0
100
AcDbLine
10
-1732.4114987236526
20
-576.35872517606504
30
0
11
-1714.5769917446612
21
-581.98192362679492
31
0
0
LINE
5
246
100
AcDbEntity
8
0
100
AcDbLine
10
-1615.2915241212668
20
-725.01263716100243
30
0
11
-1596.5915241212667
21
-725.01263716100243
31
0
0
LINE
5
247
100
AcDbEntity
8
0
100
AcDbLine
10
-1605.9086132108248
20
-719.36263716100245
30
0
11
-1563.4086132108248
21
-719.36263716100245
31
0
0
LINE
5
248
100
AcDbEntity
8
0
100
AcDbLine
10
-1038.5641845521627
20
-850.16655532012442
30
0
11
-1038.5641845521627
21
-850.33804794161438
31
0
0
LINE
5
249
100
AcDbEntity
8
0
100
AcDbLine
10
-1730.9415241212664
20
-719.36263716100245
30
0
11
-1730.9075627878924
21
-719.36263716100393
31
0
0
ARC
5
250
100
AcDbEntity
8
0
100
AcDbCircle
10
-1820.9415241212664
20
-725.01263716100243
30
0
40
151.50000000000003
100
AcDbArc
50
97.452428449321843
51
111.4315514286275
0
LINE
5
251
100
AcDbEntity
8
0
100
AcDbLine
10
-1755.2915241212668
20
-725.01263716100243
30
0
11
-1736.5915241212667
21
-725.01263716100243
31
0
0
LINE
5
252
100
AcDbEntity
8
0
100
AcDbLine
10
-1820.9415241212671
20
-567.86263716100234
30
0
11
-1826.5915241212667
21
-567.86263716100234
31
0
0
LINE
5
253
100
AcDbEntity
8
0
100
AcDbLine
10
-1060.9673265818201
20
-792.37606042997697
30
0
11
-1063.032413824762
21
-786.70227986079135
31
0
0
LINE
5
254
100
AcDbEntity
8
0
100
AcDbLine
10
-1314.9069955243276
20
-773.43130472771895
30
0
11
-1315.9920393903508
21
-768.48061620698002
31
0
0
ARC
5
255
100
AcDbEntity
8
0
100
AcDbCircle
10
-1258.3599996976945
20
-755.8493850372231
30
0
40
58.999999999998131
100
AcDbArc
50
151.52504074726113
51
192.36206672045006
0
LINE
5
256
100
AcDbEntity
8
0
100
AcDbLine
10
-1876.3081044452333
20
-583.96380728911117
30
0
11
-1878.4702658380961
21
-578.74388793042249
31
0
0
ARC
5
257
100
AcDbEntity
8
0
100
AcDbCircle
10
-1020.7462458894108
20
-771.31137341113572
30
0
40
44.999999999985846
100
AcDbArc
50
160.34930068441699
51
200.00000000000702
0
ARC
5
258
100
AcDbEntity
8
0
100
AcDbCircle
10
-1157.6668171087774
20
-629.44834074935659
30
0
40
39.999999999999979
100
AcDbArc
50
93.701676503612745
51
113.17727070973194
0
LINE
5
259
100
AcDbEntity
8
0
100
AcDbLine
10
-1834.9415241212673
20
-573.51263716100232
30
0
11
-1834.9415241212673
21
-568.51088874554648
31
0
0
LINE
5
260
100
AcDbEntity
8
0
100
AcDbLine
10
-1665.8893372155296
20
-441.46512585086282
30
0
11
-1650.5711939873254
21
-452.19100521062734
31
0
0
LINE
5
261
100
AcDbEntity
8
0
100
AcDbLine
10
-1887.7886074161859
20
-556.24742131377252
30
0
11
-1885.6264460233233
21
-561.46734067246121
31
0
0
ARC
5
262
100
AcDbEntity
8
0
100
AcDbCircle
10
-1131.969058610935
20
-589.70634215969585
30
0
40
1.9999999999997442
100
AcDbArc
50
0
51
93.701676503617279
0
LINE
5
263
100
AcDbEntity
8
0
100
AcDbLine
10
-1060.2488713340917
20
-794.35000000000002
30
0
11
-1035.8296441362127
21
-794.35000000000002
31
0
0
LINE
5
264
100
AcDbEntity
8
0
100
AcDbLine
10
-1730.622266481603
20
-707.69212169975845
30
0
11
-1760.6018883343907
21
-706.58655688308318
31
0
0
LINE
5
265
100
AcDbEntity
8
0
100
AcDbLine
10
-979.60308329709869
20
-523.17690329477853
30
0
11
-983.77715854590235
21
-529.18332258772671
31
0
0
LINE
5
266
100
AcDbEntity
8
0
100
AcDbLine
10
-1930.0657781278805
20
-611.89322984068463
30
0
11
-1934.0609314415838
21
-615.88838315438863
31
0
0
LINE
5
267
100
AcDbEntity
8
0
100
AcDbLine
10
-1978.0915241212665
20
-725.01263716100254
30
0
11
-1978.0915241212665
21
-719.36263716100268
31
0
0
LINE
5
268
100
AcDbEntity
8
0
100
AcDbLine
10
-1978.0915241212665
20
-708.18763716100295
30
0
11
-1965.9415367127483
21
-708.1876371610025
31
0
0
LINE
5
269
100
AcDbEntity
8
0
100
AcDbLine
10
-1820.9415241212671
20
-549.16263716100229
30
0
11
-1826.5915241212667
21
-549.16263716100229
31
0
0
ARC
5
270
100
AcDbEntity
8
0
100
AcDbCircle
10
-1058.1482487194628
20
-791.35000000000036
30
0
40
2.9999999999996034
100
AcDbArc
50
199.99999999999574
51
270.00000000000432
0
LINE
5
271
100
AcDbEntity
8
0
100
AcDbLine
10
-1657.5912147664658
20
-472.4845290006084
30
0
11
-1657.4146727763209
21
-472.60613487639944
31
0
0
LINE
5
272
100
AcDbEntity
8
0
100
AcDbLine
10
-1834.9415241212671
20
-574.16088874554657
30
0
11
-1834.9415241212673
21
-568.51088874554648
31
0
0
LINE
5
273
100
AcDbEntity
8
0
100
AcDbLine
10
-1132.0981816264216
20
-587.71051470050247
30
0
11
-1138.3190586109356
21
-588.1129835569709
31
0
0
LINE
5
274
100
AcDbEntity
8
0
100
AcDbLine
10
-1749.5380368210044
20
-649.81044119801697
30
0
11
-1731.0556765752567
21
-652.65514851976855
31
0
0
ARC
5
275
100
AcDbEntity
8
0
100
AcDbCircle
10
-1820.9415241212664
20
-725.01263716100243
30
0
40
181.50000000000003
100
AcDbArc
50
96.215279106417285
51
111.60817017489434
0
LINE
5
276
100
AcDbEntity
8
0
100
AcDbLine
10
-1300.1690586109353
20
-773.43130472771895
30
0
11
-1314.9069955243276
21
-773.43130472771895
31
0
0
LINE
5
277
100
AcDbEntity
8
0
100
AcDbLine
10
-1039.6482197686939
20
-768.29456337664715
30
0
11
-1039.6482197686939
21
-768.12307075515707
31
0
0
LINE
5
278
100
AcDbEntity
8
0
100
AcDbLine
10
-1840.5915241212667
20
-549.70338760464517
30
0
11
-1840.5915241212667
21
-544.5794708638939
31
0
0
LINE
5
279
100
AcDbEntity
8
0
100
AcDbLine
10
-1881.5280238039215
20
-586.12596868197375
30
0
11
-1883.6901851967853
21
-580.90604932328495
31
0
0
LINE
5
280
100
AcDbEntity
8
0
100
AcDbLine
10
-1038.5641845521627
20
-770.50954056310502
30
0
11
-1038.5641845521627
21
-770.33804794161483
31
0
0
LINE
5
281
100
AcDbEntity
8
0
100
AcDbLine
10
-1826.5915241212667
20
-567.86263716100234
30
0
11
-1826.5915241212667
21
-573.51263716100232
31
0
0
LINE
5
282
100
AcDbEntity
8
0
100
AcDbLine
10
-971.61368186654261
20
-511.68029817119873
30
0
11
-976.37878915157899
21
-518.53720194599634
31
0
0
LINE
5
283
100
AcDbEntity
8
0
100
AcDbLine
10
-1959.8281926002949
20
-664.42613747834685
30
0
11
-1965.048111958984
21
-662.26397608548427
31
0
0
LINE
5
284
100
AcDbEntity
8
0
100
AcDbLine
10
-1820.9415241212664
20
-725.01263716100243
30
0
11
-1639.4415241212664
21
-725.01263716100243
31
0
0
LINE
5
285
100
AcDbEntity
8
0
100
AcDbLine
10
-1978.0915241212665
20
-708.18763716100295
30
0
11
-1996.7915241212665
21
-708.18763716100295
31
0
0
LINE
5
286
100
AcDbEntity
8
0
100
AcDbLine
10
-1967.2102733518466
20
-667.48389544417296
30
0
11
-1961.9903539931577
21
-669.64605683703564
31
0
0
LINE
5
287
100
AcDbEntity
8
0
100
AcDbLine
10
-1947.283828249773
20
-594.67517971879238
30
0
11
-1943.2886749360687
21
-598.67033303249627
31
0
0
LINE
5
288
100
AcDbEntity
8
0
100
AcDbLine
10
-1876.3081044452333
20
-583.96380728911117
30
0
11
-1878.4702658380961
21
-578.74388793042249
31
0
0
LINE
5
289
100
AcDbEntity
8
0
100
AcDbLine
10
-1987.5242656756225
20
-652.95404838607044
30
0
11
-1982.3043463169336
21
-655.11620977893301
31
0
0
LINE
5
290
100
AcDbEntity
8
0
100
AcDbLine
10
-1978.0915241212665
20
-719.36263716100268
30
0
11
-1972.4415241212664
21
-719.36263716100268
31
0
0
LINE
5
291
100
AcDbEntity
8
0
100
AcDbLine
10
-1959.8281926002949
20
-664.42613747834685
30
0
11
-1959.3840771417999
21
-664.61009612451551
31
0
0
LINE
5
292
100
AcDbEntity
8
0
100
AcDbLine
10
-1930.0658488385584
20
-611.89315913000701
30
0
11
-1930.0657781278805
21
-611.89322984068463
31
0
0
ARC
5
293
100
AcDbEntity
8
0
100
AcDbCircle
10
-1120.9415241212664
20
-725.01263716100243
30
0
40
499.99999999999994
100
AcDbArc
50
171.5737228766051
51
179.35254391205896
0
LINE
5
294
100
AcDbEntity
8
0
100
AcDbLine
10
-1826.5915241212667
20
-549.16263716100229
30
0
11
-1826.5915241212667
21
-543.51263716100232
31
0
0
LINE
5
295
100
AcDbEntity
8
0
100
AcDbLine
10
-1585.9011826071005
20
-656.30676691881285
30
0
11
-1585.8927913158004
21
-656.30805846207295
31
0
0
LINE
5
296
100
AcDbEntity
8
0
100
AcDbLine
10
-1834.9415241212671
20
-544.0533876046452
30
0
11
-1834.9415241212671
21
-549.70338760464517
31
0
0
LINE
5
297
100
AcDbEntity
8
0
100
AcDbLine
10
-1947.283828249773
20
-602.66548634620005
30
0
11
-1951.2789815634769
21
-598.67033303249627
31
0
0
LINE
5
298
100
AcDbEntity
8
0
100
AcDbLine
10
-1943.2886749360687
20
-598.67033303249627
30
0
11
-1947.283828249773
21
-602.66548634620005
31
0
0
LINE
5
299
100
AcDbEntity
8
0
100
AcDbLine
10
-1934.0609314415838
20
-615.88838315438863
30
0
11
-1930.0657781278805
21
-619.88353646809264
31
0
0
LINE
5
300
100
AcDbEntity
8
0
100
AcDbLine
10
-1984.4665077097964
20
-660.33612913762181
30
0
11
-1989.6864270684846
21
-658.17396774475901
31
0
0
LINE
5
301
100
AcDbEntity
8
0
100
AcDbLine
10
-1966.129192655415
20
-664.87393576482862
30
0
11
-1983.3854270133645
21
-657.72616945827735
31
0
0
LINE
5
302
100
AcDbEntity
8
0
100
AcDbLine
10
-1943.2886749360687
20
-598.67033303249627
30
0
11
-1947.283828249773
21
-594.67517971879238
31
0
0
LINE
5
303
100
AcDbEntity
8
0
100
AcDbLine
10
-1834.9415241212673
20
-573.51263716100232
30
0
11
-1834.9415241212673
21
-577.01263495563046
31
0
0
LINE
5
304
100
AcDbEntity
8
0
100
AcDbLine
10
-1590.9415241212664
20
-719.36263716100245
30
0
11
-1596.5915241212667
21
-719.36263716100245
31
0
0
LWPOLYLINE
5
305
100
AcDbEntity
8
0
100
AcDbPolyline
90
15
70
1
43
0.0
10
-122.85495473676517
20
-77.88872059096272
10
-122.85495473676517
20
-72.2387205909627
10
-122.85495473676517
20
-68.538720590962726
10
-132.20495473676516
20
-68.53872059096274
42
0.99999999999999989
10
-82.204954736765131
20
-68.53872059096274
10
-91.554954736765112
20
-68.538720590962726
10
-91.554954736765112
20
-72.2387205909627
10
-91.554954736765112
20
-77.88872059096272
10
-97.204954736765146
20
-77.88872059096272
10
-97.204954736765146
20
-72.2387205909627
10
-97.204954736765146
20
-68.538720590962726
10
-107.20495473676516
20
-68.53872059096274
10
-117.20495473676516
20
-68.538720590962726
10
-117.20495473676516
20
-72.2387205909627
10
-117.20495473676516
20
-77.88872059096272
0
LWPOLYLINE
5
306
100
AcDbEntity
8
0
100
AcDbPolyline
90
8
70
1
43
0.0
10
607.60393425532629
20
-12.727272727272682
42
0.52793009057497731
10
605.74085229787886
20
-10.000000000000004
10
604.66479394838245
20
-9.9999999999999893
42
0.30561468458070762
10
602.81074432660876
20
-11.249999999999961
42
-0.67419986246324493
10
547.18925567339159
20
-11.25
42
0.3056146845807225
10
545.33520605161732
20
-9.9999999999999876
10
544.25914770212114
20
-10.000000000000014
42
0.5279300905750427
10
542.39606574467416
20
-12.727272727272732
42
0.68313005106397151
0
LWPOLYLINE
5
307
100
AcDbEntity
8
0
100
AcDbPolyline
90
15
70
1
43
0.0
10
-56.322426850317058
20
-0.24153440393613451
10
-46.322426850317058
20
-0.24153440393613002
10
-36.322426850317065
20
-0.24153440393613002
10
-36.322426850317065
20
-3.9415344039361253
10
-36.322426850317065
20
-9.5915344039361177
10
-30.672426850317077
20
-9.5915344039361123
10
-30.672426850317077
20
-3.9415344039361249
10
-30.672426850317077
20
-0.24153440393613002
10
-23.822426850317058
20
-0.24153440393612557
42
-0.99999999999999989
10
-68.822426850317058
20
-0.24153440393613002
10
-61.972426850317063
20
-0.24153440393613446
10
-61.972426850317063
20
-3.9415344039361333
10
-61.972426850317063
20
-9.5915344039361283
10
-56.322426850317058
20
-9.591534403936123
10
-56.322426850317058
20
-3.9415344039361297
0
LWPOLYLINE
5
308
100
AcDbEntity
8
0
100
AcDbPolyline
90
15
70
1
43
0.0
10
-131.48730005184004
20
-54.664063349078262
10
-122.13730005184006
20
-54.664063349078262
10
-122.13730005184006
20
-50.964063349078259
10
-122.13730005184006
20
-45.314063349078253
10
-116.48730005184005
20
-45.314063349078253
10
-116.48730005184005
20
-50.964063349078259
10
-116.48730005184005
20
-54.664063349078262
10
-106.48730005184005
20
-54.664063349078262
10
-96.487300051840052
20
-54.664063349078262
10
-96.487300051840052
20
-50.964063349078259
10
-96.487300051840052
20
-45.314063349078253
10
-90.837300051840032
20
-45.314063349078253
10
-90.837300051840032
20
-50.964063349078259
10
-90.837300051840032
20
-54.664063349078262
10
-81.487300051840052
20
-54.664063349078262
42
0.99999999999999989
0
LWPOLYLINE
5
309
100
AcDbEntity
8
0
100
AcDbPolyline
90
15
70
1
43
0.0
10
-68.526195416591037
20
13.579422667776369
10
-61.676195416591071
20
13.57942266777637
10
-61.676195416591071
20
17.27942266777637
10
-61.676195416591071
20
22.929422667776365
10
-56.026195416591051
20
22.929422667776372
10
-56.026195416591051
20
17.27942266777637
10
-56.026195416591051
20
13.57942266777637
10
-46.026195416591051
20
13.57942266777637
10
-36.026195416591037
20
13.579422667776377
10
-36.026195416591037
20
17.279422667776373
10
-36.026195416591037
20
22.929422667776372
10
-30.376195416591028
20
22.929422667776372
10
-30.376195416591028
20
17.279422667776373
10
-30.376195416591028
20
13.579422667776377
10
-23.52619541659104
20
13.579422667776377
42
0.99999999999999989
0
LINE
5
310
100
AcDbEntity
8
0
100
AcDbLine
10
-489.02626126572409
20
72.41007469591392
30
0
11
-494.61050379986688
21
73.269571827886949
31
0
0
LINE
5
311
100
AcDbEntity
8
0
100
AcDbLine
10
-396.64969064519937
20
252.528108160394
30
0
11
-396.47314865505444
21
252.40650228460296
31
0
0
LWPOLYLINE
5
312
100
AcDbEntity
8
0
100
AcDbPolyline
90
15
70
1
43
0.0
10
-226.7438501015161
20
-3.9952345741080988
10
-226.7438501015161
20
-9.6452345741080983
10
-232.39385010151608
20
-9.6452345741080983
10
-232.39385010151608
20
-3.9952345741080988
10
-232.39385010151608
20
-0.29523457410809861
10
-256.74385010151622
20
-0.29523457410808085
42
0.99999999999999989
10
-176.74385010151607
20
-0.29523457410806309
10
-201.09385010151613
20
-0.29523457410809861
10
-201.09385010151613
20
-3.9952345741080997
10
-201.09385010151613
20
-9.6452345741080983
10
-206.7438501015161
20
-9.6452345741080983
10
-206.7438501015161
20
-3.9952345741081001
10
-206.7438501015161
20
-0.29523457410809861
10
-216.7438501015161
20
-0.29523457410809861
10
-226.7438501015161
20
-0.29523457410809861
0
LINE
5
313
100
AcDbEntity
8
0
100
AcDbLine
10
-107.20495473676516
20
-68.53872059096274
30
0
11
-97.204954736765146
21
-68.538720590962726
31
0
0
CIRCLE
5
314
100
AcDbEntity
8
0
100
AcDbCircle
10
575
20
0
30
0
40
4.7499999999999929
0
ARC
5
315
100
AcDbEntity
8
0
100
AcDbCircle
10
0
20
0
30
0
40
500.00000000000006
100
AcDbArc
50
147.36698891092257
51
153.4262771233949
0
ARC
5
316
100
AcDbEntity
8
0
100
AcDbCircle
10
-700
20
0
30
0
40
485
100
AcDbArc
50
145.00000000000003
51
180
0
LINE
5
317
100
AcDbEntity
8
0
100
AcDbLine
10
-447.39747296806712
20
144.02597615287209
30
0
11
-452.78597373979466
21
145.72496392007122
31
0
0
LINE
5
318
100
AcDbEntity
8
0
100
AcDbLine
10
-107.20495473676516
20
-68.53872059096274
30
0
11
-117.20495473676516
21
-68.538720590962726
31
0
0
LINE
5
319
100
AcDbEntity
8
0
100
AcDbLine
10
-442.1195742268157
20
221.17907950459326
30
0
11
-447.18690521647545
21
223.67801060433052
31
0
0
LINE
5
320
100
AcDbEntity
8
0
100
AcDbLine
10
-449.68583631621289
20
218.61067961467086
30
0
11
-444.61850532655319
21
216.11174851493348
31
0
0
LINE
5
321
100
AcDbEntity
8
0
100
AcDbLine
10
-146.5723574800258
20
-3.9952345741080988
30
0
11
-146.74385010151613
21
-3.9952345741080988
31
0
0
LINE
5
322
100
AcDbEntity
8
0
100
AcDbLine
10
-444.61850532655319
20
216.11174851493348
30
0
11
-442.1195742268157
21
221.17907950459326
31
0
0
ARC
5
323
100
AcDbEntity
8
0
100
AcDbCircle
10
0
20
0
30
0
40
470
100
AcDbArc
50
171.59438628032061
51
179.3112149965138
0
LINE
5
324
100
AcDbEntity
8
0
100
AcDbLine
10
-472.31946848598574
20
145.95966159907363
30
0
11
-477.70796925771322
21
147.65864936627275
31
0
0
LINE
5
325
100
AcDbEntity
8
0
100
AcDbLine
10
-388.24216768120976
20
264.95271603475879
30
0
11
-388.21434818554911
21
264.93323661418805
31
0
0
CIRCLE
5
326
100
AcDbEntity
8
0
100
AcDbCircle
10
-106.02619541659108
20
28.579422667776374
30
0
40
5.0000000000000044
0
LWPOLYLINE
5
327
100
AcDbEntity
8
0
100
AcDbPolyline
90
15
70
1
43
0.0
10
-96.743850101516131
20
-0.29523457410809861
10
-106.74385010151613
20
-0.29523457410809861
10
-116.74385010151613
20
-0.29523457410809861
10
-116.74385010151613
20
-3.9952345741080988
10
-116.74385010151613
20
-9.6452345741080983
10
-122.39385010151615
20
-9.6452345741080983
10
-122.39385010151615
20
-3.9952345741080988
10
-122.39385010151615
20
-0.29523457410809861
10
-131.74385010151616
20
-0.29523457410812531
42
0.99999999999999989
10
-81.743850101516117
20
-0.29523457410809861
10
-91.093850101516139
20
-0.29523457410809861
10
-91.093850101516139
20
-3.9952345741080997
10
-91.093850101516139
20
-9.6452345741080983
10
-96.743850101516131
20
-9.6452345741080983
10
-96.743850101516131
20
-3.9952345741080997
0
LWPOLYLINE
5
328
100
AcDbEntity
8
0
100
AcDbPolyline
90
22
70
1
43
0.0
10
108.6136302513043
20
-625.34821743224779
10
102.96363025130432
20
-625.34821743224779
10
102.96363025130432
20
-625.99821743224777
10
96.39220188849194
20
-625.99821743224777
10
96.39220188849194
20
-629.99821808789886
10
88.963630042688067
20
-629.99821808789886
10
88.963630042688067
20
-625.99821743224777
10
82.963630251304323
20
-625.99821743224777
10
82.963630251304323
20
-625.34821743224779
10
77.313630251304346
20
-625.34821743224779
10
77.313630251304346
20
-619.69821743224782
10
77.313630251304346
20
-615.99821743224777
10
77.313630251304346
20
-612.29821743224784
10
77.313630251304346
20
-606.64821743224775
10
82.963630251304465
20
-606.64821743224775
10
82.963630251304323
20
-585.99821743224788
10
102.96363025130432
20
-585.99821743224788
10
102.96363025130432
20
-606.64821743224775
10
108.6136302513043
20
-606.64821743224775
10
108.6136302513043
20
-612.29821743224784
10
108.6136302513043
20
-615.99821743224777
10
108.6136302513043
20
-619.69821743224782
0
LINE
5
329
100
AcDbEntity
8
0
100
AcDbLine
10
-464.9596584858341
20
68.705870242189434
30
0
11
-464.95126719453367
21
68.704578698929424
31
0
0
CIRCLE
5
330
100
AcDbEntity
8
0
100
AcDbCircle
10
-106.48730005184005
20
-39.664063349078262
30
0
40
5.0000000000000044
0
ARC
5
331
100
AcDbEntity
8
0
100
AcDbCircle
10
0
20
0
30
0
40
470.00000000000011
100
AcDbArc
50
162.84438628032058
51
170.90545426846941
0
LINE
5
332
100
AcDbEntity
8
0
100
AcDbLine
10
-404.94781309426315
20
283.54751131013961
30
0
11
-408.18851995964656
21
278.91930225990683
31
0
0
LINE
5
333
100
AcDbEntity
8
0
100
AcDbLine
10
-46.026195416591051
20
13.57942266777637
30
0
11
-56.026195416591051
21
13.57942266777637
31
0
0
LINE
5
334
100
AcDbEntity
8
0
100
AcDbLine
10
-56.322426850317058
20
-0.24153440393613451
30
0
11
-46.322426850317058
21
-0.24153440393613002
31
0
0
LINE
5
335
100
AcDbEntity
8
0
100
AcDbLine
10
-449.09646073526636
20
138.63747538114461
30
0
11
-449.08836357985598
21
138.63492235785034
31
0
0
LINE
5
336
100
AcDbEntity
8
0
100
AcDbLine
10
-422.77965407023214
20
205.34201890810084
30
0
11
-427.84698505989184
21
207.84095000783819
31
0
0
LINE
5
337
100
AcDbEntity
8
0
100
AcDbLine
10
-420.28072297049482
20
210.40934989776053
30
0
11
-420.27310842829149
21
210.4055948211016
31
0
0
LINE
5
338
100
AcDbEntity
8
0
100
AcDbLine
10
-488.1667641337512
20
77.994317230056765
30
0
11
-489.02626126572409
21
72.41007469591392
31
0
0
ARC
5
339
100
AcDbEntity
8
0
100
AcDbCircle
10
0
20
0
30
0
40
500
100
AcDbArc
50
154.0737228766051
51
162.17627712339487
0
LINE
5
340
100
AcDbEntity
8
0
100
AcDbLine
10
-503.95165569104853
20
537.11969343932174
30
0
11
-164.98455158176404
21
537.11969343932174
31
0
0
LWPOLYLINE
5
341
100
AcDbEntity
8
0
100
AcDbPolyline
90
15
70
1
43
0.0
10
-96.026195416591065
20
13.579422667776377
10
-106.02619541659107
20
13.57942266777637
10
-116.02619541659108
20
13.57942266777637
10
-116.02619541659108
20
17.27942266777637
10
-116.02619541659108
20
22.929422667776372
10
-121.67619541659107
20
22.929422667776365
10
-121.67619541659107
20
17.27942266777637
10
-121.67619541659107
20
13.57942266777637
10
-131.02619541659107
20
13.579422667776374
42
-0.99999999999999989
10
-81.026195416591008
20
13.579422667776377
10
-90.376195416591059
20
13.579422667776377
10
-90.376195416591059
20
17.279422667776373
10
-90.376195416591059
20
22.929422667776372
10
-96.026195416591065
20
22.929422667776372
10
-96.026195416591065
20
17.279422667776373
0
LINE
5
342
100
AcDbEntity
8
0
100
AcDbLine
10
53.135122872794796
20
-612.29821743224784
30
0
11
52.963630251304465
21
-612.29821743224784
31
0
0
LINE
5
343
100
AcDbEntity
8
0
100
AcDbLine
10
-476.00898149051403
20
153.04715013800029
30
0
11
-470.6204807187865
21
151.34816237080113
31
0
0
ARC
5
344
100
AcDbEntity
8
0
100
AcDbCircle
10
0
20
0
30
0
40
470.00000000000006
100
AcDbArc
50
154.09438628032058
51
162.15561371967942
0
LINE
5
345
100
AcDbEntity
8
0
100
AcDbLine
10
-470.00000000000006
20
5.6500000000000741
30
0
11
-475.64999999999998
21
5.6500000000000572
31
0
0
LINE
5
346
100
AcDbEntity
8
0
100
AcDbLine
10
-493.75100666789393
20
78.853814362029794
30
0
11
-488.1667641337512
21
77.994317230056765
31
0
0
LINE
5
347
100
AcDbEntity
8
0
100
AcDbLine
10
-464.10016135386115
20
74.290112776332293
30
0
11
-469.684403888004
21
75.149609908305294
31
0
0
ARC
5
348
100
AcDbEntity
8
0
100
AcDbCircle
10
0
20
0
30
0
40
500
100
AcDbArc
50
171.5737228766051
51
179.35254391205896
0
LINE
5
349
100
AcDbEntity
8
0
100
AcDbLine
10
-389.6296698660592
20
272.82163195037504
30
0
11
-392.87037673144255
21
268.19342290014225
31
0
0
LINE
5
350
100
AcDbEntity
8
0
100
AcDbLine
10
-167.04348456496743
20
-4.7840352165315085
30
0
11
-167.21497718645776
21
-4.7840352165315085
31
0
0
LINE
5
351
100
AcDbEntity
8
0
100
AcDbLine
10
-392.87037673144255
20
268.19342290014225
30
0
11
-388.24216768120976
21
264.95271603475879
31
0
0
CIRCLE
5
352
100
AcDbEntity
8
0
100
AcDbCircle
10
98.963630355612509
20
-581.998217432248
30
0
40
1.5000000000000002
0
LINE
5
353
100
AcDbEntity
8
0
100
AcDbLine
10
-475.64999999999998
20
5.6500000000000572
30
0
11
-475.64999999999998
21
5.773159728050814e-14
31
0
0
LINE
5
354
100
AcDbEntity
8
0
100
AcDbLine
10
-452.78597373979466
20
145.72496392007122
30
0
11
-454.48496150699378
21
140.33646314834374
31
0
0
LINE
5
355
100
AcDbEntity
8
0
100
AcDbLine
10
-464.10016135386115
20
74.290112776332293
30
0
11
-464.0915633187916
21
74.29011277633181
31
0
0
ARC
5
356
100
AcDbEntity
8
0
100
AcDbCircle
10
0
20
0
30
0
40
500
100
AcDbArc
50
145.64745608794101
51
146.60449152651563
0
LINE
5
357
100
AcDbEntity
8
0
100
AcDbLine
10
-413.36710894131983
20
271.13114689724443
30
0
11
-416.03423937035217
21
267.32208989130061
31
0
0
LINE
5
358
100
AcDbEntity
8
0
100
AcDbLine
10
-404.94781309426315
20
283.54751131013961
30
0
11
-389.6296698660592
21
272.82163195037504
31
0
0
LINE
5
359
100
AcDbEntity
8
0
100
AcDbLine
10
-494.35000000000008
20
5.6500000000000137
30
0
11
-494.35000000000008
21
1.3322676295501878e-14
31
0
0
LINE
5
360
100
AcDbEntity
8
0
100
AcDbLine
10
-216.7438501015161
20
-0.29523457410809861
30
0
11
-226.7438501015161
21
-0.29523457410809861
31
0
0
LINE
5
361
100
AcDbEntity
8
0
100
AcDbLine
10
-400
20
0
30
0
11
-317.16532883654008
21
0
31
0
0
LINE
5
362
100
AcDbEntity
8
0
100
AcDbLine
10
132.79213762981399
20
-619.69821743224782
30
0
11
132.96363025130432
21
-619.69821743224782
31
0
0
LINE
5
363
100
AcDbEntity
8
0
100
AcDbLine
10
-176.91534272300655
20
-3.9952345741080988
30
0
11
-176.74385010151607
21
-3.9952345741080988
31
0
0
LINE
5
364
100
AcDbEntity
8
0
100
AcDbLine
10
-454.48496150699378
20
140.33646314834374
30
0
11
-449.09646073526636
21
138.63747538114461
31
0
0
LINE
5
365
100
AcDbEntity
8
0
100
AcDbLine
10
-427.84698505989184
20
207.84095000783819
30
0
11
-425.34805396015457
21
212.90828099749788
31
0
0
LINE
5
366
100
AcDbEntity
8
0
100
AcDbLine
10
-470.6204807187865
20
151.34816237080113
30
0
11
-472.31946848598574
21
145.95966159907363
31
0
0
LINE
5
367
100
AcDbEntity
8
0
100
AcDbLine
10
-500.00000000000006
20
5.6500000000000004
30
0
11
-494.35000000000008
21
5.6500000000000137
31
0
0
LINE
5
368
100
AcDbEntity
8
0
100
AcDbLine
10
-422.77965407023214
20
205.34201890810084
30
0
11
-422.77203952802893
21
205.33826383144174
31
0
0
LINE
5
369
100
AcDbEntity
8
0
100
AcDbLine
10
-469.684403888004
20
75.149609908305294
30
0
11
-470.54390101997694
21
69.565367374162435
31
0
0
LINE
5
370
100
AcDbEntity
8
0
100
AcDbLine
10
-447.39747296806712
20
144.02597615287209
30
0
11
-447.38937581265668
21
144.02342312957811
31
0
0
LINE
5
371
100
AcDbEntity
8
0
100
AcDbLine
10
-425.34805396015457
20
212.90828099749788
30
0
11
-420.28072297049482
21
210.40934989776053
31
0
0
ARC
5
372
100
AcDbEntity
8
0
100
AcDbCircle
10
0
20
0
30
0
40
470.00000000000006
100
AcDbArc
50
145.68878500348697
51
146.70693527706933
0
ARC
5
373
100
AcDbEntity
8
0
100
AcDbCircle
10
0
20
0
30
0
40
470.00000000000006
100
AcDbArc
50
147.51796681059136
51
153.40561371967945
0
LINE
5
374
100
AcDbEntity
8
0
100
AcDbLine
10
102.96363025130432
20
-614.91418221571632
30
0
11
102.97832210381941
21
-614.91418221571632
31
0
0
LINE
5
375
100
AcDbEntity
8
0
100
AcDbLine
10
-470.54390101997694
20
69.565367374162435
30
0
11
-464.9596584858341
21
68.705870242189434
31
0
0
LWPOLYLINE
5
376
100
AcDbEntity
8
0
100
AcDbPolyline
90
20
70
1
43
0.0
10
384.35000000000002
20
9.3500000000000032
10
384.35000000000002
20
3.7000000000000033
10
384.35000000000002
20
2.2204460492503131e-15
10
384.35000000000002
20
-3.7000000000000011
10
384.35000000000002
20
-9.3500000000000014
10
390
20
-9.3500000000000014
10
390
20
-10
10
395.99999979138374
20
-10
10
403.4285716371877
20
-10
10
410
20
-10
10
410
20
-9.3500000000000014
10
415.64999999999998
20
-9.3500000000000014
10
415.64999999999998
20
-3.7000000000000011
10
415.64999999999998
20
-5.5511151231257827e-16
10
415.64999999999998
20
3.6999999999999988
10
415.64999999999998
20
9.3499999999999979
10
410
20
9.3500000000000014
10
410
20
29.999999999999929
10
390
20
29.999999999999929
10
390
20
9.3500000000000032
0
LWPOLYLINE
5
377
100
AcDbEntity
8
0
100
AcDbPolyline
90
16
70
1
43
0.0
10
284.97960618915988
20
-14.409899031995597
10
284.97960618915988
20
-18.109899031995607
10
284.97960618915988
20
-23.759899031995594
10
279.32960618915985
20
-23.759899031995594
10
279.32960618915985
20
-24.4098990319956
10
272.75817782634749
20
-24.4098990319956
10
272.75817782634749
20
-28.409899687646689
10
265.32960598054365
20
-28.409899687646689
10
265.32960598054359
20
-24.4098990319956
10
259.32960618915985
20
-24.4098990319956
10
259.32960618915985
20
-23.759899031995594
10
253.6796061891599
20
-23.759899031995594
10
253.6796061891599
20
-18.109899031995607
10
253.6796061891599
20
-14.409899031995597
10
229.32960618915988
20
-14.409899031995588
42
0.99999999999999989
10
309.32960618915973
20
-14.409899031995597
0
LINE
5
378
100
AcDbEntity
8
0
100
AcDbLine
10
229.02997172570855
20
-18.898699674419007
30
0
11
228.8584791042183
21
-18.898699674419007
31
0
0
LINE
5
379
100
AcDbEntity
8
0
100
AcDbLine
10
-408.18851995964656
20
278.91930225990683
30
0
11
-412.8167290098794
21
282.16000912529017
31
0
0
LWPOLYLINE
5
380
100
AcDbEntity
8
0
100
AcDbPolyline
90
12
70
1
43
0.0
10
309.32960618915979
20
85.590100968004435
10
284.97960618915988
20
85.590100968004407
10
284.97960618915988
20
89.290100968004381
10
284.97960618915988
20
94.940100968004401
10
279.32960618915985
20
94.940100968004401
10
279.32960618915985
20
115.59010096800436
10
259.32960618915985
20
115.59010096800436
10
259.3296061891599
20
94.940100968004401
10
253.6796061891599
20
94.940100968004401
10
253.6796061891599
20
89.290100968004381
10
253.6796061891599
20
85.590100968004407
10
229.32960618915988
20
85.590100968004407
42
-0.99999999999999989
0
LINE
5
381
100
AcDbEntity
8
0
100
AcDbLine
10
229.50109881065018
20
81.890100968004433
30
0
11
229.32960618915985
21
81.890100968004433
31
0
0
CIRCLE
5
382
100
AcDbEntity
8
0
100
AcDbCircle
10
86.463629997984555
20
-629.99821808789886
30
0
40
1.5000000000000002
0
LINE
5
383
100
AcDbEntity
8
0
100
AcDbLine
10
309.15811356766949
20
-10.709899031995587
30
0
11
309.32960618915973
21
-10.709899031995587
31
0
0
LINE
5
384
100
AcDbEntity
8
0
100
AcDbLine
10
-396.64969064519937
20
252.528108160394
30
0
11
-396.47314865505444
21
252.40650228460296
31
0
0
ARC
5
385
100
AcDbEntity
8
0
100
AcDbCircle
10
0
20
0
30
0
40
485
100
AcDbArc
50
145.00000000000003
51
180
0
ARC
5
386
100
AcDbEntity
8
0
100
AcDbCircle
10
0
20
0
30
0
40
500.00000000000006
100
AcDbArc
50
162.8237228766051
51
170.92627712339495
0
LINE
5
387
100
AcDbEntity
8
0
100
AcDbLine
10
319.02997172570849
20
-18.898699674419007
30
0
11
318.85847910421825
21
-18.898699674419007
31
0
0
LINE
5
388
100
AcDbEntity
8
0
100
AcDbLine
10
-256.5723574800258
20
-3.9952345741080988
30
0
11
-256.74385010151616
21
-3.9952345741080988
31
0
0
CIRCLE
5
389
100
AcDbEntity
8
0
100
AcDbCircle
10
400
20
0
30
0
40
42.499999999999993
0
LINE
5
390
100
AcDbEntity
8
0
100
AcDbLine
10
279.32960618915985
20
86.674136184535925
30
0
11
279.34429804167502
21
86.674136184535925
31
0
0
CIRCLE
5
391
100
AcDbEntity
8
0
100
AcDbCircle
10
98.963630355612366
20
-629.99821808789886
30
0
40
1.5000000000000002
0
LINE
5
392
100
AcDbEntity
8
0
100
AcDbLine
10
532.95651543503254
20
-4.7840352165315085
30
0
11
532.78502281354224
21
-4.7840352165315085
31
0
0
LINE
5
393
100
AcDbEntity
8
0
100
AcDbLine
10
229.50109881065018
20
89.290100968004381
30
0
11
229.32960618915988
21
89.290100968004381
31
0
0
CIRCLE
5
394
100
AcDbEntity
8
0
100
AcDbCircle
10
86.463629997984697
20
-581.998217432248
30
0
40
1.5000000000000002
0
LINE
5
395
100
AcDbEntity
8
0
100
AcDbLine
10
53.135122872794796
20
-619.69821743224782
30
0
11
52.963630251304465
21
-619.69821743224782
31
0
0
LINE
5
396
100
AcDbEntity
8
0
100
AcDbLine
10
-216.7438501015161
20
-0.29523457410809861
30
0
11
-206.7438501015161
21
-0.29523457410809861
31
0
0
LINE
5
397
100
AcDbEntity
8
0
100
AcDbLine
10
129.62924065261117
20
-9.9210983895721938
30
0
11
129.8007332741015
21
-9.9210983895721938
31
0
0
LINE
5
398
100
AcDbEntity
8
0
100
AcDbLine
10
-470.00000000000006
20
5.6500000000000741
30
0
11
-469.96603866662548
21
5.6499999999939856
31
0
0
LINE
5
399
100
AcDbEntity
8
0
100
AcDbLine
10
-494.35000000000008
20
1.3322676295501878e-14
30
0
11
-475.64999999999998
21
5.773159728050814e-14
31
0
0
LWPOLYLINE
5
400
100
AcDbEntity
8
0
100
AcDbPolyline
90
8
70
1
43
0.0
10
568.54024829796856
20
0.72222430594639064
10
571.32291869838787
20
25.611112297239401
42
-0.89442719100003232
10
578.67709782438715
20
25.611109924999624
10
581.4597521679666
20
0.72222013849709144
42
-0.055727963385652272
10
581.45975206667663
20
-0.72222104446482138
10
578.67709423247925
20
-25.611110440698539
42
-0.8944271909999022
10
571.32291510648008
20
-25.611111781529399
10
568.54024819667814
20
-0.72222339998057938
42
-0.055728216616099197
0
LWPOLYLINE
5
401
100
AcDbEntity
8
0
100
AcDbPolyline
90
7
70
1
43
0.0
10
590.64999999999998
20
-9.3500000000000014
10
585
20
-9.3500000000000014
10
585
20
9.3500000000000014
10
590.65000000000043
20
9.3499999999999979
10
590.65000000000043
20
3.6999999999999993
10
590.65000000000043
20
-5.5511151231257827e-16
10
590.64999999999998
20
-3.7000000000000011
0
LINE
5
402
100
AcDbEntity
8
0
100
AcDbLine
10
-628.59651269973767
20
75.202195962985343
30
0
11
-610.11415245399053
21
72.357488641233871
31
0
0
LINE
5
403
100
AcDbEntity
8
0
100
AcDbLine
10
284.97960618915988
20
-14.409899031995597
30
0
11
309.32960618915973
21
-14.409899031995597
31
0
0
LINE
5
404
100
AcDbEntity
8
0
100
AcDbLine
10
229.50109881065018
20
-10.709899031995604
30
0
11
229.32960618915988
21
-10.709899031995604
31
0
0
LWPOLYLINE
5
405
100
AcDbEntity
8
0
100
AcDbPolyline
90
7
70
1
43
0.0
10
559.35000000000002
20
9.3500000000000032
10
559.35000000000002
20
3.7000000000000033
10
559.34999999999991
20
0
10
559.34999999999991
20
-3.7000000000000011
10
559.34999999999991
20
-9.3500000000000014
10
565
20
-9.3500000000000014
10
565
20
9.3500000000000032
0
LINE
5
406
100
AcDbEntity
8
0
100
AcDbLine
10
-536.64969064519937
20
252.528108160394
30
0
11
-536.47314865505439
21
252.40650228460296
31
0
0
LINE
5
407
100
AcDbEntity
8
0
100
AcDbLine
10
439.82850737850981
20
-3.7000000000000011
30
0
11
440
21
-3.7000000000000011
31
0
0
LINE
5
408
100
AcDbEntity
8
0
100
AcDbLine
10
624.70036553654847
20
-4.4888006424234108
30
0
11
624.5288729150584
21
-4.4888006424234108
31
0
0
LINE
5
409
100
AcDbEntity
8
0
100
AcDbLine
10
279.32960618915985
20
-13.325863815464089
30
0
11
279.34429804167502
21
-13.325863815464089
31
0
0
CIRCLE
5
410
100
AcDbEntity
8
0
100
AcDbCircle
10
575
20
0
30
0
40
42.499999999999993
0
CIRCLE
5
411
100
AcDbEntity
8
0
100
AcDbCircle
10
274.3296062934678
20
-28.409899687646689
30
0
40
1
0
CIRCLE
5
412
100
AcDbEntity
8
0
100
AcDbCircle
10
263.82960593584005
20
-28.409899687646689
30
0
40
1
0
LINE
5
413
100
AcDbEntity
8
0
100
AcDbLine
10
449.70036553654887
20
-4.4888006424234108
30
0
11
449.52887291505829
21
-4.4888006424234108
31
0
0
LINE
5
414
100
AcDbEntity
8
0
100
AcDbLine
10
614.8285073785097
20
-3.7000000000000011
30
0
11
615
21
-3.7000000000000011
31
0
0
LINE
5
415
100
AcDbEntity
8
0
100
AcDbLine
10
-611.46997460238606
20
148.65391198493739
30
0
11
-593.63546762339422
21
143.03071353420748
31
0
0
LINE
5
416
100
AcDbEntity
8
0
100
AcDbLine
10
309.15811356766949
20
89.290100968004381
30
0
11
309.32960618915973
21
89.290100968004381
31
0
0
CIRCLE
5
417
100
AcDbEntity
8
0
100
AcDbCircle
10
274.32960629346792
20
119.59010096800428
30
0
40
1
0
LINE
5
418
100
AcDbEntity
8
0
100
AcDbLine
10
229.50109881065018
20
-18.109899031995607
30
0
11
229.32960618915985
21
-18.109899031995607
31
0
0
LINE
5
419
100
AcDbEntity
8
0
100
AcDbLine
10
309.32960618915979
20
85.590100968004435
30
0
11
284.97960618915988
21
85.590100968004407
31
0
0
ARC
5
420
100
AcDbEntity
8
0
100
AcDbCircle
10
-140
20
0
30
0
40
485
100
AcDbArc
50
145.00000000000003
51
180
0
LINE
5
421
100
AcDbEntity
8
0
100
AcDbLine
10
-443.36903977668442
20
218.64541400976339
30
0
11
-426.59751951002318
21
210.37461550266809
31
0
0
LINE
5
422
100
AcDbEntity
8
0
100
AcDbLine
10
-536.64969064519937
20
252.528108160394
30
0
11
-536.47314865505439
21
252.40650228460296
31
0
0
LINE
5
423
100
AcDbEntity
8
0
100
AcDbLine
10
-634.35000000000014
20
1.3322676295501878e-14
30
0
11
-615.64999999999998
21
5.773159728050814e-14
31
0
0
LINE
5
424
100
AcDbEntity
8
0
100
AcDbLine
10
132.79213762981399
20
-612.29821743224784
30
0
11
132.96363025130432
21
-612.29821743224784
31
0
0
LINE
5
425
100
AcDbEntity
8
0
100
AcDbLine
10
219.6292406526112
20
90.078901610427806
30
0
11
219.8007332741015
21
90.078901610427806
31
0
0
LINE
5
426
100
AcDbEntity
8
0
100
AcDbLine
10
-610.00000000000011
20
5.6500000000000741
30
0
11
-609.96603866662565
21
5.6499999999983697
31
0
0
CIRCLE
5
427
100
AcDbEntity
8
0
100
AcDbCircle
10
263.82960593584016
20
119.59010096800428
30
0
40
1
0
LINE
5
428
100
AcDbEntity
8
0
100
AcDbLine
10
-544.94781309426321
20
283.54751131013961
30
0
11
-529.62966986605909
21
272.82163195037504
31
0
0
LINE
5
429
100
AcDbEntity
8
0
100
AcDbLine
10
-488.59651269973767
20
75.202195962985343
30
0
11
-470.11415245399053
21
72.357488641233871
31
0
0
LINE
5
430
100
AcDbEntity
8
0
100
AcDbLine
10
253.6796061891599
20
-14.409899031995597
30
0
11
229.32960618915985
21
-14.409899031995588
31
0
0
LINE
5
431
100
AcDbEntity
8
0
100
AcDbLine
10
253.6796061891599
20
85.590100968004407
30
0
11
229.32960618915988
21
85.590100968004407
31
0
0
LINE
5
432
100
AcDbEntity
8
0
100
AcDbLine
10
-554.98746237401156
20
268.81704237212818
30
0
11
-539.65754626274042
21
258.08291955089373
31
0
0
LINE
5
433
100
AcDbEntity
8
0
100
AcDbLine
10
309.15811356766949
20
-18.109899031995607
30
0
11
309.32960618915973
21
-18.109899031995607
31
0
0
LINE
5
434
100
AcDbEntity
8
0
100
AcDbLine
10
-400.70432325053434
20
256.58796708227266
30
0
11
-397.46361638515083
21
261.21617613250544
31
0
0
LINE
5
435
100
AcDbEntity
8
0
100
AcDbLine
10
-392.83540733491805
20
257.97546926712209
30
0
11
-397.46361638515083
21
261.21617613250544
31
0
0
LINE
5
436
100
AcDbEntity
8
0
100
AcDbLine
10
-417.42174155520166
20
275.19100580691691
30
0
11
-412.79353250496882
21
271.95029894153345
31
0
0
LINE
5
437
100
AcDbEntity
8
0
100
AcDbLine
10
-400.70432325053434
20
256.58796708227266
30
0
11
-395.93647967365257
21
253.24948706873528
31
0
0
ARC
5
438
100
AcDbEntity
8
0
100
AcDbCircle
10
-1120.9415241212664
20
-725.01263716100243
30
0
40
499.99999999999989
100
AcDbArc
50
145.64745608794101
51
146.60449152651563
0
LINE
5
439
100
AcDbEntity
8
0
100
AcDbLine
10
-471.46997460238617
20
148.65391198493739
30
0
11
-453.63546762339422
21
143.03071353420748
31
0
0
LINE
5
440
100
AcDbEntity
8
0
100
AcDbLine
10
-609.68074236033681
20
17.320515461243893
30
0
11
-639.66036421312401
21
18.426080277919041
31
0
0
LINE
5
441
100
AcDbEntity
8
0
100
AcDbLine
10
-857.15000000000032
20
-3.1086244689504383e-13
30
0
11
-875.85000000000025
21
-3.5527136788005009e-13
31
0
0
LINE
5
442
100
AcDbEntity
8
0
100
AcDbLine
10
-417.42174155520166
20
275.19100580691691
30
0
11
-417.44550697184337
21
275.207646530798
31
0
0
LINE
5
443
100
AcDbEntity
8
0
100
AcDbLine
10
-1534.3086330625863
20
-453.881490263758
30
0
11
-1536.9757634916186
21
-457.69054726970182
31
0
0
LINE
5
444
100
AcDbEntity
8
0
100
AcDbLine
10
-1521.645847371801
20
-468.42467007872983
30
0
11
-1518.4051405064176
21
-463.79646102849688
31
0
0
LINE
5
445
100
AcDbEntity
8
0
100
AcDbLine
10
360.1714926214903
20
-3.7000000000000011
30
0
11
360
21
-3.7000000000000011
31
0
0
LINE
5
446
100
AcDbEntity
8
0
100
AcDbLine
10
-421.07092161391853
20
269.62803817705105
30
0
11
-420.53120504654089
21
270.4708991568383
31
0
0
LINE
5
447
100
AcDbEntity
8
0
100
AcDbLine
10
-416.03423937035217
20
267.32208989130061
30
0
11
-420.53120504654089
21
270.4708991568383
31
0
0
LINE
5
448
100
AcDbEntity
8
0
100
AcDbLine
10
-1543.7211781914989
20
-519.67061825290159
30
0
11
-1543.7135636492953
21
-519.67437332956081
31
0
0
LINE
5
449
100
AcDbEntity
8
0
100
AcDbLine
10
535.1714926214903
20
-3.7000000000000011
30
0
11
535
21
-3.7000000000000011
31
0
0
LINE
5
450
100
AcDbEntity
8
0
100
AcDbLine
10
-396.47314865505444
20
252.40650228460296
30
0
11
-395.93647967365257
21
253.24948706873528
31
0
0
LINE
5
451
100
AcDbEntity
8
0
100
AcDbLine
10
-1510.5711939873254
20
-452.19100521062734
30
0
11
-1513.811900852709
21
-456.81921426086006
31
0
0
LINE
5
452
100
AcDbEntity
8
0
100
AcDbLine
10
-1536.9757634916186
20
-457.69054726970182
30
0
11
-1541.4727291678073
21
-454.54173800416413
31
0
0
LINE
5
453
100
AcDbEntity
8
0
100
AcDbLine
10
-700.00000000000045
20
157.15000000000003
30
0
11
-700.00000000000011
21
175.85000000000005
31
0
0
LINE
5
454
100
AcDbEntity
8
0
100
AcDbLine
10
-412.79353250496882
20
271.95029894153345
30
0
11
-416.03423937035217
21
267.32208989130061
31
0
0
ARC
5
455
100
AcDbEntity
8
0
100
AcDbCircle
10
-700
20
0
30
0
40
166.50000000000003
100
AcDbArc
50
90.000000000000043
51
180
0
LINE
5
456
100
AcDbEntity
8
0
100
AcDbLine
10
-412.97788320317778
20
272.07938269009378
30
0
11
-397.65973997497383
21
261.3535033303292
31
0
0
LINE
5
457
100
AcDbEntity
8
0
100
AcDbLine
10
-1543.7211781914989
20
-519.67061825290159
30
0
11
-1548.7885091811586
21
-517.17168715316438
31
0
0
LINE
5
458
100
AcDbEntity
8
0
100
AcDbLine
10
-583.3690397766843
20
218.64541400976339
30
0
11
-566.5975195100234
21
210.37461550266809
31
0
0
LINE
5
459
100
AcDbEntity
8
0
100
AcDbLine
10
-1538.3632656764678
20
-449.82163135408547
30
0
11
-1538.3870310931097
21
-449.80499063020443
31
0
0
LINE
5
460
100
AcDbEntity
8
0
100
AcDbLine
10
-1533.7350566262353
20
-453.06233821946898
30
0
11
-1536.9757634916186
21
-457.69054726970182
31
0
0
LINE
5
461
100
AcDbEntity
8
0
100
AcDbLine
10
-1315.591524121267
20
-568.51088874554648
30
0
11
-1315.591524121267
21
-574.16088874554646
31
0
0
LINE
5
462
100
AcDbEntity
8
0
100
AcDbLine
10
-1295.9415241212671
20
-567.86263716100234
30
0
11
-1301.5915241212667
21
-567.86263716100234
31
0
0
LINE
5
463
100
AcDbEntity
8
0
100
AcDbLine
10
-1309.9415241212673
20
-573.51263716100232
30
0
11
-1309.9415241212673
21
-568.51088874554648
31
0
0
LINE
5
464
100
AcDbEntity
8
0
100
AcDbLine
10
-1533.9194073244446
20
-452.93325447090876
30
0
11
-1518.6012640962406
21
-463.65913383067323
31
0
0
LINE
5
465
100
AcDbEntity
8
0
100
AcDbLine
10
-1517.5912147664658
20
-472.4845290006084
30
0
11
-1517.4146727763209
21
-472.60613487639944
31
0
0
LINE
5
466
100
AcDbEntity
8
0
100
AcDbLine
10
-1309.9415241212669
20
-549.70338760464517
30
0
11
-1309.9415241212669
21
-544.0533876046452
31
0
0
LINE
5
467
100
AcDbEntity
8
0
100
AcDbLine
10
-1570.6273604374792
20
-506.40195754633169
30
0
11
-1565.5600294478197
21
-508.90088864606895
31
0
0
LINE
5
468
100
AcDbEntity
8
0
100
AcDbLine
10
-1529.1300440809132
20
-446.09333490109572
30
0
11
-1533.7582531311459
21
-442.8526280357122
31
0
0
LINE
5
469
100
AcDbEntity
8
0
100
AcDbLine
10
-1535.355410058927
20
-455.37644274458535
30
0
11
-1520.0254939391089
21
-466.11056555361336
31
0
0
LINE
5
470
100
AcDbEntity
8
0
100
AcDbLine
10
-1563.0610983480824
20
-503.83355765640914
30
0
11
-1568.1284293377421
21
-501.33462655667188
31
0
0
LINE
5
471
100
AcDbEntity
8
0
100
AcDbLine
10
-1309.9415241212673
20
-574.16088874554646
30
0
11
-1309.9415241212673
21
-568.51088874554648
31
0
0
LINE
5
472
100
AcDbEntity
8
0
100
AcDbLine
10
-1309.9415241212669
20
-544.0533876046452
30
0
11
-1309.9415241212669
21
-549.70338760464517
31
0
0
LINE
5
473
100
AcDbEntity
8
0
100
AcDbLine
10
-1520.9415241212664
20
-725.01263716100243
30
0
11
-1438.1068529578067
21
-725.01263716100243
31
0
0
LINE
5
474
100
AcDbEntity
8
0
100
AcDbLine
10
-1422.283828249773
20
-594.67517971879238
30
0
11
-1418.2886749360694
21
-598.67033303249627
31
0
0
LINE
5
475
100
AcDbEntity
8
0
100
AcDbLine
10
-1517.4146727763209
20
-472.60613487639944
30
0
11
-1516.8780037949184
21
-471.76315009226721
31
0
0
LINE
5
476
100
AcDbEntity
8
0
100
AcDbLine
10
-1309.9415241212669
20
-549.70338760464517
30
0
11
-1315.5915241212667
21
-549.70338760464517
31
0
0
LINE
5
477
100
AcDbEntity
8
0
100
AcDbLine
10
-1542.0124457351847
20
-455.38459898395132
30
0
11
-1541.4727291678073
21
-454.54173800416413
31
0
0
LINE
5
478
100
AcDbEntity
8
0
100
AcDbLine
10
-1315.5915241212667
20
-549.70338760464517
30
0
11
-1315.5915241212667
21
-544.5794708638939
31
0
0
ARC
5
479
100
AcDbEntity
8
0
100
AcDbCircle
10
-1120.9415241212664
20
-725.01263716100243
30
0
40
484.99999999999994
100
AcDbArc
50
145.00000000000003
51
180
0
LINE
5
480
100
AcDbEntity
8
0
100
AcDbLine
10
-1541.2222470917613
20
-514.6032872632419
30
0
11
-1541.2146325495582
21
-514.60704233990077
31
0
0
LINE
5
481
100
AcDbEntity
8
0
100
AcDbLine
10
-1418.2886749360694
20
-598.67033303249627
30
0
11
-1422.283828249773
21
-594.67517971879238
31
0
0
LINE
5
482
100
AcDbEntity
8
0
100
AcDbLine
10
-1513.811900852709
20
-456.81921426086006
30
0
11
-1509.1836918024762
21
-460.05992112624364
31
0
0
LINE
5
483
100
AcDbEntity
8
0
100
AcDbLine
10
-1525.8893372155294
20
-441.46512585086282
30
0
11
-1510.5711939873254
21
-452.19100521062734
31
0
0
ARC
5
484
100
AcDbEntity
8
0
100
AcDbCircle
10
-1120.9415241212664
20
-725.01263716100243
30
0
40
470.00000000000006
100
AcDbArc
50
154.09438628032058
51
162.15561371967945
0
LINE
5
485
100
AcDbEntity
8
0
100
AcDbLine
10
-1525.8893372155294
20
-441.46512585086282
30
0
11
-1529.1300440809132
21
-446.09333490109572
31
0
0
LINE
5
486
100
AcDbEntity
8
0
100
AcDbLine
10
-1360.6264460233233
20
-561.46734067246121
30
0
11
-1362.7886074161861
21
-556.24742131377252
31
0
0
LINE
5
487
100
AcDbEntity
8
0
100
AcDbLine
10
-1301.5915241212667
20
-567.86263716100234
30
0
11
-1301.5915241212667
21
-573.51263716100232
31
0
0
LINE
5
488
100
AcDbEntity
8
0
100
AcDbLine
10
-1546.289578081421
20
-512.10435616350446
30
0
11
-1541.2222470917613
21
-514.6032872632419
31
0
0
ARC
5
489
100
AcDbEntity
8
0
100
AcDbCircle
10
-1295.9415241212664
20
-725.01263716100243
30
0
40
181.5
100
AcDbArc
50
91.783875814978117
51
94.423903476226215
0
LINE
5
490
100
AcDbEntity
8
0
100
AcDbLine
10
-1548.7885091811586
20
-517.17168715316438
30
0
11
-1546.289578081421
21
-512.10435616350446
31
0
0
LINE
5
491
100
AcDbEntity
8
0
100
AcDbLine
10
-1309.9415241212673
20
-568.51088874554648
30
0
11
-1315.591524121267
21
-568.51088874554648
31
0
0
ARC
5
492
100
AcDbEntity
8
0
100
AcDbCircle
10
-1120.9415241212664
20
-725.01263716100243
30
0
40
470.00000000000006
100
AcDbArc
50
147.51796681059133
51
153.40561371967945
0
LINE
5
493
100
AcDbEntity
8
0
100
AcDbLine
10
-1295.9415241212671
20
-549.16263716100229
30
0
11
-1301.5915241212667
21
-549.16263716100229
31
0
0
LINE
5
494
100
AcDbEntity
8
0
100
AcDbLine
10
-1521.645847371801
20
-468.42467007872983
30
0
11
-1516.8780037949184
21
-471.76315009226721
31
0
0
LINE
5
495
100
AcDbEntity
8
0
100
AcDbLine
10
-1565.5600294478197
20
-508.90088864606895
30
0
11
-1563.0610983480824
21
-503.83355765640914
31
0
0
LINE
5
496
100
AcDbEntity
8
0
100
AcDbLine
10
-1513.7769314561845
20
-467.03716789388039
30
0
11
-1518.4051405064176
21
-463.79646102849688
31
0
0
LINE
5
497
100
AcDbEntity
8
0
100
AcDbLine
10
-1295.9415241212671
20
-567.86263716100234
30
0
11
-1295.9415241212671
21
-549.16263716100229
31
0
0
ARC
5
498
100
AcDbEntity
8
0
100
AcDbCircle
10
-1120.9415241212664
20
-725.01263716100243
30
0
40
500
100
AcDbArc
50
147.36698891092257
51
153.4262771233949
0
ARC
5
499
100
AcDbEntity
8
0
100
AcDbCircle
10
-1120.9415241212664
20
-725.01263716100243
30
0
40
500.00000000000006
100
AcDbArc
50
154.0737228766051
51
162.17627712339487
0
ARC
5
500
100
AcDbEntity
8
0
100
AcDbCircle
10
-1295.9415241212664
20
-725.01263716100243
30
0
40
151.50000000000003
100
AcDbArc
50
97.452428449321843
51
111.4315514286275
0
LINE
5
501
100
AcDbEntity
8
0
100
AcDbLine
10
-1315.591524121267
20
-574.16088874554646
30
0
11
-1315.591524121267
21
-575.51263493327872
31
0
0
ARC
5
502
100
AcDbEntity
8
0
100
AcDbCircle
10
-1120.9415241212664
20
-725.01263716100243
30
0
40
470
100
AcDbArc
50
145.68878500348697
51
146.70693527706925
0
ARC
5
503
100
AcDbEntity
8
0
100
AcDbCircle
10
-1295.9415241212664
20
-725.01263716100243
30
0
40
151.5
100
AcDbArc
50
92.137268917604231
51
95.302224194216222
0
LINE
5
504
100
AcDbEntity
8
0
100
AcDbLine
10
-1609.5380368210044
20
-649.81044119801697
30
0
11
-1591.0556765752567
21
-652.65514851976855
31
0
0
LINE
5
505
100
AcDbEntity
8
0
100
AcDbLine
10
-1517.5912147664658
20
-472.4845290006084
30
0
11
-1517.4146727763209
21
-472.60613487639944
31
0
0
LINE
5
506
100
AcDbEntity
8
0
100
AcDbLine
10
-1351.3081044452335
20
-583.96380728911117
30
0
11
-1351.2469246070327
21
-584.11150848423847
31
0
0
LINE
5
507
100
AcDbEntity
8
0
100
AcDbLine
10
-1309.9415241212673
20
-573.51263716100232
30
0
11
-1309.9415241212673
21
-577.01263495563046
31
0
0
LINE
5
508
100
AcDbEntity
8
0
100
AcDbLine
10
-1457.3043463169333
20
-655.11620977893301
30
0
11
-1462.5242656756222
21
-652.95404838607044
31
0
0
LINE
5
509
100
AcDbEntity
8
0
100
AcDbLine
10
-1356.5280238039218
20
-586.12596868197375
30
0
11
-1358.6901851967853
21
-580.90604932328495
31
0
0
LINE
5
510
100
AcDbEntity
8
0
100
AcDbLine
10
-1471.7915241212665
20
-725.012637161003
30
0
11
-1471.7915241212665
21
-719.36263716100268
31
0
0
LINE
5
511
100
AcDbEntity
8
0
100
AcDbLine
10
-1564.3105638979509
20
-506.3672231512391
30
0
11
-1547.5390436312898
21
-514.63802165833431
31
0
0
LINE
5
512
100
AcDbEntity
8
0
100
AcDbLine
10
-1440.0481119589838
20
-662.26397608548427
30
0
11
-1442.2102733518466
21
-667.48389544417296
31
0
0
LINE
5
513
100
AcDbEntity
8
0
100
AcDbLine
10
-1538.3632656764678
20
-449.82163135408547
30
0
11
-1533.7350566262353
21
-453.06233821946898
31
0
0
LINE
5
514
100
AcDbEntity
8
0
100
AcDbLine
10
-1353.4702658380961
20
-578.74388793042249
30
0
11
-1358.6901851967853
21
-580.90604932328495
31
0
0
LINE
5
515
100
AcDbEntity
8
0
100
AcDbLine
10
-1358.6901851967853
20
-580.90604932328495
30
0
11
-1356.5280238039218
21
-586.12596868197375
31
0
0
ARC
5
516
100
AcDbEntity
8
0
100
AcDbCircle
10
-1295.9415241212664
20
-725.01263716100243
30
0
40
151.50000000000006
100
AcDbArc
50
113.56844857137246
51
133.93155142862756
0
ARC
5
517
100
AcDbEntity
8
0
100
AcDbCircle
10
-1295.9415241212664
20
-725.01263716100243
30
0
40
151.5
100
AcDbArc
50
136.06844857137264
51
156.43155142862756
0
LINE
5
518
100
AcDbEntity
8
0
100
AcDbLine
10
-1422.283828249773
20
-602.66548634620005
30
0
11
-1426.2789815634769
21
-598.67033303249627
31
0
0
LINE
5
519
100
AcDbEntity
8
0
100
AcDbLine
10
-1351.3081044452335
20
-583.96380728911117
30
0
11
-1353.4702658380961
21
-578.74388793042249
31
0
0
LINE
5
520
100
AcDbEntity
8
0
100
AcDbLine
10
-1441.129192655415
20
-664.87393576482862
30
0
11
-1458.3854270133645
21
-657.72616945827735
31
0
0
LINE
5
521
100
AcDbEntity
8
0
100
AcDbLine
10
-1365.8463653820118
20
-563.62950206532389
30
0
11
-1368.0085267748746
21
-558.40958270663509
31
0
0
LINE
5
522
100
AcDbEntity
8
0
100
AcDbLine
10
-1407.0633547847324
20
-613.89080649753646
30
0
11
-1424.2814049066249
21
-596.67275637564433
31
0
0
LINE
5
523
100
AcDbEntity
8
0
100
AcDbLine
10
-1459.4665077097964
20
-660.33612913762181
30
0
11
-1464.6864270684846
21
-658.17396774475912
31
0
0
LINE
5
524
100
AcDbEntity
8
0
100
AcDbLine
10
-1351.3081044452335
20
-583.96380728911117
30
0
11
-1353.4702658380961
21
-578.74388793042249
31
0
0
LINE
5
525
100
AcDbEntity
8
0
100
AcDbLine
10
-1312.7665241212667
20
-567.86263716100223
30
0
11
-1312.7665241212667
21
-549.16263716100229
31
0
0
LINE
5
526
100
AcDbEntity
8
0
100
AcDbLine
10
-1301.5915241212667
20
-549.16263716100229
30
0
11
-1301.5915241212667
21
-543.51263716100232
31
0
0
LINE
5
527
100
AcDbEntity
8
0
100
AcDbLine
10
-1301.5915241212667
20
-573.51263716100232
30
0
11
-1301.5915241212667
21
-573.61802860442265
31
0
0
LINE
5
528
100
AcDbEntity
8
0
100
AcDbLine
10
-1453.0915241212665
20
-708.18763716100295
30
0
11
-1471.7915241212665
21
-708.18763716100295
31
0
0
ARC
5
529
100
AcDbEntity
8
0
100
AcDbCircle
10
-1295.9415241212664
20
-725.01263716100243
30
0
40
151.50000000000009
100
AcDbArc
50
158.56844857137247
51
177.86273108239598
0
LINE
5
530
100
AcDbEntity
8
0
100
AcDbLine
10
-1365.8463653820118
20
-563.62950206532389
30
0
11
-1368.0085267748746
21
-558.40958270663509
31
0
0
LINE
5
531
100
AcDbEntity
8
0
100
AcDbLine
10
-1356.0802255174406
20
-579.82496862685366
30
0
11
-1363.2364057026675
21
-562.54842136889249
31
0
0
LINE
5
532
100
AcDbEntity
8
0
100
AcDbLine
10
-1356.5280238039218
20
-586.12596868197375
30
0
11
-1356.4895068056476
21
-586.21895694159036
31
0
0
LINE
5
533
100
AcDbEntity
8
0
100
AcDbLine
10
-1509.1836918024762
20
-460.05992112624364
30
0
11
-1509.1558723068156
21
-460.0794005468145
31
0
0
LINE
5
534
100
AcDbEntity
8
0
100
AcDbLine
10
-1434.8281926002949
20
-664.42613747834685
30
0
11
-1440.0481119589838
21
-662.26397608548427
31
0
0
LINE
5
535
100
AcDbEntity
8
0
100
AcDbLine
10
-1189.0039805129918
20
-615.53600823917736
30
0
11
-1191.1661419058546
21
-610.31608888048879
31
0
0
LINE
5
536
100
AcDbEntity
8
0
100
AcDbLine
10
-1409.0609314415847
20
-615.88838315438863
30
0
11
-1405.0657781278805
21
-619.88353646809264
31
0
0
ARC
5
537
100
AcDbEntity
8
0
100
AcDbCircle
10
-1295.9415241212664
20
-725.01263716100243
30
0
40
166.50000000000006
100
AcDbArc
50
90.000000000000242
51
180
0
ARC
5
538
100
AcDbEntity
8
0
100
AcDbCircle
10
-1295.9415241212664
20
-725.01263716100243
30
0
40
181.4999999999998
100
AcDbArc
50
135.8918298251059
51
156.60817017489441
0
LINE
5
539
100
AcDbEntity
8
0
100
AcDbLine
10
-1405.0657781278805
20
-611.89322984068463
30
0
11
-1409.0609314415847
21
-615.88838315438863
31
0
0
LINE
5
540
100
AcDbEntity
8
0
100
AcDbLine
10
-1422.283828249773
20
-602.66548634620005
30
0
11
-1426.2789815634769
21
-598.67033303249627
31
0
0
LINE
5
541
100
AcDbEntity
8
0
100
AcDbLine
10
-1405.0658488385584
20
-611.89315913000701
30
0
11
-1401.0519989241436
21
-615.90700904442122
31
0
0
LINE
5
542
100
AcDbEntity
8
0
100
AcDbLine
10
-1194.2238998716807
20
-617.69816963204005
30
0
11
-1196.3860612645433
21
-612.47825027335136
31
0
0
LINE
5
543
100
AcDbEntity
8
0
100
AcDbLine
10
-1453.0915241212665
20
-719.36263716100268
30
0
11
-1447.4415241212664
21
-719.36263716100268
31
0
0
LINE
5
544
100
AcDbEntity
8
0
100
AcDbLine
10
-1360.6264460233233
20
-561.46734067246121
30
0
11
-1365.8463653820118
21
-563.62950206532389
31
0
0
LINE
5
545
100
AcDbEntity
8
0
100
AcDbLine
10
-1418.2886749360694
20
-598.67033303249627
30
0
11
-1422.283828249773
21
-602.66548634620005
31
0
0
LINE
5
546
100
AcDbEntity
8
0
100
AcDbLine
10
-1436.9903539931579
20
-669.64605683703564
30
0
11
-1436.7404566622995
21
-669.74956770067809
31
0
0
ARC
5
547
100
AcDbEntity
8
0
100
AcDbCircle
10
-1295.9415241212664
20
-725.01263716100243
30
0
40
181.49999999999994
100
AcDbArc
50
158.39182982510579
51
178.21612418502247
0
LINE
5
548
100
AcDbEntity
8
0
100
AcDbLine
10
-1434.8281926002949
20
-664.42613747834685
30
0
11
-1440.0481119589838
21
-662.26397608548427
31
0
0
LINE
5
549
100
AcDbEntity
8
0
100
AcDbLine
10
-1442.2102733518466
20
-667.48389544417296
30
0
11
-1436.9903539931579
21
-669.64605683703564
31
0
0
LINE
5
550
100
AcDbEntity
8
0
100
AcDbLine
10
-1457.3043463169333
20
-655.11620977893301
30
0
11
-1459.4665077097964
21
-660.33612913762181
31
0
0
ARC
5
551
100
AcDbEntity
8
0
100
AcDbCircle
10
-1295.9415241212664
20
-725.01263716100243
30
0
40
181.50000000000006
100
AcDbArc
50
113.39182982510575
51
134.10817017489438
0
LINE
5
552
100
AcDbEntity
8
0
100
AcDbLine
10
-1447.4415241212664
20
-719.36263716100268
30
0
11
-1447.3361326778463
21
-719.36263716100257
31
0
0
LINE
5
553
100
AcDbEntity
8
0
100
AcDbLine
10
-1453.0915241212665
20
-708.18763716100295
30
0
11
-1440.9415367127474
21
-708.1876371610025
31
0
0
LINE
5
554
100
AcDbEntity
8
0
100
AcDbLine
10
-1409.0609314415847
20
-615.88838315438863
30
0
11
-1404.9501437827578
21
-619.9991708132153
31
0
0
LINE
5
555
100
AcDbEntity
8
0
100
AcDbLine
10
-1462.5242656756222
20
-652.95404838607044
30
0
11
-1457.3043463169333
21
-655.11620977893301
31
0
0
LINE
5
556
100
AcDbEntity
8
0
100
AcDbLine
10
-1453.0915241212665
20
-725.01263716100254
30
0
11
-1453.0915241212665
21
-719.36263716100268
31
0
0
LINE
5
557
100
AcDbEntity
8
0
100
AcDbLine
10
-1453.0915241212665
20
-725.01263716100254
30
0
11
-1471.7915241212665
21
-725.012637161003
31
0
0
LINE
5
558
100
AcDbEntity
8
0
100
AcDbLine
10
-1405.0658488385584
20
-611.89315913000701
30
0
11
-1405.0657781278805
21
-611.89322984068463
31
0
0
LINE
5
559
100
AcDbEntity
8
0
100
AcDbLine
10
-1434.8281926002949
20
-664.42613747834685
30
0
11
-1434.3840771417993
21
-664.61009612451551
31
0
0
ARC
5
560
100
AcDbEntity
8
0
100
AcDbCircle
10
-1295.9415241212664
20
-725.01263716100243
30
0
40
181.50000000000003
100
AcDbArc
50
96.215279106417285
51
111.60817017489434
0
LINE
5
561
100
AcDbEntity
8
0
100
AcDbLine
10
-1471.7915241212665
20
-719.36263716100268
30
0
11
-1477.4415241212664
21
-719.36263716100268
31
0
0
LINE
5
562
100
AcDbEntity
8
0
100
AcDbLine
10
-1362.7886074161861
20
-556.24742131377252
30
0
11
-1360.6264460233233
21
-561.46734067246121
31
0
0
LINE
5
563
100
AcDbEntity
8
0
100
AcDbLine
10
-1189.0039805129918
20
-615.53600823917736
30
0
11
-1194.2238998716807
21
-617.69816963204005
31
0
0
ARC
5
564
100
AcDbEntity
8
0
100
AcDbCircle
10
95.224626069062481
20
0.039589981675058124
30
0
40
22.499999999999964
100
AcDbArc
50
180
51
180.10081511250795
0
LINE
5
565
100
AcDbEntity
8
0
100
AcDbLine
10
72.724626069062523
20
-14.96041001832495
30
0
11
72.724626069062523
21
0.039589981675060879
31
0
0
LINE
5
566
100
AcDbEntity
8
0
100
AcDbLine
10
-1022.3194684859857
20
-654.04033840092643
30
0
11
-1027.816919708951
21
-652.30699868840463
31
0
0
LINE
5
567
100
AcDbEntity
8
0
100
AcDbLine
10
95.685010112470223
20
2.9553555899243285
30
0
11
95.649379128962707
21
2.9157656082492744
31
0
0
LINE
5
568
100
AcDbEntity
8
0
100
AcDbLine
10
107.72462606906245
20
-24.96041001832495
30
0
11
82.724626069062523
21
-24.96041001832495
31
0
0
LINE
5
569
100
AcDbEntity
8
0
100
AcDbLine
10
-1002.7859737397946
20
-654.27503607992878
30
0
11
-997.38937581265668
21
-655.97657687042192
31
0
0
LINE
5
570
100
AcDbEntity
8
0
100
AcDbLine
10
95.188995085554978
20
0
30
0
11
95.224626069062523
21
0.03958998167505369
31
0
0
LINE
5
571
100
AcDbEntity
8
0
100
AcDbLine
10
116.24229500165207
20
6.6694657784212392
30
0
11
116.07080238016178
21
6.6694657784212392
31
0
0
LINE
5
572
100
AcDbEntity
8
0
100
AcDbLine
10
85.224626069062523
20
0
30
0
11
105.22462606906248
21
0
31
0
0
LINE
5
573
100
AcDbEntity
8
0
100
AcDbLine
10
95.613748145455148
20
2.9553555899243285
30
0
11
95.649379128962707
21
2.9157656082492744
31
0
0
LINE
5
574
100
AcDbEntity
8
0
100
AcDbLine
10
-946.64969064519937
20
-547.47189183960597
30
0
11
-946.47314865505439
21
-547.59349771539701
31
0
0
LINE
5
575
100
AcDbEntity
8
0
100
AcDbLine
10
-1004.4849615069938
20
-659.66353685165632
30
0
11
-999.09646073526642
21
-661.36252461885533
31
0
0
LINE
5
576
100
AcDbEntity
8
0
100
AcDbLine
10
-977.84698505989184
20
-592.15904999216161
30
0
11
-975.34805396015463
21
-587.09171900250215
31
0
0
CIRCLE
5
577
100
AcDbEntity
8
0
100
AcDbCircle
10
95.649379128962707
20
16.91576560824927
30
0
40
4.9999999999999929
0
LINE
5
578
100
AcDbEntity
8
0
100
AcDbLine
10
-1014.1001613538613
20
-725.70988722366769
30
0
11
-1019.684403888004
21
-724.85039009169452
31
0
0
LINE
5
579
100
AcDbEntity
8
0
100
AcDbLine
10
-958.18851995964633
20
-521.08069774009311
30
0
11
-971.61368186654261
21
-511.68029817119873
31
0
0
LINE
5
580
100
AcDbEntity
8
0
100
AcDbLine
10
-947.46361638515077
20
-538.78382386749456
30
0
11
-924.92894226870203
21
-554.56277257312217
31
0
0
ARC
5
581
100
AcDbEntity
8
0
100
AcDbCircle
10
-798.88970807057251
20
-721.49903120161071
30
0
40
209.17361927864738
100
AcDbArc
50
143.60307892182408
51
161.73304975937177
0
LINE
5
582
100
AcDbEntity
8
0
100
AcDbLine
10
-1020
20
-794.34999999999991
30
0
11
-1025.6500000000001
21
-794.34999999999991
31
0
0
LINE
5
583
100
AcDbEntity
8
0
100
AcDbLine
10
-1025.6500000000001
20
-794.34999999999991
30
0
11
-1025.6500000000001
21
-800
31
0
0
ARC
5
584
100
AcDbEntity
8
0
100
AcDbCircle
10
-798.88970807057251
20
-721.49903120161071
30
0
40
209.17361927864746
100
AcDbArc
50
124.63186122459078
51
127.05332021838234
0
LINE
5
585
100
AcDbEntity
8
0
100
AcDbLine
10
-966.03423937035234
20
-532.67791010869939
30
0
11
-979.60308329709869
21
-523.17690329477853
31
0
0
LINE
5
586
100
AcDbEntity
8
0
100
AcDbLine
10
-967.42174155520161
20
-524.80899419308321
30
0
11
-962.79353250496911
21
-528.04970105846655
31
0
0
LINE
5
587
100
AcDbEntity
8
0
100
AcDbLine
10
-938.24216768120982
20
-535.04728396524115
30
0
11
-938.21434818554906
21
-535.0667633858119
31
0
0
LINE
5
588
100
AcDbEntity
8
0
100
AcDbLine
10
-994.61850532655365
20
-583.88825148506658
30
0
11
-992.11957422681564
21
-578.82092049540677
31
0
0
LINE
5
589
100
AcDbEntity
8
0
100
AcDbLine
10
-958.18851995964633
20
-521.08069774009311
30
0
11
-962.81672900987928
21
-517.83999087470977
31
0
0
LINE
5
590
100
AcDbEntity
8
0
100
AcDbLine
10
-962.79353250496911
20
-528.04970105846655
30
0
11
-976.37878915157899
21
-518.53720194599634
31
0
0
LINE
5
591
100
AcDbEntity
8
0
100
AcDbLine
10
-1039.0262612657241
20
-727.58992530408614
30
0
11
-1052.3413941663757
21
-725.54053033780849
31
0
0
LINE
5
592
100
AcDbEntity
8
0
100
AcDbLine
10
-1044.3499999999999
20
-800
30
0
11
-1025.6500000000001
21
-800
31
0
0
LINE
5
593
100
AcDbEntity
8
0
100
AcDbLine
10
-1020
20
-794.34999999999991
30
0
11
-1019.9660386666256
21
-794.35000000000173
31
0
0
LINE
5
594
100
AcDbEntity
8
0
100
AcDbLine
10
-992.11957422681564
20
-578.82092049540677
30
0
11
-997.18690521647545
21
-576.32198939566945
31
0
0
LINE
5
595
100
AcDbEntity
8
0
100
AcDbLine
10
-1044.3499999999999
20
-794.35000000000002
30
0
11
-1044.3499999999999
21
-800
31
0
0
LINE
5
596
100
AcDbEntity
8
0
100
AcDbLine
10
-1187.0677196864535
20
-634.9747168900011
30
0
11
-1184.9055582935905
21
-640.19463624868979
31
0
0
LINE
5
597
100
AcDbEntity
8
0
100
AcDbLine
10
-946.47314865505439
20
-547.59349771539701
30
0
11
-945.93647967365257
21
-546.75051293126478
31
0
0
LINE
5
598
100
AcDbEntity
8
0
100
AcDbLine
10
-992.11957422681564
20
-578.82092049540677
30
0
11
-1003.3059173969735
21
-573.30442652702732
31
0
0
LINE
5
599
100
AcDbEntity
8
0
100
AcDbLine
10
-1020.5439010199768
20
-730.43463262583759
30
0
11
-1014.9596584858341
21
-731.29412975781054
31
0
0
LINE
5
600
100
AcDbEntity
8
0
100
AcDbLine
10
-1022.3194684859857
20
-654.04033840092643
30
0
11
-1027.7079692577133
21
-652.3413506337273
31
0
0
ARC
5
601
100
AcDbEntity
8
0
100
AcDbCircle
10
-4440.1201214555886
20
449.68331765941002
30
0
40
3585.8326505812715
100
AcDbArc
50
340.34930068442196
51
340.86828836652279
0
ARC
5
602
100
AcDbEntity
8
0
100
AcDbCircle
10
-798.88970807057251
20
-721.49903120161071
30
0
40
209.17361927864732
100
AcDbArc
50
182.98710501688615
51
200.38214261819314
0
LINE
5
603
100
AcDbEntity
8
0
100
AcDbLine
10
-962.97788320317761
20
-527.92061730990622
30
0
11
-962.79353250496911
21
-528.04970105846655
31
0
0
LINE
5
604
100
AcDbEntity
8
0
100
AcDbLine
10
-1050
20
-794.35000000000002
30
0
11
-1044.3499999999999
21
-794.35000000000002
31
0
0
LINE
5
605
100
AcDbEntity
8
0
100
AcDbLine
10
-967.42174155520161
20
-524.80899419308321
30
0
11
-967.44550697184332
21
-524.79235346920177
31
0
0
ARC
5
606
100
AcDbEntity
8
0
100
AcDbCircle
10
-550
20
-800
30
0
40
470.00000000000006
100
AcDbArc
50
162.84438628032058
51
163.78871687143567
0
LINE
5
607
100
AcDbEntity
8
0
100
AcDbLine
10
-1038.1667641337513
20
-722.00568276994306
30
0
11
-1050.4634604996306
21
-720.11304017883208
31
0
0
LINE
5
608
100
AcDbEntity
8
0
100
AcDbLine
10
-942.87037673144255
20
-531.80657709985769
30
0
11
-917.76336657398485
21
-549.38669487401728
31
0
0
LINE
5
609
100
AcDbEntity
8
0
100
AcDbLine
10
-939.62966986605932
20
-527.17836804962508
30
0
11
-942.87037673144255
21
-531.80657709985769
31
0
0
LINE
5
610
100
AcDbEntity
8
0
100
AcDbLine
10
-1038.1667641337513
20
-722.00568276994306
30
0
11
-1039.0262612657241
21
-727.58992530408614
31
0
0
LINE
5
611
100
AcDbEntity
8
0
100
AcDbLine
10
-954.94781309426344
20
-516.4524886898605
30
0
11
-939.62966986605932
21
-527.17836804962508
31
0
0
LINE
5
612
100
AcDbEntity
8
0
100
AcDbLine
10
-975.34805396015463
20
-587.09171900250215
30
0
11
-970.28072297049471
21
-589.59065010223958
31
0
0
LINE
5
613
100
AcDbEntity
8
0
100
AcDbLine
10
-966.03423937035234
20
-532.67791010869939
30
0
11
-970.531205046541
21
-529.5291008431617
31
0
0
LINE
5
614
100
AcDbEntity
8
0
100
AcDbLine
10
-994.61850532655365
20
-583.88825148506658
30
0
11
-1004.9452013516265
21
-578.79568857428569
31
0
0
LINE
5
615
100
AcDbEntity
8
0
100
AcDbLine
10
-1035.0000000000002
20
-783.17499999999995
30
0
11
-1034.7080764491138
21
-783.17499999999995
31
0
0
LINE
5
616
100
AcDbEntity
8
0
100
AcDbLine
10
-950.704323250534
20
-543.4120329177274
30
0
11
-945.93647967365257
21
-546.75051293126478
31
0
0
LINE
5
617
100
AcDbEntity
8
0
100
AcDbLine
10
-1043.751006667894
20
-721.14618563797023
30
0
11
-1038.1667641337513
21
-722.00568276994306
31
0
0
LINE
5
618
100
AcDbEntity
8
0
100
AcDbLine
10
-972.77965407023203
20
-594.65798109189927
30
0
11
-972.77203952802881
21
-594.66173616855838
31
0
0
ARC
5
619
100
AcDbEntity
8
0
100
AcDbCircle
10
-4440.1201214555886
20
449.68331765941002
30
0
40
3585.8326505812715
100
AcDbArc
50
340.96005529462093
51
342.10233528476181
0
LINE
5
620
100
AcDbEntity
8
0
100
AcDbLine
10
-950.704323250534
20
-543.4120329177274
30
0
11
-925.46722745748662
21
-561.08323763453984
31
0
0
LINE
5
621
100
AcDbEntity
8
0
100
AcDbLine
10
-954.94781309426344
20
-516.4524886898605
30
0
11
-958.18851995964633
21
-521.08069774009311
31
0
0
LINE
5
622
100
AcDbEntity
8
0
100
AcDbLine
10
-1014.9596584858341
20
-731.29412975781054
30
0
11
-1014.9512671945337
21
-731.29542130107041
31
0
0
LINE
5
623
100
AcDbEntity
8
0
100
AcDbLine
10
-942.87037673144255
20
-531.80657709985769
30
0
11
-938.24216768120982
21
-535.04728396524115
31
0
0
LINE
5
624
100
AcDbEntity
8
0
100
AcDbLine
10
-1019.684403888004
20
-724.85039009169452
30
0
11
-1020.5439010199768
21
-730.43463262583759
31
0
0
ARC
5
625
100
AcDbEntity
8
0
100
AcDbCircle
10
-798.88970807057251
20
-721.49903120161071
30
0
40
209.17361927864746
100
AcDbArc
50
128.67289461319643
51
142.02678970092978
0
LINE
5
626
100
AcDbEntity
8
0
100
AcDbLine
10
-950.704323250534
20
-543.4120329177274
30
0
11
-947.46361638515077
21
-538.78382386749456
31
0
0
ARC
5
627
100
AcDbEntity
8
0
100
AcDbCircle
10
-798.88970807057251
20
-721.49903120161071
30
0
40
209.17361927864735
100
AcDbArc
50
163.28071623659139
51
181.41074208266545
0
ARC
5
628
100
AcDbEntity
8
0
100
AcDbCircle
10
-4440.1201214555886
20
449.68331765941002
30
0
40
3585.8326505812715
100
AcDbArc
50
343.4240568886508
51
343.57169322521514
0
LINE
5
629
100
AcDbEntity
8
0
100
AcDbLine
10
-942.83540733491805
20
-542.02453073287791
30
0
11
-947.46361638515077
21
-538.78382386749456
31
0
0
LINE
5
630
100
AcDbEntity
8
0
100
AcDbLine
10
-1039.0262612657241
20
-727.58992530408614
30
0
11
-1044.6105037998668
21
-726.73042817211308
31
0
0
LINE
5
631
100
AcDbEntity
8
0
100
AcDbLine
10
-971.07092161391847
20
-530.37196182294895
30
0
11
-970.531205046541
21
-529.5291008431617
31
0
0
LINE
5
632
100
AcDbEntity
8
0
100
AcDbLine
10
-946.64969064519937
20
-547.47189183960597
30
0
11
-946.47314865505439
21
-547.59349771539701
31
0
0
LINE
5
633
100
AcDbEntity
8
0
100
AcDbLine
10
-1020.5439010199768
20
-730.43463262583759
30
0
11
-1007.7791206821405
21
-732.39932023092535
31
0
0
LINE
5
634
100
AcDbEntity
8
0
100
AcDbLine
10
-1285.6818808066018
20
-709.18487734564894
30
0
11
-1290.9018001652908
21
-707.02271595278614
31
0
0
LINE
5
635
100
AcDbEntity
8
0
100
AcDbLine
10
-1263.2057270899636
20
-718.49480504506289
30
0
11
-1262.7616116314678
21
-718.67876369123121
31
0
0
LINE
5
636
100
AcDbEntity
8
0
100
AcDbLine
10
-1300.1690586109353
20
-773.43130472771895
30
0
11
-1305.8190586109347
21
-773.43130472771895
31
0
0
LINE
5
637
100
AcDbEntity
8
0
100
AcDbLine
10
-1285.6818808066018
20
-709.18487734564894
30
0
11
-1287.8440421994649
21
-714.40479670433774
31
0
0
LINE
5
638
100
AcDbEntity
8
0
100
AcDbLine
10
-1179.6856389349018
20
-638.03247485582699
30
0
11
-1181.8478003277644
21
-632.81255549713842
31
0
0
LINE
5
639
100
AcDbEntity
8
0
100
AcDbLine
10
-1233.4433126175493
20
-665.96189740740056
30
0
11
-1237.4384659312532
21
-669.95705072110479
31
0
0
LINE
5
640
100
AcDbEntity
8
0
100
AcDbLine
10
-1129.9690586109352
20
-621.93130472771838
30
0
11
-1129.9690586109352
21
-627.58130472771836
31
0
0
LINE
5
641
100
AcDbEntity
8
0
100
AcDbLine
10
-1290.9018001652908
20
-707.02271595278614
30
0
11
-1285.6818808066018
21
-709.18487734564894
31
0
0
LINE
5
642
100
AcDbEntity
8
0
100
AcDbLine
10
-997.3974729680674
20
-655.9740238471278
30
0
11
-997.38937581265668
21
-655.97657687042192
31
0
0
LINE
5
643
100
AcDbEntity
8
0
100
AcDbLine
10
-1263.2057270899636
20
-718.49480504506289
30
0
11
-1268.4256464486525
21
-716.33264365220032
31
0
0
LINE
5
644
100
AcDbEntity
8
0
100
AcDbLine
10
-963.36710894132011
20
-528.86885310275579
30
0
11
-966.03423937035234
21
-532.67791010869939
31
0
0
LINE
5
645
100
AcDbEntity
8
0
100
AcDbLine
10
-1138.3190586109356
20
-627.58130472771836
30
0
11
-1138.3190586109356
21
-631.0813025223465
31
0
0
LINE
5
646
100
AcDbEntity
8
0
100
AcDbLine
10
-1233.4433833282267
20
-665.96182669672305
30
0
11
-1229.6824197987635
21
-669.72279022618693
31
0
0
LINE
5
647
100
AcDbEntity
8
0
100
AcDbLine
10
-1138.3190586109356
20
-628.2295563122625
30
0
11
-1138.3190586109356
21
-622.57955631226253
31
0
0
LINE
5
648
100
AcDbEntity
8
0
100
AcDbLine
10
-1143.9690586109355
20
-628.2295563122625
30
0
11
-1143.9690586109355
21
-629.58130249999488
31
0
0
LINE
5
649
100
AcDbEntity
8
0
100
AcDbLine
10
-1124.3190586109347
20
-779.08130472771848
30
0
11
-1139.9173249421146
21
-779.08130472771848
31
0
0
LINE
5
650
100
AcDbEntity
8
0
100
AcDbLine
10
-1237.4384659312532
20
-669.95705072110479
30
0
11
-1233.3276782724265
21
-674.06783837993146
31
0
0
ARC
5
651
100
AcDbEntity
8
0
100
AcDbCircle
10
-4440.1201214555886
20
449.68331765941002
30
0
40
3585.8326505812711
100
AcDbArc
50
342.19261482281337
51
343.33248920224793
0
LINE
5
652
100
AcDbEntity
8
0
100
AcDbLine
10
-1179.6856389349018
20
-638.03247485582699
30
0
11
-1179.6244590967012
21
-638.18017605095451
31
0
0
LINE
5
653
100
AcDbEntity
8
0
100
AcDbLine
10
-1138.3190586109356
20
-603.77205517136122
30
0
11
-1143.9690586109352
21
-603.77205517136122
31
0
0
LINE
5
654
100
AcDbEntity
8
0
100
AcDbLine
10
-1129.9690586109352
20
-621.93130472771838
30
0
11
-1129.9690586109352
21
-653.17093736027516
31
0
0
LINE
5
655
100
AcDbEntity
8
0
100
AcDbLine
10
-1281.469058610935
20
-773.43130472771895
30
0
11
-1275.8190586109347
21
-773.43130472771895
31
0
0
LINE
5
656
100
AcDbEntity
8
0
100
AcDbLine
10
-1184.9055582935905
20
-640.19463624868979
30
0
11
-1184.8670412953156
21
-640.28762450830629
31
0
0
LINE
5
657
100
AcDbEntity
8
0
100
AcDbLine
10
-1300.1690586109353
20
-779.08130472771882
30
0
11
-1300.1690586109353
21
-773.43130472771895
31
0
0
LINE
5
658
100
AcDbEntity
8
0
100
AcDbLine
10
-1138.3190586109356
20
-603.77205517136122
30
0
11
-1138.3190586109356
21
-588.1129835569709
31
0
0
LINE
5
659
100
AcDbEntity
8
0
100
AcDbLine
10
-1129.9690586109352
20
-627.58130472771836
30
0
11
-1129.9690586109352
21
-627.68669617113858
31
0
0
LINE
5
660
100
AcDbEntity
8
0
100
AcDbLine
10
-1194.2238998716807
20
-617.69816963204005
30
0
11
-1196.3860612645433
21
-612.47825027335136
31
0
0
LINE
5
661
100
AcDbEntity
8
0
100
AcDbLine
10
-1138.3190586109356
20
-622.57955631226253
30
0
11
-1138.3190586109356
21
-649.89764464823725
31
0
0
LINE
5
662
100
AcDbEntity
8
0
100
AcDbLine
10
-1025.6500000000001
20
-794.34999999999991
30
0
11
-992.46708908955861
21
-794.34999999999991
31
0
0
LINE
5
663
100
AcDbEntity
8
0
100
AcDbLine
10
-1246.6662094257374
20
-652.73900059921232
30
0
11
-1250.6613627394415
21
-656.73415391291644
31
0
0
LINE
5
664
100
AcDbEntity
8
0
100
AcDbLine
10
-1237.4384659312532
20
-669.95705072110479
30
0
11
-1233.4433126175493
21
-673.95220403480846
31
0
0
LINE
5
665
100
AcDbEntity
8
0
100
AcDbLine
10
-1287.8440421994649
20
-714.40479670433774
30
0
11
-1293.0639615581536
21
-712.24263531147494
31
0
0
LINE
5
666
100
AcDbEntity
8
0
100
AcDbLine
10
-1138.3190586109356
20
-598.12205517136124
30
0
11
-1138.3190586109356
21
-603.77205517136122
31
0
0
LINE
5
667
100
AcDbEntity
8
0
100
AcDbLine
10
-1143.9690586109352
20
-603.77205517136122
30
0
11
-1143.9690586109352
21
-598.64813843061017
31
0
0
LINE
5
668
100
AcDbEntity
8
0
100
AcDbLine
10
-1143.9690586109355
20
-622.57955631226253
30
0
11
-1143.9690586109355
21
-648.19888486820662
31
0
0
LINE
5
669
100
AcDbEntity
8
0
100
AcDbLine
10
-1233.4433833282267
20
-665.96182669672305
30
0
11
-1233.4433126175493
21
-665.96189740740056
31
0
0
LINE
5
670
100
AcDbEntity
8
0
100
AcDbLine
10
-1250.6613627394415
20
-656.73415391291644
30
0
11
-1254.6565160531454
21
-652.73900059921232
31
0
0
LINE
5
671
100
AcDbEntity
8
0
100
AcDbLine
10
-1184.9055582935905
20
-640.19463624868979
30
0
11
-1187.0677196864535
21
-634.9747168900011
31
0
0
LINE
5
672
100
AcDbEntity
8
0
100
AcDbLine
10
-1179.6856389349018
20
-638.03247485582699
30
0
11
-1181.8478003277644
21
-632.81255549713842
31
0
0
LINE
5
673
100
AcDbEntity
8
0
100
AcDbLine
10
-1129.9690586109352
20
-603.23130472771834
30
0
11
-1129.9690586109352
21
-597.58130472771836
31
0
0
LINE
5
674
100
AcDbEntity
8
0
100
AcDbLine
10
-1250.6613627394415
20
-656.73415391291644
30
0
11
-1254.6565160531454
21
-652.73900059921232
31
0
0
LINE
5
675
100
AcDbEntity
8
0
100
AcDbLine
10
-1281.469058610935
20
-779.08130472771882
30
0
11
-1281.469058610935
21
-773.43130472771895
31
0
0
LINE
5
676
100
AcDbEntity
8
0
100
AcDbLine
10
-1143.9690586109352
20
-603.77205517136122
30
0
11
-1143.9690586109355
21
-588.47851868083023
31
0
0
LINE
5
677
100
AcDbEntity
8
0
100
AcDbLine
10
-1281.469058610935
20
-779.08130472771882
30
0
11
-1300.1690586109353
21
-779.08130472771882
31
0
0
LINE
5
678
100
AcDbEntity
8
0
100
AcDbLine
10
-1275.8190586109347
20
-773.43130472771895
30
0
11
-1275.7136671675148
21
-773.43130472771895
31
0
0
LINE
5
679
100
AcDbEntity
8
0
100
AcDbLine
10
-1129.9690586109352
20
-603.23130472771834
30
0
11
-1129.9690586109355
21
-589.70634215969585
31
0
0
LINE
5
680
100
AcDbEntity
8
0
100
AcDbLine
10
-1181.8478003277644
20
-632.81255549713842
30
0
11
-1176.5507013168765
21
-645.60088377045781
31
0
0
LINE
5
681
100
AcDbEntity
8
0
100
AcDbLine
10
-1263.2057270899636
20
-718.49480504506289
30
0
11
-1268.4256464486525
21
-716.33264365220032
31
0
0
LINE
5
682
100
AcDbEntity
8
0
100
AcDbLine
10
-1014.1001613538613
20
-725.70988722366769
30
0
11
-1014.0915633187916
21
-725.70988722366792
31
0
0
LINE
5
683
100
AcDbEntity
8
0
100
AcDbLine
10
-1265.3678884828266
20
-723.71472440375192
30
0
11
-1265.1179911519682
21
-723.81823526739379
31
0
0
LINE
5
684
100
AcDbEntity
8
0
100
AcDbLine
10
-1124.3190586109354
20
-603.23130472771834
30
0
11
-1129.9690586109352
21
-603.23130472771834
31
0
0
LINE
5
685
100
AcDbEntity
8
0
100
AcDbLine
10
-1124.3190586109354
20
-621.93130472771838
30
0
11
-1129.9690586109352
21
-621.93130472771838
31
0
0
LINE
5
686
100
AcDbEntity
8
0
100
AcDbLine
10
-1270.5878078415151
20
-721.552563010889
30
0
11
-1265.3678884828266
21
-723.71472440375192
31
0
0
LINE
5
687
100
AcDbEntity
8
0
100
AcDbLine
10
-1124.3190586109354
20
-621.93130472771838
30
0
11
-1124.3190586109354
21
-603.23130472771834
31
0
0
ARC
5
688
100
AcDbEntity
8
0
100
AcDbCircle
10
107.72462606906245
20
-14.960410018324946
30
0
40
10
100
AcDbArc
50
-90
51
0
0
LINE
5
689
100
AcDbEntity
8
0
100
AcDbLine
10
-1143.9690586109355
20
-622.57955631226253
30
0
11
-1143.9690586109355
21
-628.2295563122625
31
0
0
LINE
5
690
100
AcDbEntity
8
0
100
AcDbLine
10
-1189.0039805129918
20
-615.53600823917736
30
0
11
-1191.1661419058546
21
-610.31608888048879
31
0
0
LINE
5
691
100
AcDbEntity
8
0
100
AcDbLine
10
-1246.6662094257374
20
-652.73900059921232
30
0
11
-1250.6613627394415
21
-648.74384728550831
31
0
0
LINE
5
692
100
AcDbEntity
8
0
100
AcDbLine
10
-1281.469058610935
20
-773.43130472771895
30
0
11
-1248.223167634721
21
-773.43130472771895
31
0
0
LINE
5
693
100
AcDbEntity
8
0
100
AcDbLine
10
-1233.4433126175493
20
-665.96189740740056
30
0
11
-1229.6824197987635
21
-669.72279022618693
31
0
0
CIRCLE
5
694
100
AcDbEntity
8
0
100
AcDbCircle
10
-1020
20
-680
30
0
40
6.8305700247854872
0
CIRCLE
5
695
100
AcDbEntity
8
0
100
AcDbCircle
10
-956.31009707994735
20
-557.52467041898319
30
0
40
3.8944172780119013
0
LINE
5
696
100
AcDbEntity
8
0
100
AcDbLine
10
-1268.4256464486525
20
-716.33264365220032
30
0
11
-1270.5878078415151
21
-721.552563010889
31
0
0
LINE
5
697
100
AcDbEntity
8
0
100
AcDbLine
10
-1189.0039805129918
20
-615.53600823917736
30
0
11
-1193.7703358827573
21
-604.02900846239856
31
0
0
LINE
5
698
100
AcDbEntity
8
0
100
AcDbLine
10
-1194.2238998716807
20
-617.69816963204005
30
0
11
-1198.6120382238905
21
-607.10426650856732
31
0
0
LINE
5
699
100
AcDbEntity
8
0
100
AcDbLine
10
-1194.2238998716807
20
-617.69816963204005
30
0
11
-1196.3860612645433
21
-612.47825027335136
31
0
0
LINE
5
700
100
AcDbEntity
8
0
100
AcDbLine
10
-1250.6613627394415
20
-648.74384728550831
30
0
11
-1246.6662094257374
21
-652.73900059921232
31
0
0
LINE
5
701
100
AcDbEntity
8
0
100
AcDbLine
10
-1138.3190586109356
20
-622.57955631226253
30
0
11
-1143.9690586109355
21
-622.57955631226253
31
0
0
LINE
5
702
100
AcDbEntity
8
0
100
AcDbLine
10
-1138.3190586109356
20
-603.77205517136122
30
0
11
-1138.3190586109356
21
-598.12205517136124
31
0
0
ARC
5
703
100
AcDbEntity
8
0
100
AcDbCircle
10
-1017.8968431682699
20
-886.27418437721985
30
0
40
332.55649860855408
100
AcDbArc
50
119.22717089602146
51
121.92798749490879
0
LINE
5
704
100
AcDbEntity
8
0
100
AcDbLine
10
-1138.3190586109356
20
-627.58130472771836
30
0
11
-1138.3190586109356
21
-622.57955631226253
31
0
0
CIRCLE
5
705
100
AcDbEntity
8
0
100
AcDbCircle
10
-1020
20
-700
30
0
40
4.5754291756561951
0
LINE
5
706
100
AcDbEntity
8
0
100
AcDbLine
10
-1181.8478003277644
20
-632.81255549713842
30
0
11
-1187.0677196864535
21
-634.9747168900011
31
0
0
ARC
5
707
100
AcDbEntity
8
0
100
AcDbCircle
10
-1167.3923963382288
20
-736.34907674032195
30
0
40
91.209150184493879
100
AcDbArc
50
99.436124211478059
51
133.07351034976165
0
LINE
5
708
100
AcDbEntity
8
0
100
AcDbLine
10
-1237.4384659312532
20
-669.95705072110479
30
0
11
-1233.6881433341746
21
-673.7073733181835
31
0
0
CIRCLE
5
709
100
AcDbEntity
8
0
100
AcDbCircle
10
-1048.8499150801092
20
-775.29039063149003
30
0
40
6.3112453786145375
0
LINE
5
710
100
AcDbEntity
8
0
100
AcDbLine
10
-1191.1661419058546
20
-610.31608888048879
30
0
11
-1189.0039805129918
21
-615.53600823917736
31
0
0
CIRCLE
5
711
100
AcDbEntity
8
0
100
AcDbCircle
10
-1280.2246398644716
20
-735.12836563684061
30
0
40
4.8297837431772379
0
CIRCLE
5
712
100
AcDbEntity
8
0
100
AcDbCircle
10
-1174.9971772019146
20
-622.37797024167537
30
0
40
3.9785147387554129
0
LINE
5
713
100
AcDbEntity
8
0
100
AcDbLine
10
-1187.0677196864535
20
-634.9747168900011
30
0
11
-1182.345949541193
21
-646.37407841309948
31
0
0
ARC
5
714
100
AcDbEntity
8
0
100
AcDbCircle
10
-1017.8968431682699
20
-886.27418437721985
30
0
40
332.55649860855408
100
AcDbArc
50
122.91621255595076
51
134.41938662216421
0
CIRCLE
5
715
100
AcDbEntity
8
0
100
AcDbCircle
10
-976.21457333903561
20
-571.94205416844841
30
0
40
5
0
LWPOLYLINE
5
716
100
AcDbEntity
8
0
100
AcDbPolyline
90
4
70
1
43
0.0
10
432.99969360186111
20
-5.0125782670560062
10
432.99969360186111
20
4.9874217329439938
10
437.99969360186111
20
4.9874217329439938
10
437.99969360186111
20
-5.0125782670560062
0
CIRCLE
5
717
100
AcDbEntity
8
0
100
AcDbCircle
10
-1230.2246398644713
20
-645.12836563684073
30
0
40
3.1426298841361633
0
CIRCLE
5
718
100
AcDbEntity
8
0
100
AcDbCircle
10
-995.37902528119776
20
-594.76977623324558
30
0
40
2.8440000488975743
0
CIRCLE
5
719
100
AcDbEntity
8
0
100
AcDbCircle
10
-1156.4740289291694
20
-626.23648995314977
30
0
40
5.475326392456096
0
CIRCLE
5
720
100
AcDbEntity
8
0
100
AcDbCircle
10
-1006.1995531095323
20
-633.05263596965131
30
0
40
4.9668411625935249
0
CIRCLE
5
721
100
AcDbEntity
8
0
100
AcDbCircle
10
-1301.7558920191314
20
-750.56558155622747
30
0
40
7.4942773377214786
0
ARC
5
722
100
AcDbEntity
8
0
100
AcDbCircle
10
-1167.3923963382288
20
-736.34907674032195
30
0
40
91.209150184493808
100
AcDbArc
50
173.94509219750955
51
203.98908395927077
0
CIRCLE
5
723
100
AcDbEntity
8
0
100
AcDbCircle
10
-1163.0015345489214
20
-606.32678265300558
30
0
40
4.2361662498562396
0
LINE
5
724
100
AcDbEntity
8
0
100
AcDbLine
10
-1246.6662094257374
20
-652.73900059921232
30
0
11
-1250.6548158583153
21
-648.75039416663617
31
0
0
LINE
5
725
100
AcDbEntity
8
0
100
AcDbLine
10
-1285.6818808066018
20
-709.18487734564894
30
0
11
-1296.5089384127336
21
-704.70016324459482
31
0
0
LINE
5
726
100
AcDbEntity
8
0
100
AcDbLine
10
-1240.0378133932686
20
-659.36739663168237
30
0
11
-1240.0547610216445
21
-659.35044900330649
31
0
0
CIRCLE
5
727
100
AcDbEntity
8
0
100
AcDbCircle
10
-1210.2246398644713
20
-640.12836563684073
30
0
40
5
0
CIRCLE
5
728
100
AcDbEntity
8
0
100
AcDbCircle
10
-1265.2246398644713
20
-705.12836563684095
30
0
40
4.7513852440181168
0
ARC
5
729
100
AcDbEntity
8
0
100
AcDbCircle
10
-1167.3923963382288
20
-736.34907674032195
30
0
40
91.209150184493922
100
AcDbArc
50
75.119192020013273
51
95.762776924610151
0
LINE
5
730
100
AcDbEntity
8
0
100
AcDbLine
10
-1270.5878078415151
20
-721.552563010889
30
0
11
-1258.0927150074522
21
-726.72819992586881
31
0
0
CIRCLE
5
731
100
AcDbEntity
8
0
100
AcDbCircle
10
-1027.9089365092916
20
-752.09106349070771
30
0
40
9.3125281892322427
0
CIRCLE
5
732
100
AcDbEntity
8
0
100
AcDbCircle
10
-1250.2246398644713
20
-675.12836563684073
30
0
40
5
0
LINE
5
733
100
AcDbEntity
8
0
100
AcDbLine
10
-1268.4256464486525
20
-716.33264365220032
30
0
11
-1257.2912976945302
21
-720.94464191435031
31
0
0
CIRCLE
5
734
100
AcDbEntity
8
0
100
AcDbCircle
10
-977.28112416417162
20
-548.68990292005242
30
0
40
6.0924443726102524
0
CIRCLE
5
735
100
AcDbEntity
8
0
100
AcDbCircle
10
-1275.2246398644713
20
-755.12836563684061
30
0
40
6.4377454382894781
0
ARC
5
736
100
AcDbEntity
8
0
100
AcDbCircle
10
-1017.8968431682699
20
-886.27418437721985
30
0
40
332.55649860855419
100
AcDbArc
50
147.89611064268746
51
151.52504074726104
0
LINE
5
737
100
AcDbEntity
8
0
100
AcDbLine
10
-1250.6613627394415
20
-656.73415391291644
30
0
11
-1254.6565160531454
21
-652.73900059921232
31
0
0
ARC
5
738
100
AcDbEntity
8
0
100
AcDbCircle
10
-1167.3923963382288
20
-736.34907674032195
30
0
40
91.209150184493978
100
AcDbArc
50
136.62330845460346
51
170.27663500487208
0
ARC
5
739
100
AcDbEntity
8
0
100
AcDbCircle
10
-1017.8968431682699
20
-886.27418437721985
30
0
40
332.55649860855397
100
AcDbArc
50
135.39283168719879
51
146.90734908818322
0
CIRCLE
5
740
100
AcDbEntity
8
0
100
AcDbCircle
10
-994.92581477652971
20
-615.47765954816623
30
0
40
6.8771646866679959
0
CIRCLE
5
741
100
AcDbEntity
8
0
100
AcDbCircle
10
-1265.2246398644713
20
-680.12836563684073
30
0
40
3.5737446576822363
0
LINE
5
742
100
AcDbEntity
8
0
100
AcDbLine
10
-1287.8440421994649
20
-714.40479670433774
30
0
11
-1299.6007464620411
21
-709.53501034996873
31
0
0
CIRCLE
5
743
100
AcDbEntity
8
0
100
AcDbCircle
10
-1202.7128375716145
20
-623.01303619952091
30
0
40
3.2658454431012429
0
ARC
5
744
100
AcDbEntity
8
0
100
AcDbCircle
10
-1167.3923963382288
20
-736.34907674032195
30
0
40
91.209150184493865
100
AcDbArc
50
65.776164386575672
51
71.412373890865695
0
LINE
5
745
100
AcDbEntity
8
0
100
AcDbLine
10
-1141.1440586109352
20
-603.77205517136122
30
0
11
-1141.1440586109352
21
-603.23130472771834
31
0
0
ARC
5
746
100
AcDbEntity
8
0
100
AcDbCircle
10
82.724626069062523
20
-14.960410018324946
30
0
40
9.9999999999999822
100
AcDbArc
50
180
51
270
0
LINE
5
747
100
AcDbEntity
8
0
100
AcDbLine
10
-857.15000000000032
20
16.82499999999969
30
0
11
-845.00001259148132
21
16.824999999999694
31
0
0
LINE
5
748
100
AcDbEntity
8
0
100
AcDbLine
10
-875.85000000000025
20
-3.5527136788005009e-13
30
0
11
-875.85000000000025
21
5.6499999999996451
31
0
0
LINE
5
749
100
AcDbEntity
8
0
100
AcDbLine
10
-822.3471508148026
20
126.3423041285061
30
0
11
-826.34230412850661
21
130.33745744221017
31
0
0
LINE
5
750
100
AcDbEntity
8
0
100
AcDbLine
10
-846.26874923058028
20
57.528741716829437
30
0
11
-841.04882987189114
21
55.36658032396673
31
0
0
LINE
5
751
100
AcDbEntity
8
0
100
AcDbLine
10
-760.1387013961737
20
145.18766853414883
30
0
11
-767.29488158140111
21
162.46421579210985
31
0
0
LINE
5
752
100
AcDbEntity
8
0
100
AcDbLine
10
-700
20
0
30
0
11
-518.5
21
0
31
0
0
ARC
5
753
100
AcDbEntity
8
0
100
AcDbCircle
10
-700
20
0
30
0
40
181.50000000000009
100
AcDbArc
50
158.39182982510573
51
178.21612418502247
0
LINE
5
754
100
AcDbEntity
8
0
100
AcDbLine
10
-857.15000000000032
20
5.6499999999996895
30
0
11
-851.5
21
5.6499999999996895
31
0
0
LINE
5
755
100
AcDbEntity
8
0
100
AcDbLine
10
-863.52498358852972
20
64.676508023380677
30
0
11
-868.74490294721841
21
66.838669416243476
31
0
0
LINE
5
756
100
AcDbEntity
8
0
100
AcDbLine
10
-809.12432471729232
20
113.11947803099542
30
0
11
-809.12425400661402
21
113.1194073203178
31
0
0
LINE
5
757
100
AcDbEntity
8
0
100
AcDbLine
10
-841.04882987189114
20
55.36658032396673
30
0
11
-840.79893254103354
21
55.263069460324544
31
0
0
LINE
5
758
100
AcDbEntity
8
0
100
AcDbLine
10
-866.58274155435549
20
72.05858877493219
30
0
11
-861.36282219566681
21
69.896427382069419
31
0
0
ARC
5
759
100
AcDbEntity
8
0
100
AcDbCircle
10
-700
20
0
30
0
40
151.50000000000009
100
AcDbArc
50
158.56844857137247
51
177.86273108239598
0
LINE
5
760
100
AcDbEntity
8
0
100
AcDbLine
10
-857.15000000000032
20
-3.1086244689504383e-13
30
0
11
-857.15000000000032
21
5.6499999999996895
31
0
0
LINE
5
761
100
AcDbEntity
8
0
100
AcDbLine
10
-826.34230412850661
20
130.33745744221017
30
0
11
-822.3471508148026
21
126.3423041285061
31
0
0
LINE
5
762
100
AcDbEntity
8
0
100
AcDbLine
10
-861.36282219566681
20
69.896427382069419
30
0
11
-863.52498358852972
21
64.676508023380677
31
0
0
LINE
5
763
100
AcDbEntity
8
0
100
AcDbLine
10
-811.12183066346586
20
111.12183066346581
30
0
11
-828.33988078535856
21
128.33988078535813
31
0
0
LINE
5
764
100
AcDbEntity
8
0
100
AcDbLine
10
-822.3471508148026
20
126.3423041285061
30
0
11
-826.34230412850661
21
122.34715081480221
31
0
0
ARC
5
765
100
AcDbEntity
8
0
100
AcDbCircle
10
-700
20
0
30
0
40
181.49999999999994
100
AcDbArc
50
135.89182982510579
51
156.6081701748943
0
LINE
5
766
100
AcDbEntity
8
0
100
AcDbLine
10
-809.12432471729232
20
113.11947803099542
30
0
11
-805.11047480287732
21
109.10562811658109
31
0
0
LINE
5
767
100
AcDbEntity
8
0
100
AcDbLine
10
-857.15000000000032
20
16.82499999999969
30
0
11
-875.85000000000025
21
16.824999999999651
31
0
0
LINE
5
768
100
AcDbEntity
8
0
100
AcDbLine
10
-813.11940732031815
20
109.12425400661378
30
0
11
-809.00861966149159
21
105.01346634778713
31
0
0
ARC
5
769
100
AcDbEntity
8
0
100
AcDbCircle
10
-700
20
0
30
0
40
151.5
100
AcDbArc
50
136.06844857137247
51
156.4315514286275
0
LINE
5
770
100
AcDbEntity
8
0
100
AcDbLine
10
-875.85000000000025
20
5.6499999999996451
30
0
11
-881.5
21
5.6499999999996451
31
0
0
LINE
5
771
100
AcDbEntity
8
0
100
AcDbLine
10
-716.8250000000005
20
157.15000000000015
30
0
11
-716.82500000000027
21
175.85000000000011
31
0
0
LINE
5
772
100
AcDbEntity
8
0
100
AcDbLine
10
-755.36658032396656
20
141.04882987189137
30
0
11
-757.52874171682947
21
146.26874923058011
31
0
0
LINE
5
773
100
AcDbEntity
8
0
100
AcDbLine
10
-844.10658783771737
20
62.748661075518228
30
0
11
-846.26874923058028
21
57.528741716829437
31
0
0
LINE
5
774
100
AcDbEntity
8
0
100
AcDbLine
10
-809.12425400661402
20
113.1194073203178
30
0
11
-813.11940732031815
21
109.12425400661378
31
0
0
LINE
5
775
100
AcDbEntity
8
0
100
AcDbLine
10
-757.52874171682947
20
146.26874923058011
30
0
11
-762.74866107551816
21
144.1065878377174
31
0
0
LINE
5
776
100
AcDbEntity
8
0
100
AcDbLine
10
-762.74866107551816
20
144.1065878377174
30
0
11
-760.58649968265559
21
138.88666847902866
31
0
0
LINE
5
777
100
AcDbEntity
8
0
100
AcDbLine
10
-766.84708329491957
20
168.76521584722997
30
0
11
-764.68492190205654
21
163.54529648854117
31
0
0
LINE
5
778
100
AcDbEntity
8
0
100
AcDbLine
10
-826.34230412850661
20
122.34715081480221
30
0
11
-830.33745744221051
21
126.34230412850613
31
0
0
LINE
5
779
100
AcDbEntity
8
0
100
AcDbLine
10
-845.18766853414854
20
60.138701396173886
30
0
11
-862.44390289209832
21
67.286467702725119
31
0
0
LINE
5
780
100
AcDbEntity
8
0
100
AcDbLine
10
-813.11940732031815
20
109.12425400661378
30
0
11
-809.12425400661402
21
105.1291006929098
31
0
0
LINE
5
781
100
AcDbEntity
8
0
100
AcDbLine
10
-838.88666847902857
20
60.586499682655528
30
0
11
-838.44255302053284
21
60.402541036487037
31
0
0
LINE
5
782
100
AcDbEntity
8
0
100
AcDbLine
10
-838.88666847902857
20
60.586499682655528
30
0
11
-844.10658783771737
21
62.748661075518228
31
0
0
LWPOLYLINE
5
783
100
AcDbEntity
8
0
100
AcDbPolyline
90
8
70
1
43
0.0
10
427.81074432660864
20
-11.249999999999998
42
-0.67419986246324437
10
372.18925567339136
20
-11.249999999999991
42
0.30561468458068558
10
370.33520605161726
20
-10.000000000000037
10
369.25914770212125
20
-10.000000000000016
42
0.52793009057502749
10
367.39606574467388
20
-12.727272727272743
42
0.68313005106397251
10
432.60393425532612
20
-12.727272727272698
42
0.52793009057501128
10
430.74085229787892
20
-10.000000000000018
10
429.66479394838257
20
-9.9999999999999893
42
0.30561468458072155
0
ARC
5
784
100
AcDbEntity
8
0
100
AcDbCircle
10
-700
20
0
30
0
40
181.50000000000009
100
AcDbArc
50
113.39182982510566
51
134.10817017489438
0
LINE
5
785
100
AcDbEntity
8
0
100
AcDbLine
10
-760.58649968265559
20
138.88666847902866
30
0
11
-762.74866107551816
21
144.1065878377174
31
0
0
LWPOLYLINE
5
786
100
AcDbEntity
8
0
100
AcDbPolyline
90
8
70
1
43
0.0
10
255.83226129989129
20
-43.355048555536449
10
255.40107036254764
20
-44.279740504730782
42
0.42935247020590822
10
256.46271065341119
20
-46.978631829950672
42
0.17207912544328022
10
279.83818660052799
20
-48.010217322396997
42
0.40402276064335085
10
281.18527205362341
20
-45.579976688027976
10
280.87303005470858
20
-44.414673683820887
42
0.42694529716722285
10
278.34045513881983
20
-43.02466097764902
42
-0.17136429326801234
10
258.37517245616419
20
-42.338385951078976
42
0.39601219183569031
0
LINE
5
787
100
AcDbEntity
8
0
100
AcDbLine
10
-769.90484126074534
20
161.38313509567848
30
0
11
-772.06700265360826
21
166.60305445436722
31
0
0
LINE
5
788
100
AcDbEntity
8
0
100
AcDbLine
10
-755.36658032396656
20
141.04882987189137
30
0
11
-755.30540048576643
21
140.90112867676399
31
0
0
LINE
5
789
100
AcDbEntity
8
0
100
AcDbLine
10
-714.00000000000045
20
151.50000000000014
30
0
11
-714.00000000000045
21
148.00000220537189
31
0
0
LINE
5
790
100
AcDbEntity
8
0
100
AcDbLine
10
-714.00000000000034
20
175.30924955635723
30
0
11
-719.65000000000032
21
175.30924955635723
31
0
0
LINE
5
791
100
AcDbEntity
8
0
100
AcDbLine
10
-760.58649968265559
20
138.88666847902866
30
0
11
-760.5479826843806
21
138.79368021941212
31
0
0
LINE
5
792
100
AcDbEntity
8
0
100
AcDbLine
10
-755.36658032396656
20
141.04882987189137
30
0
11
-757.52874171682947
21
146.26874923058011
31
0
0
ARC
5
793
100
AcDbEntity
8
0
100
AcDbCircle
10
-700
20
0
30
0
40
151.50000000000011
100
AcDbArc
50
113.56844857137251
51
133.93155142862761
0
LINE
5
794
100
AcDbEntity
8
0
100
AcDbLine
10
-714.00000000000034
20
180.95924955635726
30
0
11
-714.00000000000034
21
175.30924955635723
31
0
0
LINE
5
795
100
AcDbEntity
8
0
100
AcDbLine
10
-719.65000000000032
20
175.30924955635723
30
0
11
-719.65000000000032
21
180.43316629710844
31
0
0
LINE
5
796
100
AcDbEntity
8
0
100
AcDbLine
10
-769.90484126074534
20
161.38313509567848
30
0
11
-772.06700265360826
21
166.60305445436722
31
0
0
LINE
5
797
100
AcDbEntity
8
0
100
AcDbLine
10
-116.02619541659108
20
13.57942266777637
30
0
11
-106.02619541659107
21
13.57942266777637
31
0
0
LINE
5
798
100
AcDbEntity
8
0
100
AcDbLine
10
-764.68492190205654
20
163.54529648854117
30
0
11
-766.84708329491957
21
168.76521584722997
31
0
0
LINE
5
799
100
AcDbEntity
8
0
100
AcDbLine
10
-106.02619541659107
20
13.57942266777637
30
0
11
-96.026195416591065
21
13.579422667776377
31
0
0
LINE
5
800
100
AcDbEntity
8
0
100
AcDbLine
10
284.97960618915988
20
-14.409899031995597
30
0
11
304.32960618915973
21
-14.409899031995597
31
0
0
LINE
5
801
100
AcDbEntity
8
0
100
AcDbLine
10
-57.043484564967422
20
-4.7840352165315085
30
0
11
-57.214977186457752
21
-4.7840352165315085
31
0
0
LINE
5
802
100
AcDbEntity
8
0
100
AcDbLine
10
-764.68492190205654
20
163.54529648854117
30
0
11
-769.90484126074534
21
161.38313509567848
31
0
0
LINE
5
803
100
AcDbEntity
8
0
100
AcDbLine
10
-106.74385010151613
20
-0.29523457410809861
30
0
11
-116.74385010151613
21
-0.29523457410809861
31
0
0
CIRCLE
5
804
100
AcDbEntity
8
0
100
AcDbCircle
10
-46.026195416591051
20
28.579422667776374
30
0
40
5.0000000000000044
0
LINE
5
805
100
AcDbEntity
8
0
100
AcDbLine
10
-66.915342723006461
20
-3.9952345741080988
30
0
11
-66.743850101516131
21
-3.9952345741080988
31
0
0
LINE
5
806
100
AcDbEntity
8
0
100
AcDbLine
10
-96.743850101516131
20
-0.29523457410809861
30
0
11
-106.74385010151613
21
-0.29523457410809861
31
0
0
LINE
5
807
100
AcDbEntity
8
0
100
AcDbLine
10
-106.48730005184005
20
-54.664063349078262
30
0
11
-116.48730005184005
21
-54.664063349078262
31
0
0
LINE
5
808
100
AcDbEntity
8
0
100
AcDbLine
10
-96.487300051840052
20
-54.664063349078262
30
0
11
-106.48730005184005
21
-54.664063349078262
31
0
0
LINE
5
809
100
AcDbEntity
8
0
100
AcDbLine
10
-36.322426850317065
20
-0.24153440393613002
30
0
11
-46.322426850317058
21
-0.24153440393613002
31
0
0
LINE
5
810
100
AcDbEntity
8
0
100
AcDbLine
10
-36.026195416591037
20
13.579422667776377
30
0
11
-46.026195416591051
21
13.57942266777637
31
0
0
LWPOLYLINE
5
811
100
AcDbEntity
8
0
100
AcDbPolyline
90
12
70
1
43
0.0
10
320.8641500651579
20
-728.28984734170945
10
320.8641500651579
20
-709.5898473417094
10
326.51415006515788
20
-709.5898473417094
10
326.51415006515776
20
-679.5898473417094
10
334.86415006515784
20
-679.5898473417094
10
334.86415006515784
20
-709.5898473417094
10
340.51415006515782
20
-709.5898473417094
10
340.51415006515782
20
-728.28984734170945
10
334.86415006515784
20
-728.28984734170945
10
334.86415006515784
20
-758.28984734170945
10
326.51415006515788
20
-758.28984734170945
10
326.51415006515788
20
-728.28984734170945
0
CIRCLE
5
812
100
AcDbEntity
8
0
100
AcDbCircle
10
-600
20
-500
30
0
40
42.500000000000043
0
LINE
5
813
100
AcDbEntity
8
0
100
AcDbLine
10
-600
20
-500
30
0
11
-600
21
-435
31
0
0
LINE
5
814
100
AcDbEntity
8
0
100
AcDbLine
10
177.96363025130432
20
-615.99821743224777
30
0
11
182.96363025130432
21
-615.99821743224777
31
0
0
LWPOLYLINE
5
815
100
AcDbEntity
8
0
100
AcDbPolyline
90
8
70
1
43
0.0
10
182.82474136241541
20
-611.00014681684593
42
-1.0281745265969549
10
182.82474136241532
20
-620.99628804764961
42
-0.38202777908605323
10
97.961700866706153
20
-705.85932854335874
42
-1.0281745265969713
10
87.965559635902494
20
-705.85932854335897
42
-0.38202777908605323
10
3.1025191401931935
20
-620.99628804764916
42
-1.0281745265969506
10
3.1025191401932872
20
-611.0001468168465
42
-0.38202777908605479
10
87.965559635902494
20
-526.1371063211368
42
-1.0281745265969713
10
97.961700866706153
20
-526.13710632113668
42
-0.38202777908605323
0
CIRCLE
5
816
100
AcDbEntity
8
0
100
AcDbCircle
10
400
20
-1.3322676295501878e-13
30
0
40
2.499999999999984
0
CIRCLE
5
817
100
AcDbEntity
8
0
100
AcDbCircle
10
92.963630251304323
20
-615.99821743224777
30
0
40
2.499999999999984
0
LWPOLYLINE
5
818
100
AcDbEntity
8
0
100
AcDbPolyline
90
8
70
1
43
0.0
10
123.70448254918323
20
-625.99821743224766
10
122.62842419968692
20
-625.99821743224777
42
0.30561468458072688
10
120.77437457791292
20
-627.24821743224766
42
-0.67419986246324426
10
65.152885924695752
20
-627.24821743224766
42
0.30561468458069208
10
63.298836302921657
20
-625.99821743224766
10
62.222777953425634
20
-625.99821743224766
42
0.5279300905750155
10
60.3596959959782
20
-628.7254901595204
42
0.68313005106397229
10
125.56756450663048
20
-628.72549015952029
42
0.52793009057500828
0
LWPOLYLINE
5
819
100
AcDbEntity
8
0
100
AcDbPolyline
90
8
70
1
43
0.0
10
221.23450223449947
20
-506.0225495741085
42
0.68313005106397318
10
286.44237074515172
20
-506.02254957410844
42
0.52793009057500828
10
284.57928878770446
20
-503.29527684683575
10
283.50323043820816
20
-503.2952768468358
42
0.30561468458072688
10
281.64918081643413
20
-504.54527684683575
42
-0.67419986246324426
10
226.02769216321695
20
-504.54527684683575
42
0.30561468458068308
10
224.17364254144289
20
-503.2952768468358
10
223.09758419194685
20
-503.29527684683569
42
0.52793009057502616
0
LWPOLYLINE
5
820
100
AcDbEntity
8
0
100
AcDbPolyline
90
4
70
1
43
0.0
10
286.83813009168659
20
-488.30785511389183
10
291.83813009168659
20
-488.30785511389183
10
291.83813009168659
20
-498.30785511389172
10
286.83813009168659
20
-498.30785511389172
0
LWPOLYLINE
5
821
100
AcDbEntity
8
0
100
AcDbPolyline
90
20
70
1
43
0.0
10
257.26700812701324
20
-503.29527684683575
10
263.83843648982554
20
-503.29527684683575
10
263.83843648982554
20
-502.64527684683577
10
269.48843648982552
20
-502.64527684683577
10
269.48843648982552
20
-496.99527684683574
10
269.48843648982552
20
-493.29527684683575
10
269.48843648982552
20
-489.59527684683576
10
269.48843648982552
20
-483.94527684683578
10
263.83843648982554
20
-483.94527684683578
10
263.83843648982554
20
-463.29527684683592
10
243.83843648982563
20
-463.29527684683592
10
243.83843648982563
20
-483.94527684683578
10
238.18843648982565
20
-483.94527684683578
10
238.18843648982565
20
-489.59527684683576
10
238.18843648982565
20
-493.29527684683575
10
238.18843648982565
20
-496.99527684683579
10
238.18843648982565
20
-502.64527684683577
10
243.83843648982563
20
-502.64527684683577
10
243.83843648982563
20
-503.29527684683575
10
249.83843628120928
20
-503.29527684683575
0
LINE
5
822
100
AcDbEntity
8
0
100
AcDbLine
10
303.53880202637436
20
-497.78407748925918
30
0
11
303.36730940488383
21
-497.78407748925918
31
0
0
CIRCLE
5
823
100
AcDbEntity
8
0
100
AcDbCircle
10
253.83843648982554
20
-493.29527684683575
30
0
40
42.499999999999993
0
LWPOLYLINE
5
824
100
AcDbEntity
8
0
100
AcDbPolyline
90
4
70
1
43
0.0
10
215.83868342509277
20
-498.3364413673944
10
215.83868342509277
20
-488.3364413673944
10
220.83868342509277
20
-488.3364413673944
10
220.83868342509277
20
-498.3364413673944
0
LINE
5
825
100
AcDbEntity
8
0
100
AcDbLine
10
293.6669438683353
20
-496.99527684683574
30
0
11
293.83843648982548
21
-496.99527684683574
31
0
0
LINE
5
826
100
AcDbEntity
8
0
100
AcDbLine
10
214.00992911131596
20
-496.99527684683579
30
0
11
213.83843648982563
21
-496.99527684683579
31
0
0
CIRCLE
5
827
100
AcDbEntity
8
0
100
AcDbCircle
10
253.83843648982554
20
-493.29527684683592
30
0
40
2.499999999999984
0
ENDSEC
0
SECTION
2
OBJECTS
0
DICTIONARY
5
C
100
AcDbDictionary
3
ACAD_GROUP
350
D
3
ACAD_MLINESTYLE
350
17
0
DICTIONARY
5
D
100
AcDbDictionary
0
DICTIONARY
5
1A
330
C
100
AcDbDictionary
0
DICTIONARY
5
17
100
AcDbDictionary
0
ENDSEC
0
EOF
