  0
SECTION
  2
HEADER
  9
$ACADVER
  1
AC1021
  9
$ACADMAINTVER
 70
    25
  9
$DWGCODEPAGE
  3
ANSI_1252
  9
$INSBASE
 10
0.0
 20
0.0
 30
0.0
  9
$EXTMIN
 10
-14.10604724409449
 20
2.218177165354331
 30
0.0
  9
$EXTMAX
 10
4.117409448818898
 20
9.131728346456693
 30
0.0
  9
$LIMMIN
 10
0.0
 20
0.0
  9
$LIMMAX
 10
12.0
 20
9.0
  9
$ORTHOMODE
 70
     0
  9
$REGENMODE
 70
     1
  9
$FILLMODE
 70
     1
  9
$QTEXTMODE
 70
     0
  9
$MIRRTEXT
 70
     1
  9
$LTSCALE
 40
1.0
  9
$ATTMODE
 70
     1
  9
$TEXTSIZE
 40
0.2
  9
$TRACEWID
 40
0.05
  9
$TEXTSTYLE
  7
Standard
  9
$CLAYER
  8
0
  9
$CELTYPE
  6
ByLayer
  9
$CECOLOR
 62
   256
  9
$CELTSCALE
 40
1.0
  9
$DISPSILH
 70
     0
  9
$DIMSCALE
 40
1.0
  9
$DIMASZ
 40
0.18
  9
$DIMEXO
 40
0.0625
  9
$DIMDLI
 40
0.38
  9
$DIMRND
 40
0.0
  9
$DIMDLE
 40
0.0
  9
$DIMEXE
 40
0.18
  9
$DIMTP
 40
0.0
  9
$DIMTM
 40
0.0
  9
$DIMTXT
 40
0.18
  9
$DIMCEN
 40
0.09
  9
$DIMTSZ
 40
0.0
  9
$DIMTOL
 70
     0
  9
$DIMLIM
 70
     0
  9
$DIMTIH
 70
     1
  9
$DIMTOH
 70
     1
  9
$DIMSE1
 70
     0
  9
$DIMSE2
 70
     0
  9
$DIMTAD
 70
     0
  9
$DIMZIN
 70
     0
  9
$DIMBLK
  1

  9
$DIMASO
 70
     1
  9
$DIMSHO
 70
     1
  9
$DIMPOST
  1

  9
$DIMAPOST
  1

  9
$DIMALT
 70
     0
  9
$DIMALTD
 70
     2
  9
$DIMALTF
 40
25.4
  9
$DIMLFAC
 40
1.0
  9
$DIMTOFL
 70
     0
  9
$DIMTVP
 40
0.0
  9
$DIMTIX
 70
     0
  9
$DIMSOXD
 70
     0
  9
$DIMSAH
 70
     0
  9
$DIMBLK1
  1

  9
$DIMBLK2
  1

  9
$DIMSTYLE
  2
Standard
  9
$DIMCLRD
 70
     0
  9
$DIMCLRE
 70
     0
  9
$DIMCLRT
 70
     0
  9
$DIMTFAC
 40
1.0
  9
$DIMGAP
 40
0.09
  9
$DIMJUST
 70
     0
  9
$DIMSD1
 70
     0
  9
$DIMSD2
 70
     0
  9
$DIMTOLJ
 70
     1
  9
$DIMTZIN
 70
     0
  9
$DIMALTZ
 70
     0
  9
$DIMALTTZ
 70
     0
  9
$DIMUPT
 70
     0
  9
$DIMDEC
 70
     4
  9
$DIMTDEC
 70
     4
  9
$DIMALTU
 70
     2
  9
$DIMALTTD
 70
     2
  9
$DIMTXSTY
  7
Standard
  9
$DIMAUNIT
 70
     0
  9
$DIMADEC
 70
     0
  9
$DIMALTRND
 40
0.0
  9
$DIMAZIN
 70
     0
  9
$DIMDSEP
 70
    46
  9
$DIMATFIT
 70
     3
  9
$DIMFRAC
 70
     0
  9
$DIMLDRBLK
  1

  9
$DIMLUNIT
 70
     2
  9
$DIMLWD
 70
    -2
  9
$DIMLWE
 70
    -2
  9
$DIMTMOVE
 70
     0
  9
$DIMFXL
 40
1.0
  9
$DIMFXLON
 70
     0
  9
$DIMJOGANG
 40
0.7853981633974483
  9
$DIMTFILL
 70
     0
  9
$DIMTFILLCLR
 70
     0
  9
$DIMARCSYM
 70
     0
  9
$DIMLTYPE
  6

  9
$DIMLTEX1
  6

  9
$DIMLTEX2
  6

  9
$LUNITS
 70
     2
  9
$LUPREC
 70
     4
  9
$SKETCHINC
 40
0.1
  9
$FILLETRAD
 40
0.5
  9
$AUNITS
 70
     0
  9
$AUPREC
 70
     0
  9
$MENU
  1
.
  9
$ELEVATION
 40
0.0
  9
$PELEVATION
 40
0.0
  9
$THICKNESS
 40
0.0
  9
$LIMCHECK
 70
     0
  9
$CHAMFERA
 40
0.0
  9
$CHAMFERB
 40
0.0
  9
$CHAMFERC
 40
0.0
  9
$CHAMFERD
 40
0.0
  9
$SKPOLY
 70
     0
  9
$TDCREATE
 40
2459045.444981643
  9
$TDUCREATE
 40
2459045.61164831
  9
$TDUPDATE
 40
2459045.444981678
  9
$TDUUPDATE
 40
2459045.611648345
  9
$TDINDWG
 40
0.0000000116
  9
$TDUSRTIMER
 40
0.0000000116
  9
$USRTIMER
 70
     1
  9
$ANGBASE
 50
0.0
  9
$ANGDIR
 70
     0
  9
$PDMODE
 70
     0
  9
$PDSIZE
 40
0.0
  9
$PLINEWID
 40
0.0
  9
$SPLFRAME
 70
     0
  9
$SPLINETYPE
 70
     6
  9
$SPLINESEGS
 70
     8
  9
$HANDSEED
  5
C4
  9
$SURFTAB1
 70
     6
  9
$SURFTAB2
 70
     6
  9
$SURFTYPE
 70
     6
  9
$SURFU
 70
     6
  9
$SURFV
 70
     6
  9
$UCSBASE
  2

  9
$UCSNAME
  2

  9
$UCSORG
 10
0.0
 20
0.0
 30
0.0
  9
$UCSXDIR
 10
1.0
 20
0.0
 30
0.0
  9
$UCSYDIR
 10
0.0
 20
1.0
 30
0.0
  9
$UCSORTHOREF
  2

  9
$UCSORTHOVIEW
 70
     0
  9
$UCSORGTOP
 10
0.0
 20
0.0
 30
0.0
  9
$UCSORGBOTTOM
 10
0.0
 20
0.0
 30
0.0
  9
$UCSORGLEFT
 10
0.0
 20
0.0
 30
0.0
  9
$UCSORGRIGHT
 10
0.0
 20
0.0
 30
0.0
  9
$UCSORGFRONT
 10
0.0
 20
0.0
 30
0.0
  9
$UCSORGBACK
 10
0.0
 20
0.0
 30
0.0
  9
$PUCSBASE
  2

  9
$PUCSNAME
  2

  9
$PUCSORG
 10
0.0
 20
0.0
 30
0.0
  9
$PUCSXDIR
 10
1.0
 20
0.0
 30
0.0
  9
$PUCSYDIR
 10
0.0
 20
1.0
 30
0.0
  9
$PUCSORTHOREF
  2

  9
$PUCSORTHOVIEW
 70
     0
  9
$PUCSORGTOP
 10
0.0
 20
0.0
 30
0.0
  9
$PUCSORGBOTTOM
 10
0.0
 20
0.0
 30
0.0
  9
$PUCSORGLEFT
 10
0.0
 20
0.0
 30
0.0
  9
$PUCSORGRIGHT
 10
0.0
 20
0.0
 30
0.0
  9
$PUCSORGFRONT
 10
0.0
 20
0.0
 30
0.0
  9
$PUCSORGBACK
 10
0.0
 20
0.0
 30
0.0
  9
$USERI1
 70
     0
  9
$USERI2
 70
     0
  9
$USERI3
 70
     0
  9
$USERI4
 70
     0
  9
$USERI5
 70
     0
  9
$USERR1
 40
0.0
  9
$USERR2
 40
0.0
  9
$USERR3
 40
0.0
  9
$USERR4
 40
0.0
  9
$USERR5
 40
0.0
  9
$WORLDVIEW
 70
     1
  9
$SHADEDGE
 70
     3
  9
$SHADEDIF
 70
    70
  9
$TILEMODE
 70
     1
  9
$MAXACTVP
 70
    64
  9
$PINSBASE
 10
0.0
 20
0.0
 30
0.0
  9
$PLIMCHECK
 70
     0
  9
$PEXTMIN
 10
1.000000000000000E+20
 20
1.000000000000000E+20
 30
1.000000000000000E+20
  9
$PEXTMAX
 10
-1.000000000000000E+20
 20
-1.000000000000000E+20
 30
-1.000000000000000E+20
  9
$PLIMMIN
 10
0.0
 20
0.0
  9
$PLIMMAX
 10
12.0
 20
9.0
  9
$UNITMODE
 70
     0
  9
$VISRETAIN
 70
     1
  9
$PLINEGEN
 70
     0
  9
$PSLTSCALE
 70
     1
  9
$TREEDEPTH
 70
  3020
  9
$CMLSTYLE
  2
Standard
  9
$CMLJUST
 70
     0
  9
$CMLSCALE
 40
1.0
  9
$PROXYGRAPHICS
 70
     1
  9
$MEASUREMENT
 70
     0
  9
$CELWEIGHT
370
    -1
  9
$ENDCAPS
280
     0
  9
$JOINSTYLE
280
     0
  9
$LWDISPLAY
290
     0
  9
$INSUNITS
 70
     1
  9
$HYPERLINKBASE
  1

  9
$STYLESHEET
  1

  9
$XEDIT
290
     1
  9
$CEPSNTYPE
380
     0
  9
$PSTYLEMODE
290
     1
  9
$FINGERPRINTGUID
  2
{16e21fc8-7d9a-499a-bdb7-1bd162b7a83b}
  9
$VERSIONGUID
  2
{FAEB1C32-E019-11D5-929B-00C0DF256EC4}
  9
$EXTNAMES
290
     1
  9
$PSVPSCALE
 40
0.0
  9
$OLESTARTUP
290
     0
  9
$SORTENTS
280
   127
  9
$INDEXCTL
280
     0
  9
$HIDETEXT
280
     1
  9
$XCLIPFRAME
290
     0
  9
$HALOGAP
280
     0
  9
$OBSCOLOR
 70
   257
  9
$OBSLTYPE
280
     0
  9
$INTERSECTIONDISPLAY
280
     0
  9
$INTERSECTIONCOLOR
 70
   257
  9
$DIMASSOC
280
     2
  9
$PROJECTNAME
  1

  9
$CAMERADISPLAY
290
     0
  9
$LENSLENGTH
 40
50.0
  9
$CAMERAHEIGHT
 40
0.0
  9
$STEPSPERSEC
 40
2.0
  9
$STEPSIZE
 40
6.0
  9
$3DDWFPREC
 40
2.0
  9
$PSOLWIDTH
 40
0.25
  9
$PSOLHEIGHT
 40
4.0
  9
$LOFTANG1
 40
1.570796326794897
  9
$LOFTANG2
 40
1.570796326794897
  9
$LOFTMAG1
 40
0.0
  9
$LOFTMAG2
 40
0.0
  9
$LOFTPARAM
 70
     7
  9
$LOFTNORMALS
280
     1
  9
$LATITUDE
 40
37.795
  9
$LONGITUDE
 40
-122.394
  9
$NORTHDIRECTION
 40
0.0
  9
$TIMEZONE
 70
 -8000
  9
$LIGHTGLYPHDISPLAY
280
     1
  9
$TILEMODELIGHTSYNCH
280
     1
  9
$CMATERIAL
347
44
  9
$SOLIDHIST
280
     0
  9
$SHOWHIST
280
     1
  9
$DWFFRAME
280
     2
  9
$DGNFRAME
280
     2
  9
$REALWORLDSCALE
290
     1
  9
$INTERFERECOLOR
 62
   256
  9
$CSHADOW
280
     0
  9
$SHADOWPLANELOCATION
 40
0.0
  0
ENDSEC
  0
SECTION
  2
CLASSES
  0
CLASS
  1
ACDBDICTIONARYWDFLT
  2
AcDbDictionaryWithDefault
  3
ObjectDBX Classes
 90
        0
 91
        3
280
     0
281
     0
  0
CLASS
  1
VISUALSTYLE
  2
AcDbVisualStyle
  3
ObjectDBX Classes
 90
     4095
 91
        3
280
     0
281
     0
  0
CLASS
  1
MATERIAL
  2
AcDbMaterial
  3
ObjectDBX Classes
 90
     1153
 91
        3
280
     0
281
     0
  0
CLASS
  1
SCALE
  2
AcDbScale
  3
ObjectDBX Classes
 90
     1153
 91
        3
280
     0
281
     0
  0
CLASS
  1
TABLESTYLE
  2
AcDbTableStyle
  3
ObjectDBX Classes
 90
     4095
 91
        3
280
     0
281
     0
  0
CLASS
  1
MLEADERSTYLE
  2
AcDbMLeaderStyle
  3
ACDB_MLEADERSTYLE_CLASS
 90
     4095
 91
        3
280
     0
281
     0
  0
CLASS
  1
SUN
  2
AcDbSun
  3
SCENEOE
 90
     1153
 91
        3
280
     0
281
     0
  0
CLASS
  1
DICTIONARYVAR
  2
AcDbDictionaryVar
  3
ObjectDBX Classes
 90
        0
 91
        3
280
     0
281
     0
  0
CLASS
  1
CELLSTYLEMAP
  2
AcDbCellStyleMap
  3
ObjectDBX Classes
 90
     1152
 91
        3
280
     0
281
     0
  0
ENDSEC
  0
SECTION
  2
TABLES
  0
TABLE
  2
VPORT
  5
8
330
0
100
AcDbSymbolTable
 70
     1
  0
VPORT
  5
29
330
8
100
AcDbSymbolTableRecord
100
AcDbViewportTableRecord
  2
*Active
 70
     0
 10
0.0
 20
0.0
 11
1.0
 21
1.0
 12
10.42990654205607
 22
4.5
 13
0.0
 23
0.0
 14
0.5
 24
0.5
 15
0.5
 25
0.5
 16
0.0
 26
0.0
 36
1.0
 17
0.0
 27
0.0
 37
0.0
 40
9.0
 41
1.972972972850329
 42
50.0
 43
0.0
 44
0.0
 50
0.0
 51
0.0
 71
     0
 72
   100
 73
     1
 74
     3
 75
     0
 76
     0
 77
     0
 78
     0
281
     0
 65
     1
110
0.0
120
0.0
130
0.0
111
1.0
121
0.0
131
0.0
112
0.0
122
1.0
132
0.0
 79
     0
146
0.0
348
2F
 60
     3
 61
     5
292
     1
282
     1
141
0.0
142
0.0
 63
   250
361
6D
  0
ENDTAB
  0
TABLE
  2
LTYPE
  5
5
330
0
100
AcDbSymbolTable
 70
     1
  0
LTYPE
  5
14
330
5
100
AcDbSymbolTableRecord
100
AcDbLinetypeTableRecord
  2
ByBlock
 70
     0
  3

 72
    65
 73
     0
 40
0.0
  0
LTYPE
  5
15
330
5
100
AcDbSymbolTableRecord
100
AcDbLinetypeTableRecord
  2
ByLayer
 70
     0
  3

 72
    65
 73
     0
 40
0.0
  0
LTYPE
  5
16
330
5
100
AcDbSymbolTableRecord
100
AcDbLinetypeTableRecord
  2
Continuous
 70
     0
  3
Solid line
 72
    65
 73
     0
 40
0.0
  0
ENDTAB
  0
TABLE
  2
LAYER
  5
2
330
0
100
AcDbSymbolTable
 70
     2
  0
LAYER
  5
10
330
2
100
AcDbSymbolTableRecord
100
AcDbLayerTableRecord
  2
0
 70
     0
 62
     7
  6
Continuous
370
    -3
390
F
347
46
  0
LAYER
  5
6F
330
2
100
AcDbSymbolTableRecord
100
AcDbLayerTableRecord
  2
Layer 1
 70
     0
 62
     7
  6
Continuous
370
    -3
390
F
347
46
  0
ENDTAB
  0
TABLE
  2
STYLE
  5
3
330
0
100
AcDbSymbolTable
 70
     1
  0
STYLE
  5
11
330
3
100
AcDbSymbolTableRecord
100
AcDbTextStyleTableRecord
  2
Standard
 70
     0
 40
0.0
 41
1.0
 50
0.0
 71
     0
 42
0.2
  3
txt
  4

  0
ENDTAB
  0
TABLE
  2
VIEW
  5
6
330
0
100
AcDbSymbolTable
 70
     0
  0
ENDTAB
  0
TABLE
  2
UCS
  5
7
330
0
100
AcDbSymbolTable
 70
     0
  0
ENDTAB
  0
TABLE
  2
APPID
  5
9
330
0
100
AcDbSymbolTable
 70
     3
  0
APPID
  5
12
330
9
100
AcDbSymbolTableRecord
100
AcDbRegAppTableRecord
  2
ACAD
 70
     0
  0
APPID
  5
6E
330
9
100
AcDbSymbolTableRecord
100
AcDbRegAppTableRecord
  2
ODA
 70
     0
  0
APPID
  5
BC
330
9
100
AcDbSymbolTableRecord
100
AcDbRegAppTableRecord
  2
ACAD_MLEADERVER
 70
     0
  0
ENDTAB
  0
TABLE
  2
DIMSTYLE
  5
A
330
0
100
AcDbSymbolTable
 70
     1
100
AcDbDimStyleTable
  0
DIMSTYLE
105
27
330
A
100
AcDbSymbolTableRecord
100
AcDbDimStyleTableRecord
  2
Standard
 70
     0
178
     0
340
11
  0
ENDTAB
  0
TABLE
  2
BLOCK_RECORD
  5
1
330
0
100
AcDbSymbolTable
 70
     1
  0
BLOCK_RECORD
  5
1F
330
1
100
AcDbSymbolTableRecord
100
AcDbBlockTableRecord
  2
*Model_Space
340
22
 70
     0
280
     1
281
     0
  0
BLOCK_RECORD
  5
1B
330
1
100
AcDbSymbolTableRecord
100
AcDbBlockTableRecord
  2
*Paper_Space
340
1E
 70
     0
280
     1
281
     0
  0
BLOCK_RECORD
  5
23
330
1
100
AcDbSymbolTableRecord
100
AcDbBlockTableRecord
  2
*Paper_Space0
340
26
 70
     0
280
     1
281
     0
  0
ENDTAB
  0
ENDSEC
  0
SECTION
  2
BLOCKS
  0
BLOCK
  5
20
330
1F
100
AcDbEntity
  8
0
100
AcDbBlockBegin
  2
*Model_Space
 70
     0
 10
0.0
 20
0.0
 30
0.0
  3
*Model_Space
  1

  0
ENDBLK
  5
21
330
1F
100
AcDbEntity
  8
0
100
AcDbBlockEnd
  0
BLOCK
  5
1C
330
1B
100
AcDbEntity
 67
     1
  8
0
100
AcDbBlockBegin
  2
*Paper_Space
 70
     0
 10
0.0
 20
0.0
 30
0.0
  3
*Paper_Space
  1

  0
ENDBLK
  5
1D
330
1B
100
AcDbEntity
 67
     1
  8
0
100
AcDbBlockEnd
  0
BLOCK
  5
24
330
23
100
AcDbEntity
  8
0
100
AcDbBlockBegin
  2
*Paper_Space0
 70
     0
 10
0.0
 20
0.0
 30
0.0
  3
*Paper_Space0
  1

  0
ENDBLK
  5
25
330
23
100
AcDbEntity
  8
0
100
AcDbBlockEnd
  0
ENDSEC
  0
SECTION
  2
ENTITIES
  0
SPLINE
  5
70
330
1F
100
AcDbEntity
  8
Layer 1
370
     9
100
AcDbSpline
210
0.0
220
0.0
230
1.0
 70
    11
 71
     3
 72
   200
 73
   196
 74
     0
 42
0.000000001
 43
0.0000000001
 40
0.0
 40
0.0
 40
0.0
 40
0.0
 40
0.02
 40
0.02
 40
0.02
 40
0.02
 40
0.04
 40
0.04
 40
0.04
 40
0.04
 40
0.06
 40
0.06
 40
0.06
 40
0.06
 40
0.08
 40
0.08
 40
0.08
 40
0.08
 40
0.1
 40
0.1
 40
0.1
 40
0.1
 40
0.12
 40
0.12
 40
0.12
 40
0.12
 40
0.14
 40
0.14
 40
0.14
 40
0.14
 40
0.16
 40
0.16
 40
0.16
 40
0.16
 40
0.18
 40
0.18
 40
0.18
 40
0.18
 40
0.2
 40
0.2
 40
0.2
 40
0.2
 40
0.22
 40
0.22
 40
0.22
 40
0.22
 40
0.24
 40
0.24
 40
0.24
 40
0.24
 40
0.26
 40
0.26
 40
0.26
 40
0.26
 40
0.28
 40
0.28
 40
0.28
 40
0.28
 40
0.3
 40
0.3
 40
0.3
 40
0.3
 40
0.32
 40
0.32
 40
0.32
 40
0.32
 40
0.34
 40
0.34
 40
0.34
 40
0.34
 40
0.36
 40
0.36
 40
0.36
 40
0.36
 40
0.38
 40
0.38
 40
0.38
 40
0.38
 40
0.4
 40
0.4
 40
0.4
 40
0.4
 40
0.42
 40
0.42
 40
0.42
 40
0.42
 40
0.44
 40
0.44
 40
0.44
 40
0.44
 40
0.46
 40
0.46
 40
0.46
 40
0.46
 40
0.48
 40
0.48
 40
0.48
 40
0.48
 40
0.5
 40
0.5
 40
0.5
 40
0.5
 40
0.52
 40
0.52
 40
0.52
 40
0.52
 40
0.54
 40
0.54
 40
0.54
 40
0.54
 40
0.56
 40
0.56
 40
0.56
 40
0.56
 40
0.58
 40
0.58
 40
0.58
 40
0.58
 40
0.6
 40
0.6
 40
0.6
 40
0.6
 40
0.62
 40
0.62
 40
0.62
 40
0.62
 40
0.64
 40
0.64
 40
0.64
 40
0.64
 40
0.66
 40
0.66
 40
0.66
 40
0.66
 40
0.68
 40
0.68
 40
0.68
 40
0.68
 40
0.7
 40
0.7
 40
0.7
 40
0.7
 40
0.72
 40
0.72
 40
0.72
 40
0.72
 40
0.74
 40
0.74
 40
0.74
 40
0.74
 40
0.76
 40
0.76
 40
0.76
 40
0.76
 40
0.78
 40
0.78
 40
0.78
 40
0.78
 40
0.8
 40
0.8
 40
0.8
 40
0.8
 40
0.82
 40
0.82
 40
0.82
 40
0.82
 40
0.84
 40
0.84
 40
0.84
 40
0.84
 40
0.86
 40
0.86
 40
0.86
 40
0.86
 40
0.88
 40
0.88
 40
0.88
 40
0.88
 40
0.9
 40
0.9
 40
0.9
 40
0.9
 40
0.92
 40
0.92
 40
0.92
 40
0.92
 40
0.94
 40
0.94
 40
0.94
 40
0.94
 40
0.96
 40
0.96
 40
0.96
 40
0.96
 40
1.0
 40
1.0
 40
1.0
 40
1.0
 10
-5.651720472440945
 20
4.130062992125985
 30
0.0
 10
-5.651720472440945
 20
4.130062992125985
 30
0.0
 10
-5.651720472440945
 20
4.323838582677165
 30
0.0
 10
-5.651720472440945
 20
4.323838582677165
 30
0.0
 10
-5.651720472440945
 20
4.323838582677165
 30
0.0
 10
-5.683299212598425
 20
4.355413385826772
 30
0.0
 10
-5.695629921259843
 20
4.40144094488189
 30
0.0
 10
-5.684074803149606
 20
4.44457874015748
 30
0.0
 10
-5.684074803149606
 20
4.44457874015748
 30
0.0
 10
-5.672515748031496
 20
4.487712598425197
 30
0.0
 10
-5.638822834645669
 20
4.521409448818898
 30
0.0
 10
-5.595685039370078
 20
4.532964566929134
 30
0.0
 10
-5.595685039370078
 20
4.532964566929134
 30
0.0
 10
-5.552547244094488
 20
4.544523622047244
 30
0.0
 10
-5.506523622047244
 20
4.532192913385827
 30
0.0
 10
-5.474944881889764
 20
4.500614173228347
 30
0.0
 10
-5.474944881889764
 20
4.500614173228347
 30
0.0
 10
-5.474944881889764
 20
4.500614173228347
 30
0.0
 10
-5.025688976377952
 20
4.500614173228347
 30
0.0
 10
-5.025688976377952
 20
4.500614173228347
 30
0.0
 10
-5.025688976377952
 20
4.500614173228347
 30
0.0
 10
-4.994110236220473
 20
4.532192913385827
 30
0.0
 10
-4.948086614173229
 20
4.544523622047244
 30
0.0
 10
-4.904948818897638
 20
4.532964566929134
 30
0.0
 10
-4.904948818897638
 20
4.532964566929134
 30
0.0
 10
-4.861811023622047
 20
4.521409448818898
 30
0.0
 10
-4.82811811023622
 20
4.487712598425197
 30
0.0
 10
-4.81655905511811
 20
4.44457874015748
 30
0.0
 10
-4.81655905511811
 20
4.44457874015748
 30
0.0
 10
-4.805
 20
4.40144094488189
 30
0.0
 10
-4.817334645669291
 20
4.355413385826772
 30
0.0
 10
-4.848913385826772
 20
4.323838582677165
 30
0.0
 10
-4.848913385826772
 20
4.323838582677165
 30
0.0
 10
-4.848913385826772
 20
4.323838582677165
 30
0.0
 10
-4.848913385826772
 20
4.130062992125985
 30
0.0
 10
-4.848913385826772
 20
4.130062992125985
 30
0.0
 10
-4.848913385826772
 20
4.130062992125985
 30
0.0
 10
-4.848913385826772
 20
4.130062992125985
 30
0.0
 10
-4.046102362204724
 20
4.130062992125985
 30
0.0
 10
-4.046102362204724
 20
4.130062992125985
 30
0.0
 10
-4.046102362204724
 20
4.130062992125985
 30
0.0
 10
-4.046102362204724
 20
4.130062992125985
 30
0.0
 10
-4.046102362204724
 20
5.036043307086614
 30
0.0
 10
-4.046102362204724
 20
5.036043307086614
 30
0.0
 10
-4.046102362204724
 20
5.036043307086614
 30
0.0
 10
-4.077681102362205
 20
5.067618110236221
 30
0.0
 10
-4.090015748031496
 20
5.113645669291339
 30
0.0
 10
-4.078456692913385
 20
5.156783464566929
 30
0.0
 10
-4.078456692913385
 20
5.156783464566929
 30
0.0
 10
-4.066897637795275
 20
5.199917322834645
 30
0.0
 10
-4.033204724409448
 20
5.233614173228347
 30
0.0
 10
-3.990066929133858
 20
5.245169291338582
 30
0.0
 10
-3.990066929133858
 20
5.245169291338582
 30
0.0
 10
-3.946933070866142
 20
5.256728346456693
 30
0.0
 10
-3.900905511811024
 20
5.244397637795275
 30
0.0
 10
-3.869326771653543
 20
5.212818897637796
 30
0.0
 10
-3.869326771653543
 20
5.212818897637796
 30
0.0
 10
-3.869326771653543
 20
5.212818897637796
 30
0.0
 10
-3.675551181102362
 20
5.212818897637796
 30
0.0
 10
-3.675551181102362
 20
5.212818897637796
 30
0.0
 10
-3.675551181102362
 20
5.212818897637796
 30
0.0
 10
-3.675551181102362
 20
5.212818897637796
 30
0.0
 10
-3.675551181102362
 20
5.90163779527559
 30
0.0
 10
-3.675551181102362
 20
5.90163779527559
 30
0.0
 10
-3.675551181102362
 20
5.90163779527559
 30
0.0
 10
-3.675551181102362
 20
5.90163779527559
 30
0.0
 10
-3.869326771653543
 20
5.90163779527559
 30
0.0
 10
-3.869326771653543
 20
5.90163779527559
 30
0.0
 10
-3.869326771653543
 20
5.90163779527559
 30
0.0
 10
-3.900905511811024
 20
5.87005905511811
 30
0.0
 10
-3.946933070866142
 20
5.857724409448819
 30
0.0
 10
-3.990066929133858
 20
5.869283464566929
 30
0.0
 10
-3.990066929133858
 20
5.869283464566929
 30
0.0
 10
-4.033204724409448
 20
5.880842519685039
 30
0.0
 10
-4.066897637795275
 20
5.914535433070866
 30
0.0
 10
-4.078456692913385
 20
5.957673228346457
 30
0.0
 10
-4.078456692913385
 20
5.957673228346457
 30
0.0
 10
-4.090015748031496
 20
6.000811023622047
 30
0.0
 10
-4.077681102362205
 20
6.046834645669291
 30
0.0
 10
-4.046102362204724
 20
6.078413385826772
 30
0.0
 10
-4.046102362204724
 20
6.078413385826772
 30
0.0
 10
-4.046102362204724
 20
6.078413385826772
 30
0.0
 10
-4.046102362204724
 20
6.272188976377953
 30
0.0
 10
-4.046102362204724
 20
6.272188976377953
 30
0.0
 10
-4.046102362204724
 20
6.272188976377953
 30
0.0
 10
-4.046102362204724
 20
6.272188976377953
 30
0.0
 10
-4.848834645669291
 20
6.272188976377953
 30
0.0
 10
-4.848834645669291
 20
6.272188976377953
 30
0.0
 10
-4.848834645669291
 20
6.272188976377953
 30
0.0
 10
-4.848834645669291
 20
6.272188976377953
 30
0.0
 10
-4.848834645669291
 20
6.078413385826772
 30
0.0
 10
-4.848834645669291
 20
6.078413385826772
 30
0.0
 10
-4.848834645669291
 20
6.078413385826772
 30
0.0
 10
-4.817255905511811
 20
6.046834645669291
 30
0.0
 10
-4.804921259842519
 20
6.000811023622047
 30
0.0
 10
-4.81648031496063
 20
5.957673228346457
 30
0.0
 10
-4.81648031496063
 20
5.957673228346457
 30
0.0
 10
-4.828039370078741
 20
5.914535433070866
 30
0.0
 10
-4.861732283464567
 20
5.880842519685039
 30
0.0
 10
-4.904870078740157
 20
5.869283464566929
 30
0.0
 10
-4.904870078740157
 20
5.869283464566929
 30
0.0
 10
-4.948007874015748
 20
5.857724409448819
 30
0.0
 10
-4.994031496062992
 20
5.87005905511811
 30
0.0
 10
-5.025610236220473
 20
5.90163779527559
 30
0.0
 10
-5.025610236220473
 20
5.90163779527559
 30
0.0
 10
-5.025610236220473
 20
5.90163779527559
 30
0.0
 10
-5.475102362204725
 20
5.90163779527559
 30
0.0
 10
-5.475102362204725
 20
5.90163779527559
 30
0.0
 10
-5.475102362204725
 20
5.90163779527559
 30
0.0
 10
-5.506681102362204
 20
5.87005905511811
 30
0.0
 10
-5.552704724409449
 20
5.857724409448819
 30
0.0
 10
-5.595842519685039
 20
5.869283464566929
 30
0.0
 10
-5.595842519685039
 20
5.869283464566929
 30
0.0
 10
-5.63898031496063
 20
5.880842519685039
 30
0.0
 10
-5.672673228346457
 20
5.914535433070866
 30
0.0
 10
-5.684232283464567
 20
5.957673228346457
 30
0.0
 10
-5.684232283464567
 20
5.957673228346457
 30
0.0
 10
-5.695787401574803
 20
6.000811023622047
 30
0.0
 10
-5.683456692913386
 20
6.046834645669291
 30
0.0
 10
-5.651877952755905
 20
6.078413385826772
 30
0.0
 10
-5.651877952755905
 20
6.078413385826772
 30
0.0
 10
-5.651877952755905
 20
6.078413385826772
 30
0.0
 10
-5.651877952755905
 20
6.272188976377953
 30
0.0
 10
-5.651877952755905
 20
6.272188976377953
 30
0.0
 10
-5.651877952755905
 20
6.272188976377953
 30
0.0
 10
-5.651877952755905
 20
6.272188976377953
 30
0.0
 10
-6.825157480314961
 20
6.272188976377953
 30
0.0
 10
-6.825157480314961
 20
6.272188976377953
 30
0.0
 10
-6.825157480314961
 20
6.272188976377953
 30
0.0
 10
-6.825157480314961
 20
6.272188976377953
 30
0.0
 10
-6.825157480314961
 20
5.901795275590551
 30
0.0
 10
-6.825157480314961
 20
5.901795275590551
 30
0.0
 10
-6.825157480314961
 20
5.901795275590551
 30
0.0
 10
-6.825157480314961
 20
5.901795275590551
 30
0.0
 10
-6.631385826771654
 20
5.901795275590551
 30
0.0
 10
-6.631385826771654
 20
5.901795275590551
 30
0.0
 10
-6.631385826771654
 20
5.901795275590551
 30
0.0
 10
-6.599807086614173
 20
5.933374015748032
 30
0.0
 10
-6.553779527559055
 20
5.945704724409449
 30
0.0
 10
-6.510645669291338
 20
5.934145669291339
 30
0.0
 10
-6.510645669291338
 20
5.934145669291339
 30
0.0
 10
-6.467507874015748
 20
5.922590551181102
 30
0.0
 10
-6.433814960629921
 20
5.888893700787402
 30
0.0
 10
-6.422255905511811
 20
5.845759842519685
 30
0.0
 10
-6.422255905511811
 20
5.845759842519685
 30
0.0
 10
-6.410696850393701
 20
5.802622047244094
 30
0.0
 10
-6.423031496062992
 20
5.756594488188976
 30
0.0
 10
-6.454606299212599
 20
5.72501968503937
 30
0.0
 10
-6.454606299212599
 20
5.72501968503937
 30
0.0
 10
-6.454606299212599
 20
5.72501968503937
 30
0.0
 10
-6.454606299212599
 20
5.389437007874016
 30
0.0
 10
-6.454606299212599
 20
5.389437007874016
 30
0.0
 10
-6.454606299212599
 20
5.389437007874016
 30
0.0
 10
-6.423031496062992
 20
5.357858267716535
 30
0.0
 10
-6.410696850393701
 20
5.311834645669292
 30
0.0
 10
-6.422255905511811
 20
5.268696850393701
 30
0.0
 10
-6.422255905511811
 20
5.268696850393701
 30
0.0
 10
-6.433814960629921
 20
5.225559055118111
 30
0.0
 10
-6.467507874015748
 20
5.191866141732284
 30
0.0
 10
-6.510645669291338
 20
5.180307086614174
 30
0.0
 10
-6.510645669291338
 20
5.180307086614174
 30
0.0
 10
-6.553779527559055
 20
5.168748031496063
 30
0.0
 10
-6.599807086614173
 20
5.181082677165354
 30
0.0
 10
-6.631385826771654
 20
5.212661417322835
 30
0.0
 10
-6.631385826771654
 20
5.212661417322835
 30
0.0
 10
-6.631385826771654
 20
5.212661417322835
 30
0.0
 10
-6.825157480314961
 20
5.212661417322835
 30
0.0
 10
-6.825157480314961
 20
5.212661417322835
 30
0.0
 10
-6.825157480314961
 20
5.212661417322835
 30
0.0
 10
-6.825157480314961
 20
5.212661417322835
 30
0.0
 10
-6.825157480314961
 20
4.500614173228347
 30
0.0
 10
-6.825157480314961
 20
4.500614173228347
 30
0.0
 10
-6.825157480314961
 20
4.500614173228347
 30
0.0
 10
-6.825157480314961
 20
4.500614173228347
 30
0.0
 10
-6.631385826771654
 20
4.500614173228347
 30
0.0
 10
-6.631385826771654
 20
4.500614173228347
 30
0.0
 10
-6.631385826771654
 20
4.500614173228347
 30
0.0
 10
-6.599807086614173
 20
4.532192913385827
 30
0.0
 10
-6.553779527559055
 20
4.544523622047244
 30
0.0
 10
-6.510645669291338
 20
4.532964566929134
 30
0.0
 10
-6.510645669291338
 20
4.532964566929134
 30
0.0
 10
-6.467507874015748
 20
4.521409448818898
 30
0.0
 10
-6.433814960629921
 20
4.487712598425197
 30
0.0
 10
-6.422255905511811
 20
4.44457874015748
 30
0.0
 10
-6.422255905511811
 20
4.44457874015748
 30
0.0
 10
-6.410696850393701
 20
4.40144094488189
 30
0.0
 10
-6.423031496062992
 20
4.355413385826772
 30
0.0
 10
-6.454606299212599
 20
4.323838582677165
 30
0.0
 10
-6.454606299212599
 20
4.323838582677165
 30
0.0
 10
-6.454606299212599
 20
4.323838582677165
 30
0.0
 10
-6.454606299212599
 20
4.130062992125985
 30
0.0
 10
-6.454606299212599
 20
4.130062992125985
 30
0.0
 10
-6.454606299212599
 20
4.130062992125985
 30
0.0
 10
-6.454606299212599
 20
4.130062992125985
 30
0.0
 10
-5.651720472440945
 20
4.130062992125985
 30
0.0
 10
-5.651720472440945
 20
4.130062992125985
 30
0.0
  0
SPLINE
  5
71
330
1F
100
AcDbEntity
  8
Layer 1
370
     9
100
AcDbSpline
210
0.0
220
0.0
230
1.0
 70
    11
 71
     3
 72
   200
 73
   196
 74
     0
 42
0.000000001
 43
0.0000000001
 40
0.0
 40
0.0
 40
0.0
 40
0.0
 40
0.02
 40
0.02
 40
0.02
 40
0.02
 40
0.04
 40
0.04
 40
0.04
 40
0.04
 40
0.06
 40
0.06
 40
0.06
 40
0.06
 40
0.08
 40
0.08
 40
0.08
 40
0.08
 40
0.1
 40
0.1
 40
0.1
 40
0.1
 40
0.12
 40
0.12
 40
0.12
 40
0.12
 40
0.14
 40
0.14
 40
0.14
 40
0.14
 40
0.16
 40
0.16
 40
0.16
 40
0.16
 40
0.18
 40
0.18
 40
0.18
 40
0.18
 40
0.2
 40
0.2
 40
0.2
 40
0.2
 40
0.22
 40
0.22
 40
0.22
 40
0.22
 40
0.24
 40
0.24
 40
0.24
 40
0.24
 40
0.26
 40
0.26
 40
0.26
 40
0.26
 40
0.28
 40
0.28
 40
0.28
 40
0.28
 40
0.3
 40
0.3
 40
0.3
 40
0.3
 40
0.32
 40
0.32
 40
0.32
 40
0.32
 40
0.34
 40
0.34
 40
0.34
 40
0.34
 40
0.36
 40
0.36
 40
0.36
 40
0.36
 40
0.38
 40
0.38
 40
0.38
 40
0.38
 40
0.4
 40
0.4
 40
0.4
 40
0.4
 40
0.42
 40
0.42
 40
0.42
 40
0.42
 40
0.44
 40
0.44
 40
0.44
 40
0.44
 40
0.46
 40
0.46
 40
0.46
 40
0.46
 40
0.48
 40
0.48
 40
0.48
 40
0.48
 40
0.5
 40
0.5
 40
0.5
 40
0.5
 40
0.52
 40
0.52
 40
0.52
 40
0.52
 40
0.54
 40
0.54
 40
0.54
 40
0.54
 40
0.56
 40
0.56
 40
0.56
 40
0.56
 40
0.58
 40
0.58
 40
0.58
 40
0.58
 40
0.6
 40
0.6
 40
0.6
 40
0.6
 40
0.62
 40
0.62
 40
0.62
 40
0.62
 40
0.64
 40
0.64
 40
0.64
 40
0.64
 40
0.66
 40
0.66
 40
0.66
 40
0.66
 40
0.68
 40
0.68
 40
0.68
 40
0.68
 40
0.7
 40
0.7
 40
0.7
 40
0.7
 40
0.72
 40
0.72
 40
0.72
 40
0.72
 40
0.74
 40
0.74
 40
0.74
 40
0.74
 40
0.76
 40
0.76
 40
0.76
 40
0.76
 40
0.78
 40
0.78
 40
0.78
 40
0.78
 40
0.8
 40
0.8
 40
0.8
 40
0.8
 40
0.82
 40
0.82
 40
0.82
 40
0.82
 40
0.84
 40
0.84
 40
0.84
 40
0.84
 40
0.86
 40
0.86
 40
0.86
 40
0.86
 40
0.88
 40
0.88
 40
0.88
 40
0.88
 40
0.9
 40
0.9
 40
0.9
 40
0.9
 40
0.92
 40
0.92
 40
0.92
 40
0.92
 40
0.94
 40
0.94
 40
0.94
 40
0.94
 40
0.96
 40
0.96
 40
0.96
 40
0.96
 40
1.0
 40
1.0
 40
1.0
 40
1.0
 10
-5.073657480314961
 20
8.736590551181102
 30
0.0
 10
-5.105236220472441
 20
8.705011811023622
 30
0.0
 10
-5.151263779527559
 20
8.69267716535433
 30
0.0
 10
-5.194397637795276
 20
8.70423622047244
 30
0.0
 10
-5.194397637795276
 20
8.70423622047244
 30
0.0
 10
-5.237535433070867
 20
8.715795275590551
 30
0.0
 10
-5.271228346456692
 20
8.749488188976377
 30
0.0
 10
-5.282787401574804
 20
8.792625984251968
 30
0.0
 10
-5.282787401574804
 20
8.792625984251968
 30
0.0
 10
-5.294346456692914
 20
8.835759842519685
 30
0.0
 10
-5.282011811023622
 20
8.881787401574803
 30
0.0
 10
-5.250433070866142
 20
8.913366141732283
 30
0.0
 10
-5.250433070866142
 20
8.913366141732283
 30
0.0
 10
-5.250433070866142
 20
8.913366141732283
 30
0.0
 10
-5.250433070866142
 20
9.107141732283464
 30
0.0
 10
-5.250433070866142
 20
9.107141732283464
 30
0.0
 10
-5.250433070866142
 20
9.107141732283464
 30
0.0
 10
-5.250433070866142
 20
9.107141732283464
 30
0.0
 10
-6.037677165354331
 20
9.107141732283464
 30
0.0
 10
-6.037677165354331
 20
9.107141732283464
 30
0.0
 10
-6.037677165354331
 20
9.107141732283464
 30
0.0
 10
-6.037677165354331
 20
9.107141732283464
 30
0.0
 10
-6.037677165354331
 20
8.913366141732283
 30
0.0
 10
-6.037677165354331
 20
8.913366141732283
 30
0.0
 10
-6.037677165354331
 20
8.913366141732283
 30
0.0
 10
-6.006102362204724
 20
8.881787401574803
 30
0.0
 10
-5.993767716535433
 20
8.835759842519685
 30
0.0
 10
-6.005326771653543
 20
8.792625984251968
 30
0.0
 10
-6.005326771653543
 20
8.792625984251968
 30
0.0
 10
-6.016885826771653
 20
8.749488188976377
 30
0.0
 10
-6.05057874015748
 20
8.715795275590551
 30
0.0
 10
-6.093716535433071
 20
8.70423622047244
 30
0.0
 10
-6.093716535433071
 20
8.70423622047244
 30
0.0
 10
-6.136850393700787
 20
8.69267716535433
 30
0.0
 10
-6.182877952755906
 20
8.705011811023622
 30
0.0
 10
-6.214456692913386
 20
8.736590551181102
 30
0.0
 10
-6.214456692913386
 20
8.736590551181102
 30
0.0
 10
-6.214456692913386
 20
8.736590551181102
 30
0.0
 10
-6.454606299212599
 20
8.736590551181102
 30
0.0
 10
-6.454606299212599
 20
8.736590551181102
 30
0.0
 10
-6.454606299212599
 20
8.736590551181102
 30
0.0
 10
-6.454606299212599
 20
8.736590551181102
 30
0.0
 10
-6.454606299212599
 20
8.224389763779527
 30
0.0
 10
-6.454606299212599
 20
8.224389763779527
 30
0.0
 10
-6.454606299212599
 20
8.224389763779527
 30
0.0
 10
-6.423031496062992
 20
8.192811023622047
 30
0.0
 10
-6.410696850393701
 20
8.14678346456693
 30
0.0
 10
-6.422255905511811
 20
8.103649606299212
 30
0.0
 10
-6.422255905511811
 20
8.103649606299212
 30
0.0
 10
-6.433814960629921
 20
8.060511811023622
 30
0.0
 10
-6.467507874015748
 20
8.026818897637796
 30
0.0
 10
-6.510645669291338
 20
8.015259842519685
 30
0.0
 10
-6.510645669291338
 20
8.015259842519685
 30
0.0
 10
-6.553779527559055
 20
8.003700787401575
 30
0.0
 10
-6.599807086614173
 20
8.016035433070867
 30
0.0
 10
-6.631385826771654
 20
8.047614173228347
 30
0.0
 10
-6.631385826771654
 20
8.047614173228347
 30
0.0
 10
-6.631385826771654
 20
8.047614173228347
 30
0.0
 10
-6.825157480314961
 20
8.047614173228347
 30
0.0
 10
-6.825157480314961
 20
8.047614173228347
 30
0.0
 10
-6.825157480314961
 20
8.047614173228347
 30
0.0
 10
-6.825157480314961
 20
8.047614173228347
 30
0.0
 10
-6.825157480314961
 20
7.335566929133858
 30
0.0
 10
-6.825157480314961
 20
7.335566929133858
 30
0.0
 10
-6.825157480314961
 20
7.335566929133858
 30
0.0
 10
-6.825157480314961
 20
7.335566929133858
 30
0.0
 10
-6.214535433070866
 20
7.335566929133858
 30
0.0
 10
-6.214535433070866
 20
7.335566929133858
 30
0.0
 10
-6.214535433070866
 20
7.335566929133858
 30
0.0
 10
-6.182956692913386
 20
7.367145669291339
 30
0.0
 10
-6.136929133858268
 20
7.379476377952756
 30
0.0
 10
-6.093795275590551
 20
7.367917322834646
 30
0.0
 10
-6.093795275590551
 20
7.367917322834646
 30
0.0
 10
-6.05065748031496
 20
7.356358267716535
 30
0.0
 10
-6.016964566929134
 20
7.322665354330709
 30
0.0
 10
-6.005405511811023
 20
7.279531496062992
 30
0.0
 10
-6.005405511811023
 20
7.279531496062992
 30
0.0
 10
-5.993846456692913
 20
7.236393700787402
 30
0.0
 10
-6.006181102362205
 20
7.190366141732284
 30
0.0
 10
-6.037755905511811
 20
7.158787401574803
 30
0.0
 10
-6.037755905511811
 20
7.158787401574803
 30
0.0
 10
-6.037755905511811
 20
7.158787401574803
 30
0.0
 10
-6.037755905511811
 20
6.965015748031496
 30
0.0
 10
-6.037755905511811
 20
6.965015748031496
 30
0.0
 10
-6.037755905511811
 20
6.965015748031496
 30
0.0
 10
-6.037755905511811
 20
6.965015748031496
 30
0.0
 10
-5.250354330708661
 20
6.965015748031496
 30
0.0
 10
-5.250354330708661
 20
6.965015748031496
 30
0.0
 10
-5.250354330708661
 20
6.965015748031496
 30
0.0
 10
-5.250354330708661
 20
6.965015748031496
 30
0.0
 10
-5.250354330708661
 20
7.158787401574803
 30
0.0
 10
-5.250354330708661
 20
7.158787401574803
 30
0.0
 10
-5.250354330708661
 20
7.158787401574803
 30
0.0
 10
-5.281933070866142
 20
7.190366141732284
 30
0.0
 10
-5.294267716535433
 20
7.236393700787402
 30
0.0
 10
-5.282708661417323
 20
7.279531496062992
 30
0.0
 10
-5.282708661417323
 20
7.279531496062992
 30
0.0
 10
-5.271149606299213
 20
7.322665354330709
 30
0.0
 10
-5.237456692913386
 20
7.356358267716535
 30
0.0
 10
-5.194318897637795
 20
7.367917322834646
 30
0.0
 10
-5.194318897637795
 20
7.367917322834646
 30
0.0
 10
-5.151185039370079
 20
7.379476377952756
 30
0.0
 10
-5.10515748031496
 20
7.367145669291339
 30
0.0
 10
-5.073578740157481
 20
7.335566929133858
 30
0.0
 10
-5.073578740157481
 20
7.335566929133858
 30
0.0
 10
-5.073578740157481
 20
7.335566929133858
 30
0.0
 10
-4.639732283464567
 20
7.335566929133858
 30
0.0
 10
-4.639732283464567
 20
7.335566929133858
 30
0.0
 10
-4.639732283464567
 20
7.335566929133858
 30
0.0
 10
-4.608153543307087
 20
7.367145669291339
 30
0.0
 10
-4.562125984251969
 20
7.379476377952756
 30
0.0
 10
-4.518992125984252
 20
7.367917322834646
 30
0.0
 10
-4.518992125984252
 20
7.367917322834646
 30
0.0
 10
-4.475854330708661
 20
7.356358267716535
 30
0.0
 10
-4.442161417322835
 20
7.322665354330709
 30
0.0
 10
-4.430602362204724
 20
7.279531496062992
 30
0.0
 10
-4.430602362204724
 20
7.279531496062992
 30
0.0
 10
-4.419043307086614
 20
7.236393700787402
 30
0.0
 10
-4.431377952755906
 20
7.190366141732284
 30
0.0
 10
-4.462952755905512
 20
7.158787401574803
 30
0.0
 10
-4.462952755905512
 20
7.158787401574803
 30
0.0
 10
-4.462952755905512
 20
7.158787401574803
 30
0.0
 10
-4.462952755905512
 20
6.965015748031496
 30
0.0
 10
-4.462952755905512
 20
6.965015748031496
 30
0.0
 10
-4.462952755905512
 20
6.965015748031496
 30
0.0
 10
-4.462952755905512
 20
6.965015748031496
 30
0.0
 10
-3.675551181102362
 20
6.965015748031496
 30
0.0
 10
-3.675551181102362
 20
6.965015748031496
 30
0.0
 10
-3.675551181102362
 20
6.965015748031496
 30
0.0
 10
-3.675551181102362
 20
6.965015748031496
 30
0.0
 10
-3.675551181102362
 20
8.047614173228347
 30
0.0
 10
-3.675551181102362
 20
8.047614173228347
 30
0.0
 10
-3.675551181102362
 20
8.047614173228347
 30
0.0
 10
-3.675551181102362
 20
8.047614173228347
 30
0.0
 10
-3.869326771653543
 20
8.047614173228347
 30
0.0
 10
-3.869326771653543
 20
8.047614173228347
 30
0.0
 10
-3.869326771653543
 20
8.047614173228347
 30
0.0
 10
-3.900905511811024
 20
8.016035433070867
 30
0.0
 10
-3.946933070866142
 20
8.003700787401575
 30
0.0
 10
-3.990066929133858
 20
8.015259842519685
 30
0.0
 10
-3.990066929133858
 20
8.015259842519685
 30
0.0
 10
-4.033204724409448
 20
8.026818897637796
 30
0.0
 10
-4.066897637795275
 20
8.060511811023622
 30
0.0
 10
-4.078456692913385
 20
8.103649606299212
 30
0.0
 10
-4.078456692913385
 20
8.103649606299212
 30
0.0
 10
-4.090015748031496
 20
8.14678346456693
 30
0.0
 10
-4.077681102362205
 20
8.192811023622047
 30
0.0
 10
-4.046102362204724
 20
8.224389763779527
 30
0.0
 10
-4.046102362204724
 20
8.224389763779527
 30
0.0
 10
-4.046102362204724
 20
8.224389763779527
 30
0.0
 10
-4.046102362204724
 20
8.559968503937007
 30
0.0
 10
-4.046102362204724
 20
8.559968503937007
 30
0.0
 10
-4.046102362204724
 20
8.559968503937007
 30
0.0
 10
-4.077681102362205
 20
8.591547244094489
 30
0.0
 10
-4.090015748031496
 20
8.637574803149606
 30
0.0
 10
-4.078456692913385
 20
8.680712598425197
 30
0.0
 10
-4.078456692913385
 20
8.680712598425197
 30
0.0
 10
-4.066897637795275
 20
8.723846456692913
 30
0.0
 10
-4.033204724409448
 20
8.75753937007874
 30
0.0
 10
-3.990066929133858
 20
8.76909842519685
 30
0.0
 10
-3.990066929133858
 20
8.76909842519685
 30
0.0
 10
-3.946933070866142
 20
8.78065748031496
 30
0.0
 10
-3.900905511811024
 20
8.768326771653543
 30
0.0
 10
-3.869326771653543
 20
8.736748031496063
 30
0.0
 10
-3.869326771653543
 20
8.736748031496063
 30
0.0
 10
-3.869326771653543
 20
8.736748031496063
 30
0.0
 10
-3.675551181102362
 20
8.736748031496063
 30
0.0
 10
-3.675551181102362
 20
8.736748031496063
 30
0.0
 10
-3.675551181102362
 20
8.736748031496063
 30
0.0
 10
-3.675551181102362
 20
8.736748031496063
 30
0.0
 10
-3.675551181102362
 20
9.107141732283464
 30
0.0
 10
-3.675551181102362
 20
9.107141732283464
 30
0.0
 10
-3.675551181102362
 20
9.107141732283464
 30
0.0
 10
-3.675551181102362
 20
9.107141732283464
 30
0.0
 10
-4.462874015748032
 20
9.107141732283464
 30
0.0
 10
-4.462874015748032
 20
9.107141732283464
 30
0.0
 10
-4.462874015748032
 20
9.107141732283464
 30
0.0
 10
-4.462874015748032
 20
9.107141732283464
 30
0.0
 10
-4.462874015748032
 20
8.913366141732283
 30
0.0
 10
-4.462874015748032
 20
8.913366141732283
 30
0.0
 10
-4.462874015748032
 20
8.913366141732283
 30
0.0
 10
-4.431299212598425
 20
8.881787401574803
 30
0.0
 10
-4.418964566929134
 20
8.835759842519685
 30
0.0
 10
-4.430523622047244
 20
8.792625984251968
 30
0.0
 10
-4.430523622047244
 20
8.792625984251968
 30
0.0
 10
-4.442082677165354
 20
8.749488188976377
 30
0.0
 10
-4.475775590551181
 20
8.715795275590551
 30
0.0
 10
-4.518913385826772
 20
8.70423622047244
 30
0.0
 10
-4.518913385826772
 20
8.70423622047244
 30
0.0
 10
-4.562047244094488
 20
8.69267716535433
 30
0.0
 10
-4.608074803149607
 20
8.705011811023622
 30
0.0
 10
-4.639653543307086
 20
8.736590551181102
 30
0.0
 10
-4.639653543307086
 20
8.736590551181102
 30
0.0
 10
-4.639653543307086
 20
8.736590551181102
 30
0.0
 10
-5.073657480314961
 20
8.736590551181102
 30
0.0
 10
-5.073657480314961
 20
8.736590551181102
 30
0.0
  0
SPLINE
  5
72
330
1F
100
AcDbEntity
  8
Layer 1
370
     9
100
AcDbSpline
210
0.0
220
0.0
230
1.0
 70
    11
 71
     3
 72
   204
 73
   200
 74
     0
 42
0.000000001
 43
0.0000000001
 40
0.0
 40
0.0
 40
0.0
 40
0.0
 40
0.0196078431372549
 40
0.0196078431372549
 40
0.0196078431372549
 40
0.0196078431372549
 40
0.0392156862745098
 40
0.0392156862745098
 40
0.0392156862745098
 40
0.0392156862745098
 40
0.0588235294117647
 40
0.0588235294117647
 40
0.0588235294117647
 40
0.0588235294117647
 40
0.0784313725490196
 40
0.0784313725490196
 40
0.0784313725490196
 40
0.0784313725490196
 40
0.0980392156862745
 40
0.0980392156862745
 40
0.0980392156862745
 40
0.0980392156862745
 40
0.1176470588235294
 40
0.1176470588235294
 40
0.1176470588235294
 40
0.1176470588235294
 40
0.1372549019607843
 40
0.1372549019607843
 40
0.1372549019607843
 40
0.1372549019607843
 40
0.1568627450980392
 40
0.1568627450980392
 40
0.1568627450980392
 40
0.1568627450980392
 40
0.1764705882352941
 40
0.1764705882352941
 40
0.1764705882352941
 40
0.1764705882352941
 40
0.196078431372549
 40
0.196078431372549
 40
0.196078431372549
 40
0.196078431372549
 40
0.2156862745098039
 40
0.2156862745098039
 40
0.2156862745098039
 40
0.2156862745098039
 40
0.2352941176470588
 40
0.2352941176470588
 40
0.2352941176470588
 40
0.2352941176470588
 40
0.2549019607843137
 40
0.2549019607843137
 40
0.2549019607843137
 40
0.2549019607843137
 40
0.2745098039215687
 40
0.2745098039215687
 40
0.2745098039215687
 40
0.2745098039215687
 40
0.2941176470588235
 40
0.2941176470588235
 40
0.2941176470588235
 40
0.2941176470588235
 40
0.3137254901960784
 40
0.3137254901960784
 40
0.3137254901960784
 40
0.3137254901960784
 40
0.3333333333333333
 40
0.3333333333333333
 40
0.3333333333333333
 40
0.3333333333333333
 40
0.3529411764705883
 40
0.3529411764705883
 40
0.3529411764705883
 40
0.3529411764705883
 40
0.3725490196078431
 40
0.3725490196078431
 40
0.3725490196078431
 40
0.3725490196078431
 40
0.392156862745098
 40
0.392156862745098
 40
0.392156862745098
 40
0.392156862745098
 40
0.4117647058823529
 40
0.4117647058823529
 40
0.4117647058823529
 40
0.4117647058823529
 40
0.4313725490196079
 40
0.4313725490196079
 40
0.4313725490196079
 40
0.4313725490196079
 40
0.4509803921568628
 40
0.4509803921568628
 40
0.4509803921568628
 40
0.4509803921568628
 40
0.4705882352941176
 40
0.4705882352941176
 40
0.4705882352941176
 40
0.4705882352941176
 40
0.4901960784313725
 40
0.4901960784313725
 40
0.4901960784313725
 40
0.4901960784313725
 40
0.5098039215686274
 40
0.5098039215686274
 40
0.5098039215686274
 40
0.5098039215686274
 40
0.5294117647058824
 40
0.5294117647058824
 40
0.5294117647058824
 40
0.5294117647058824
 40
0.5490196078431373
 40
0.5490196078431373
 40
0.5490196078431373
 40
0.5490196078431373
 40
0.5686274509803921
 40
0.5686274509803921
 40
0.5686274509803921
 40
0.5686274509803921
 40
0.5882352941176471
 40
0.5882352941176471
 40
0.5882352941176471
 40
0.5882352941176471
 40
0.6078431372549019
 40
0.6078431372549019
 40
0.6078431372549019
 40
0.6078431372549019
 40
0.6274509803921569
 40
0.6274509803921569
 40
0.6274509803921569
 40
0.6274509803921569
 40
0.6470588235294118
 40
0.6470588235294118
 40
0.6470588235294118
 40
0.6470588235294118
 40
0.6666666666666666
 40
0.6666666666666666
 40
0.6666666666666666
 40
0.6666666666666666
 40
0.6862745098039216
 40
0.6862745098039216
 40
0.6862745098039216
 40
0.6862745098039216
 40
0.7058823529411765
 40
0.7058823529411765
 40
0.7058823529411765
 40
0.7058823529411765
 40
0.7254901960784313
 40
0.7254901960784313
 40
0.7254901960784313
 40
0.7254901960784313
 40
0.7450980392156863
 40
0.7450980392156863
 40
0.7450980392156863
 40
0.7450980392156863
 40
0.7647058823529411
 40
0.7647058823529411
 40
0.7647058823529411
 40
0.7647058823529411
 40
0.7843137254901961
 40
0.7843137254901961
 40
0.7843137254901961
 40
0.7843137254901961
 40
0.803921568627451
 40
0.803921568627451
 40
0.803921568627451
 40
0.803921568627451
 40
0.8235294117647058
 40
0.8235294117647058
 40
0.8235294117647058
 40
0.8235294117647058
 40
0.8431372549019608
 40
0.8431372549019608
 40
0.8431372549019608
 40
0.8431372549019608
 40
0.8627450980392157
 40
0.8627450980392157
 40
0.8627450980392157
 40
0.8627450980392157
 40
0.8823529411764706
 40
0.8823529411764706
 40
0.8823529411764706
 40
0.8823529411764706
 40
0.9019607843137255
 40
0.9019607843137255
 40
0.9019607843137255
 40
0.9019607843137255
 40
0.9215686274509803
 40
0.9215686274509803
 40
0.9215686274509803
 40
0.9215686274509803
 40
0.9411764705882353
 40
0.9411764705882353
 40
0.9411764705882353
 40
0.9411764705882353
 40
0.9607843137254902
 40
0.9607843137254902
 40
0.9607843137254902
 40
0.9607843137254902
 40
1.0
 40
1.0
 40
1.0
 40
1.0
 10
-1.35307874015748
 20
6.352858267716536
 30
0.0
 10
-1.35307874015748
 20
6.352858267716536
 30
0.0
 10
-1.35307874015748
 20
6.159161417322835
 30
0.0
 10
-1.35307874015748
 20
6.159161417322835
 30
0.0
 10
-1.35307874015748
 20
6.159161417322835
 30
0.0
 10
-1.329629921259843
 20
6.135712598425197
 30
0.0
 10
-1.31646062992126
 20
6.103909448818897
 30
0.0
 10
-1.316468503937008
 20
6.070748031496063
 30
0.0
 10
-1.316468503937008
 20
6.070748031496063
 30
0.0
 10
-1.316476377952756
 20
6.037586614173228
 30
0.0
 10
-1.329661417322835
 20
6.005783464566929
 30
0.0
 10
-1.35311811023622
 20
5.982346456692913
 30
0.0
 10
-1.35311811023622
 20
5.982346456692913
 30
0.0
 10
-1.37655905511811
 20
5.958885826771653
 30
0.0
 10
-1.408358267716535
 20
5.945704724409449
 30
0.0
 10
-1.44151968503937
 20
5.945696850393701
 30
0.0
 10
-1.44151968503937
 20
5.945696850393701
 30
0.0
 10
-1.474681102362205
 20
5.945688976377952
 30
0.0
 10
-1.506488188976378
 20
5.958858267716535
 30
0.0
 10
-1.529937007874016
 20
5.982307086614173
 30
0.0
 10
-1.529937007874016
 20
5.982307086614173
 30
0.0
 10
-1.529937007874016
 20
5.982307086614173
 30
0.0
 10
-1.963862204724409
 20
5.982307086614173
 30
0.0
 10
-1.963862204724409
 20
5.982307086614173
 30
0.0
 10
-1.963862204724409
 20
5.982307086614173
 30
0.0
 10
-1.99544094488189
 20
5.950728346456693
 30
0.0
 10
-2.041468503937008
 20
5.938397637795275
 30
0.0
 10
-2.084602362204724
 20
5.949956692913386
 30
0.0
 10
-2.084602362204724
 20
5.949956692913386
 30
0.0
 10
-2.127740157480315
 20
5.961511811023622
 30
0.0
 10
-2.161433070866142
 20
5.995204724409449
 30
0.0
 10
-2.172992125984252
 20
6.038342519685039
 30
0.0
 10
-2.172992125984252
 20
6.038342519685039
 30
0.0
 10
-2.184551181102362
 20
6.08148031496063
 30
0.0
 10
-2.172216535433071
 20
6.127503937007874
 30
0.0
 10
-2.140637795275591
 20
6.159082677165355
 30
0.0
 10
-2.140637795275591
 20
6.159082677165355
 30
0.0
 10
-2.140637795275591
 20
6.159082677165355
 30
0.0
 10
-2.140637795275591
 20
6.352858267716536
 30
0.0
 10
-2.140637795275591
 20
6.352858267716536
 30
0.0
 10
-2.140637795275591
 20
6.352858267716536
 30
0.0
 10
-2.140637795275591
 20
6.352858267716536
 30
0.0
 10
-2.92796062992126
 20
6.352858267716536
 30
0.0
 10
-2.92796062992126
 20
6.352858267716536
 30
0.0
 10
-2.92796062992126
 20
6.352858267716536
 30
0.0
 10
-2.92796062992126
 20
6.352858267716536
 30
0.0
 10
-2.92796062992126
 20
5.293488188976378
 30
0.0
 10
-2.92796062992126
 20
5.293488188976378
 30
0.0
 10
-2.92796062992126
 20
5.293488188976378
 30
0.0
 10
-2.92796062992126
 20
5.293488188976378
 30
0.0
 10
-2.734188976377953
 20
5.293488188976378
 30
0.0
 10
-2.734188976377953
 20
5.293488188976378
 30
0.0
 10
-2.734188976377953
 20
5.293488188976378
 30
0.0
 10
-2.702610236220472
 20
5.325066929133858
 30
0.0
 10
-2.656582677165354
 20
5.337397637795275
 30
0.0
 10
-2.613444881889764
 20
5.32584251968504
 30
0.0
 10
-2.613444881889764
 20
5.32584251968504
 30
0.0
 10
-2.570311023622047
 20
5.314283464566929
 30
0.0
 10
-2.53661811023622
 20
5.280590551181103
 30
0.0
 10
-2.52505905511811
 20
5.237452755905512
 30
0.0
 10
-2.52505905511811
 20
5.237452755905512
 30
0.0
 10
-2.5135
 20
5.194314960629921
 30
0.0
 10
-2.525834645669292
 20
5.148291338582677
 30
0.0
 10
-2.557409448818897
 20
5.116712598425197
 30
0.0
 10
-2.557409448818897
 20
5.116712598425197
 30
0.0
 10
-2.557409448818897
 20
5.116712598425197
 30
0.0
 10
-2.557409448818897
 20
4.757901574803149
 30
0.0
 10
-2.557409448818897
 20
4.757901574803149
 30
0.0
 10
-2.557409448818897
 20
4.757901574803149
 30
0.0
 10
-2.525834645669292
 20
4.72632283464567
 30
0.0
 10
-2.5135
 20
4.680299212598425
 30
0.0
 10
-2.52505905511811
 20
4.637161417322835
 30
0.0
 10
-2.52505905511811
 20
4.637161417322835
 30
0.0
 10
-2.53661811023622
 20
4.594023622047244
 30
0.0
 10
-2.570311023622047
 20
4.560330708661417
 30
0.0
 10
-2.613444881889764
 20
4.548775590551181
 30
0.0
 10
-2.613444881889764
 20
4.548775590551181
 30
0.0
 10
-2.656582677165354
 20
4.537216535433071
 30
0.0
 10
-2.702610236220472
 20
4.549547244094488
 30
0.0
 10
-2.734188976377953
 20
4.581125984251969
 30
0.0
 10
-2.734188976377953
 20
4.581125984251969
 30
0.0
 10
-2.734188976377953
 20
4.581125984251969
 30
0.0
 10
-2.92796062992126
 20
4.581125984251969
 30
0.0
 10
-2.92796062992126
 20
4.581125984251969
 30
0.0
 10
-2.92796062992126
 20
4.581125984251969
 30
0.0
 10
-2.92796062992126
 20
4.581125984251969
 30
0.0
 10
-2.92796062992126
 20
4.210732283464567
 30
0.0
 10
-2.92796062992126
 20
4.210732283464567
 30
0.0
 10
-2.92796062992126
 20
4.210732283464567
 30
0.0
 10
-2.92796062992126
 20
4.210732283464567
 30
0.0
 10
-2.14055905511811
 20
4.210732283464567
 30
0.0
 10
-2.14055905511811
 20
4.210732283464567
 30
0.0
 10
-2.14055905511811
 20
4.210732283464567
 30
0.0
 10
-2.14055905511811
 20
4.210732283464567
 30
0.0
 10
-2.14055905511811
 20
4.404507874015748
 30
0.0
 10
-2.14055905511811
 20
4.404507874015748
 30
0.0
 10
-2.14055905511811
 20
4.404507874015748
 30
0.0
 10
-2.17213779527559
 20
4.436086614173228
 30
0.0
 10
-2.184472440944882
 20
4.482110236220472
 30
0.0
 10
-2.172913385826772
 20
4.525248031496063
 30
0.0
 10
-2.172913385826772
 20
4.525248031496063
 30
0.0
 10
-2.161354330708662
 20
4.568385826771654
 30
0.0
 10
-2.127661417322835
 20
4.602078740157481
 30
0.0
 10
-2.084523622047244
 20
4.613637795275591
 30
0.0
 10
-2.084523622047244
 20
4.613637795275591
 30
0.0
 10
-2.041389763779528
 20
4.625192913385827
 30
0.0
 10
-1.99536220472441
 20
4.61286220472441
 30
0.0
 10
-1.963783464566929
 20
4.581283464566929
 30
0.0
 10
-1.963783464566929
 20
4.581283464566929
 30
0.0
 10
-1.963783464566929
 20
4.581283464566929
 30
0.0
 10
-1.529937007874016
 20
4.581283464566929
 30
0.0
 10
-1.529937007874016
 20
4.581283464566929
 30
0.0
 10
-1.529937007874016
 20
4.581283464566929
 30
0.0
 10
-1.498358267716535
 20
4.61286220472441
 30
0.0
 10
-1.452330708661417
 20
4.625192913385827
 30
0.0
 10
-1.409192913385827
 20
4.613637795275591
 30
0.0
 10
-1.409192913385827
 20
4.613637795275591
 30
0.0
 10
-1.36605905511811
 20
4.602078740157481
 30
0.0
 10
-1.332366141732283
 20
4.568385826771654
 30
0.0
 10
-1.320807086614173
 20
4.525248031496063
 30
0.0
 10
-1.320807086614173
 20
4.525248031496063
 30
0.0
 10
-1.309248031496063
 20
4.482110236220472
 30
0.0
 10
-1.321582677165354
 20
4.436086614173228
 30
0.0
 10
-1.353157480314961
 20
4.404507874015748
 30
0.0
 10
-1.353157480314961
 20
4.404507874015748
 30
0.0
 10
-1.353157480314961
 20
4.404507874015748
 30
0.0
 10
-1.353157480314961
 20
4.210732283464567
 30
0.0
 10
-1.353157480314961
 20
4.210732283464567
 30
0.0
 10
-1.353157480314961
 20
4.210732283464567
 30
0.0
 10
-1.353157480314961
 20
4.210732283464567
 30
0.0
 10
-0.565755905511811
 20
4.210732283464567
 30
0.0
 10
-0.565755905511811
 20
4.210732283464567
 30
0.0
 10
-0.565755905511811
 20
4.210732283464567
 30
0.0
 10
-0.565755905511811
 20
4.210732283464567
 30
0.0
 10
-0.565755905511811
 20
4.404507874015748
 30
0.0
 10
-0.565755905511811
 20
4.404507874015748
 30
0.0
 10
-0.565755905511811
 20
4.404507874015748
 30
0.0
 10
-0.5973346456692913
 20
4.436086614173228
 30
0.0
 10
-0.6096692913385827
 20
4.482110236220472
 30
0.0
 10
-0.5981102362204724
 20
4.525248031496063
 30
0.0
 10
-0.5981102362204724
 20
4.525248031496063
 30
0.0
 10
-0.5865511811023622
 20
4.568385826771654
 30
0.0
 10
-0.5528582677165355
 20
4.602078740157481
 30
0.0
 10
-0.5097204724409449
 20
4.613637795275591
 30
0.0
 10
-0.5097204724409449
 20
4.613637795275591
 30
0.0
 10
-0.4665866141732283
 20
4.625192913385827
 30
0.0
 10
-0.4205590551181103
 20
4.61286220472441
 30
0.0
 10
-0.3889803149606299
 20
4.581283464566929
 30
0.0
 10
-0.3889803149606299
 20
4.581283464566929
 30
0.0
 10
-0.3889803149606299
 20
4.581283464566929
 30
0.0
 10
-0.1489055118110236
 20
4.581283464566929
 30
0.0
 10
-0.1489055118110236
 20
4.581283464566929
 30
0.0
 10
-0.1489055118110236
 20
4.581283464566929
 30
0.0
 10
-0.1489055118110236
 20
4.581283464566929
 30
0.0
 10
-0.1489055118110236
 20
5.116712598425197
 30
0.0
 10
-0.1489055118110236
 20
5.116712598425197
 30
0.0
 10
-0.1489055118110236
 20
5.116712598425197
 30
0.0
 10
-0.1804842519685039
 20
5.148291338582677
 30
0.0
 10
-0.1928188976377953
 20
5.194314960629921
 30
0.0
 10
-0.181259842519685
 20
5.237452755905512
 30
0.0
 10
-0.181259842519685
 20
5.237452755905512
 30
0.0
 10
-0.1697007874015748
 20
5.280590551181103
 30
0.0
 10
-0.136007874015748
 20
5.314283464566929
 30
0.0
 10
-0.0928700787401575
 20
5.32584251968504
 30
0.0
 10
-0.0928700787401575
 20
5.32584251968504
 30
0.0
 10
-0.0497362204724409
 20
5.337397637795275
 30
0.0
 10
-0.0037086614173228
 20
5.325066929133858
 30
0.0
 10
0.0278700787401575
 20
5.293488188976378
 30
0.0
 10
0.0278700787401575
 20
5.293488188976378
 30
0.0
 10
0.0278700787401575
 20
5.293488188976378
 30
0.0
 10
0.2216456692913386
 20
5.293488188976378
 30
0.0
 10
0.2216456692913386
 20
5.293488188976378
 30
0.0
 10
0.2216456692913386
 20
5.293488188976378
 30
0.0
 10
0.2216456692913386
 20
5.293488188976378
 30
0.0
 10
0.2216456692913386
 20
5.982307086614173
 30
0.0
 10
0.2216456692913386
 20
5.982307086614173
 30
0.0
 10
0.2216456692913386
 20
5.982307086614173
 30
0.0
 10
0.2216456692913386
 20
5.982307086614173
 30
0.0
 10
-0.3890590551181102
 20
5.982307086614173
 30
0.0
 10
-0.3890590551181102
 20
5.982307086614173
 30
0.0
 10
-0.3890590551181102
 20
5.982307086614173
 30
0.0
 10
-0.4206377952755905
 20
5.950728346456693
 30
0.0
 10
-0.4666653543307087
 20
5.938397637795275
 30
0.0
 10
-0.5097992125984252
 20
5.949956692913386
 30
0.0
 10
-0.5097992125984252
 20
5.949956692913386
 30
0.0
 10
-0.5529370078740158
 20
5.961511811023622
 30
0.0
 10
-0.5866299212598425
 20
5.995204724409449
 30
0.0
 10
-0.5981889763779528
 20
6.038342519685039
 30
0.0
 10
-0.5981889763779528
 20
6.038342519685039
 30
0.0
 10
-0.6097480314960629
 20
6.08148031496063
 30
0.0
 10
-0.5974133858267716
 20
6.127503937007874
 30
0.0
 10
-0.5658346456692913
 20
6.159082677165355
 30
0.0
 10
-0.5658346456692913
 20
6.159082677165355
 30
0.0
 10
-0.5658346456692913
 20
6.159082677165355
 30
0.0
 10
-0.5658346456692913
 20
6.352858267716536
 30
0.0
 10
-0.5658346456692913
 20
6.352858267716536
 30
0.0
 10
-0.5658346456692913
 20
6.352858267716536
 30
0.0
 10
-0.5658346456692913
 20
6.352858267716536
 30
0.0
 10
-1.35307874015748
 20
6.352858267716536
 30
0.0
 10
-1.35307874015748
 20
6.352858267716536
 30
0.0
  0
SPLINE
  5
73
330
1F
100
AcDbEntity
  8
Layer 1
370
     9
100
AcDbSpline
210
0.0
220
0.0
230
1.0
 70
    11
 71
     3
 72
   140
 73
   136
 74
     0
 42
0.000000001
 43
0.0000000001
 40
0.0
 40
0.0
 40
0.0
 40
0.0
 40
0.0285714285714286
 40
0.0285714285714286
 40
0.0285714285714286
 40
0.0285714285714286
 40
0.0571428571428571
 40
0.0571428571428571
 40
0.0571428571428571
 40
0.0571428571428571
 40
0.0857142857142857
 40
0.0857142857142857
 40
0.0857142857142857
 40
0.0857142857142857
 40
0.1142857142857143
 40
0.1142857142857143
 40
0.1142857142857143
 40
0.1142857142857143
 40
0.1428571428571428
 40
0.1428571428571428
 40
0.1428571428571428
 40
0.1428571428571428
 40
0.1714285714285714
 40
0.1714285714285714
 40
0.1714285714285714
 40
0.1714285714285714
 40
0.2
 40
0.2
 40
0.2
 40
0.2
 40
0.2285714285714286
 40
0.2285714285714286
 40
0.2285714285714286
 40
0.2285714285714286
 40
0.2571428571428571
 40
0.2571428571428571
 40
0.2571428571428571
 40
0.2571428571428571
 40
0.2857142857142857
 40
0.2857142857142857
 40
0.2857142857142857
 40
0.2857142857142857
 40
0.3142857142857143
 40
0.3142857142857143
 40
0.3142857142857143
 40
0.3142857142857143
 40
0.3428571428571429
 40
0.3428571428571429
 40
0.3428571428571429
 40
0.3428571428571429
 40
0.3714285714285714
 40
0.3714285714285714
 40
0.3714285714285714
 40
0.3714285714285714
 40
0.4
 40
0.4
 40
0.4
 40
0.4
 40
0.4285714285714285
 40
0.4285714285714285
 40
0.4285714285714285
 40
0.4285714285714285
 40
0.4571428571428571
 40
0.4571428571428571
 40
0.4571428571428571
 40
0.4571428571428571
 40
0.4857142857142857
 40
0.4857142857142857
 40
0.4857142857142857
 40
0.4857142857142857
 40
0.5142857142857142
 40
0.5142857142857142
 40
0.5142857142857142
 40
0.5142857142857142
 40
0.5428571428571428
 40
0.5428571428571428
 40
0.5428571428571428
 40
0.5428571428571428
 40
0.5714285714285714
 40
0.5714285714285714
 40
0.5714285714285714
 40
0.5714285714285714
 40
0.6
 40
0.6
 40
0.6
 40
0.6
 40
0.6285714285714286
 40
0.6285714285714286
 40
0.6285714285714286
 40
0.6285714285714286
 40
0.6571428571428571
 40
0.6571428571428571
 40
0.6571428571428571
 40
0.6571428571428571
 40
0.6857142857142857
 40
0.6857142857142857
 40
0.6857142857142857
 40
0.6857142857142857
 40
0.7142857142857143
 40
0.7142857142857143
 40
0.7142857142857143
 40
0.7142857142857143
 40
0.7428571428571429
 40
0.7428571428571429
 40
0.7428571428571429
 40
0.7428571428571429
 40
0.7714285714285715
 40
0.7714285714285715
 40
0.7714285714285715
 40
0.7714285714285715
 40
0.8
 40
0.8
 40
0.8
 40
0.8
 40
0.8285714285714286
 40
0.8285714285714286
 40
0.8285714285714286
 40
0.8285714285714286
 40
0.8571428571428571
 40
0.8571428571428571
 40
0.8571428571428571
 40
0.8571428571428571
 40
0.8857142857142857
 40
0.8857142857142857
 40
0.8857142857142857
 40
0.8857142857142857
 40
0.9142857142857143
 40
0.9142857142857143
 40
0.9142857142857143
 40
0.9142857142857143
 40
0.9428571428571428
 40
0.9428571428571428
 40
0.9428571428571428
 40
0.9428571428571428
 40
1.0
 40
1.0
 40
1.0
 40
1.0
 10
-1.931456692913386
 20
7.279791338582677
 30
0.0
 10
-1.899877952755906
 20
7.311366141732283
 30
0.0
 10
-1.853854330708661
 20
7.323700787401575
 30
0.0
 10
-1.810716535433071
 20
7.312141732283465
 30
0.0
 10
-1.810716535433071
 20
7.312141732283465
 30
0.0
 10
-1.76757874015748
 20
7.300582677165354
 30
0.0
 10
-1.733885826771653
 20
7.266889763779528
 30
0.0
 10
-1.722330708661417
 20
7.223751968503937
 30
0.0
 10
-1.722330708661417
 20
7.223751968503937
 30
0.0
 10
-1.710771653543307
 20
7.18061811023622
 30
0.0
 10
-1.723102362204724
 20
7.134590551181103
 30
0.0
 10
-1.754681102362205
 20
7.103011811023622
 30
0.0
 10
-1.754681102362205
 20
7.103011811023622
 30
0.0
 10
-1.754681102362205
 20
7.103011811023622
 30
0.0
 10
-1.754681102362205
 20
6.909318897637795
 30
0.0
 10
-1.754681102362205
 20
6.909318897637795
 30
0.0
 10
-1.754681102362205
 20
6.909318897637795
 30
0.0
 10
-1.754681102362205
 20
6.909318897637795
 30
0.0
 10
-0.9517952755905512
 20
6.909318897637795
 30
0.0
 10
-0.9517952755905512
 20
6.909318897637795
 30
0.0
 10
-0.9517952755905512
 20
6.909318897637795
 30
0.0
 10
-0.9517952755905512
 20
6.909318897637795
 30
0.0
 10
-0.9517952755905512
 20
7.103011811023622
 30
0.0
 10
-0.9517952755905512
 20
7.103011811023622
 30
0.0
 10
-0.9517952755905512
 20
7.103011811023622
 30
0.0
 10
-0.9833740157480315
 20
7.134590551181103
 30
0.0
 10
-0.9957047244094488
 20
7.18061811023622
 30
0.0
 10
-0.9841456692913386
 20
7.223751968503937
 30
0.0
 10
-0.9841456692913386
 20
7.223751968503937
 30
0.0
 10
-0.9725866141732283
 20
7.266889763779528
 30
0.0
 10
-0.9388937007874015
 20
7.300582677165354
 30
0.0
 10
-0.895759842519685
 20
7.312141732283465
 30
0.0
 10
-0.895759842519685
 20
7.312141732283465
 30
0.0
 10
-0.8526220472440945
 20
7.323700787401575
 30
0.0
 10
-0.8065944881889764
 20
7.311366141732283
 30
0.0
 10
-0.7750157480314961
 20
7.279791338582677
 30
0.0
 10
-0.7750157480314961
 20
7.279791338582677
 30
0.0
 10
-0.7750157480314961
 20
7.279791338582677
 30
0.0
 10
-0.1489842519685039
 20
7.279791338582677
 30
0.0
 10
-0.1489842519685039
 20
7.279791338582677
 30
0.0
 10
-0.1489842519685039
 20
7.279791338582677
 30
0.0
 10
-0.1489842519685039
 20
7.279791338582677
 30
0.0
 10
-0.1489842519685039
 20
7.815216535433071
 30
0.0
 10
-0.1489842519685039
 20
7.815216535433071
 30
0.0
 10
-0.1489842519685039
 20
7.815216535433071
 30
0.0
 10
-0.1805629921259843
 20
7.846795275590551
 30
0.0
 10
-0.1928976377952756
 20
7.89282283464567
 30
0.0
 10
-0.1813385826771653
 20
7.935956692913386
 30
0.0
 10
-0.1813385826771653
 20
7.935956692913386
 30
0.0
 10
-0.1697795275590551
 20
7.979094488188976
 30
0.0
 10
-0.1360866141732283
 20
8.012787401574803
 30
0.0
 10
-0.0929488188976378
 20
8.024346456692914
 30
0.0
 10
-0.0929488188976378
 20
8.024346456692914
 30
0.0
 10
-0.0498149606299213
 20
8.035905511811023
 30
0.0
 10
-0.0037874015748031
 20
8.023570866141732
 30
0.0
 10
0.0277913385826772
 20
7.991996062992126
 30
0.0
 10
0.0277913385826772
 20
7.991996062992126
 30
0.0
 10
0.0277913385826772
 20
7.991996062992126
 30
0.0
 10
0.2215669291338583
 20
7.991996062992126
 30
0.0
 10
0.2215669291338583
 20
7.991996062992126
 30
0.0
 10
0.2215669291338583
 20
7.991996062992126
 30
0.0
 10
0.2215669291338583
 20
7.991996062992126
 30
0.0
 10
0.2215669291338583
 20
8.680814960629922
 30
0.0
 10
0.2215669291338583
 20
8.680814960629922
 30
0.0
 10
0.2215669291338583
 20
8.680814960629922
 30
0.0
 10
0.2215669291338583
 20
8.680814960629922
 30
0.0
 10
-0.7750944881889764
 20
8.680814960629922
 30
0.0
 10
-0.7750944881889764
 20
8.680814960629922
 30
0.0
 10
-0.7750944881889764
 20
8.680814960629922
 30
0.0
 10
-0.8066732283464567
 20
8.64923622047244
 30
0.0
 10
-0.8527007874015748
 20
8.636901574803149
 30
0.0
 10
-0.8958385826771653
 20
8.64846062992126
 30
0.0
 10
-0.8958385826771653
 20
8.64846062992126
 30
0.0
 10
-0.9389724409448819
 20
8.66001968503937
 30
0.0
 10
-0.9726653543307087
 20
8.693712598425197
 30
0.0
 10
-0.984224409448819
 20
8.736850393700788
 30
0.0
 10
-0.984224409448819
 20
8.736850393700788
 30
0.0
 10
-0.9957834645669291
 20
8.779984251968504
 30
0.0
 10
-0.9834527559055118
 20
8.826011811023623
 30
0.0
 10
-0.9518740157480315
 20
8.857590551181103
 30
0.0
 10
-0.9518740157480315
 20
8.857590551181103
 30
0.0
 10
-0.9518740157480315
 20
8.857590551181103
 30
0.0
 10
-0.9518740157480315
 20
9.051366141732283
 30
0.0
 10
-0.9518740157480315
 20
9.051366141732283
 30
0.0
 10
-0.9518740157480315
 20
9.051366141732283
 30
0.0
 10
-0.9518740157480315
 20
9.051366141732283
 30
0.0
 10
-1.754602362204724
 20
9.051366141732283
 30
0.0
 10
-1.754602362204724
 20
9.051366141732283
 30
0.0
 10
-1.754602362204724
 20
9.051366141732283
 30
0.0
 10
-1.754602362204724
 20
9.051366141732283
 30
0.0
 10
-1.754602362204724
 20
8.857590551181103
 30
0.0
 10
-1.754602362204724
 20
8.857590551181103
 30
0.0
 10
-1.754602362204724
 20
8.857590551181103
 30
0.0
 10
-1.723023622047244
 20
8.826011811023623
 30
0.0
 10
-1.710692913385827
 20
8.779984251968504
 30
0.0
 10
-1.722251968503937
 20
8.736850393700788
 30
0.0
 10
-1.722251968503937
 20
8.736850393700788
 30
0.0
 10
-1.733807086614173
 20
8.693712598425197
 30
0.0
 10
-1.7675
 20
8.66001968503937
 30
0.0
 10
-1.810637795275591
 20
8.64846062992126
 30
0.0
 10
-1.810637795275591
 20
8.64846062992126
 30
0.0
 10
-1.853775590551181
 20
8.636901574803149
 30
0.0
 10
-1.899799212598425
 20
8.64923622047244
 30
0.0
 10
-1.931377952755905
 20
8.680814960629922
 30
0.0
 10
-1.931377952755905
 20
8.680814960629922
 30
0.0
 10
-1.931377952755905
 20
8.680814960629922
 30
0.0
 10
-2.557488188976378
 20
8.680814960629922
 30
0.0
 10
-2.557488188976378
 20
8.680814960629922
 30
0.0
 10
-2.557488188976378
 20
8.680814960629922
 30
0.0
 10
-2.557488188976378
 20
8.680814960629922
 30
0.0
 10
-2.557488188976378
 20
8.168614173228347
 30
0.0
 10
-2.557488188976378
 20
8.168614173228347
 30
0.0
 10
-2.557488188976378
 20
8.168614173228347
 30
0.0
 10
-2.525913385826771
 20
8.137035433070865
 30
0.0
 10
-2.513578740157481
 20
8.091007874015748
 30
0.0
 10
-2.525137795275591
 20
8.04787401574803
 30
0.0
 10
-2.525137795275591
 20
8.04787401574803
 30
0.0
 10
-2.536696850393701
 20
8.004736220472441
 30
0.0
 10
-2.570389763779528
 20
7.971043307086614
 30
0.0
 10
-2.613523622047244
 20
7.959484251968504
 30
0.0
 10
-2.613523622047244
 20
7.959484251968504
 30
0.0
 10
-2.656661417322835
 20
7.947925196850393
 30
0.0
 10
-2.702688976377953
 20
7.960259842519685
 30
0.0
 10
-2.734267716535433
 20
7.991838582677166
 30
0.0
 10
-2.734267716535433
 20
7.991838582677166
 30
0.0
 10
-2.734267716535433
 20
7.991838582677166
 30
0.0
 10
-2.92796062992126
 20
7.991838582677166
 30
0.0
 10
-2.92796062992126
 20
7.991838582677166
 30
0.0
 10
-2.92796062992126
 20
7.991838582677166
 30
0.0
 10
-2.92796062992126
 20
7.991838582677166
 30
0.0
 10
-2.92796062992126
 20
7.279791338582677
 30
0.0
 10
-2.92796062992126
 20
7.279791338582677
 30
0.0
 10
-2.92796062992126
 20
7.279791338582677
 30
0.0
 10
-2.92796062992126
 20
7.279791338582677
 30
0.0
 10
-1.931456692913386
 20
7.279791338582677
 30
0.0
 10
-1.931456692913386
 20
7.279791338582677
 30
0.0
  0
SPLINE
  5
74
330
1F
100
AcDbEntity
  8
Layer 1
370
     9
100
AcDbSpline
210
0.0
220
0.0
230
1.0
 70
    11
 71
     3
 72
   260
 73
   256
 74
     0
 42
0.000000001
 43
0.0000000001
 40
0.0
 40
0.0
 40
0.0
 40
0.0
 40
0.0153846153846154
 40
0.0153846153846154
 40
0.0153846153846154
 40
0.0153846153846154
 40
0.0307692307692308
 40
0.0307692307692308
 40
0.0307692307692308
 40
0.0307692307692308
 40
0.0461538461538462
 40
0.0461538461538462
 40
0.0461538461538462
 40
0.0461538461538462
 40
0.0615384615384615
 40
0.0615384615384615
 40
0.0615384615384615
 40
0.0615384615384615
 40
0.0769230769230769
 40
0.0769230769230769
 40
0.0769230769230769
 40
0.0769230769230769
 40
0.0923076923076923
 40
0.0923076923076923
 40
0.0923076923076923
 40
0.0923076923076923
 40
0.1076923076923077
 40
0.1076923076923077
 40
0.1076923076923077
 40
0.1076923076923077
 40
0.1230769230769231
 40
0.1230769230769231
 40
0.1230769230769231
 40
0.1230769230769231
 40
0.1384615384615385
 40
0.1384615384615385
 40
0.1384615384615385
 40
0.1384615384615385
 40
0.1538461538461539
 40
0.1538461538461539
 40
0.1538461538461539
 40
0.1538461538461539
 40
0.1692307692307692
 40
0.1692307692307692
 40
0.1692307692307692
 40
0.1692307692307692
 40
0.1846153846153846
 40
0.1846153846153846
 40
0.1846153846153846
 40
0.1846153846153846
 40
0.2
 40
0.2
 40
0.2
 40
0.2
 40
0.2153846153846154
 40
0.2153846153846154
 40
0.2153846153846154
 40
0.2153846153846154
 40
0.2307692307692308
 40
0.2307692307692308
 40
0.2307692307692308
 40
0.2307692307692308
 40
0.2461538461538462
 40
0.2461538461538462
 40
0.2461538461538462
 40
0.2461538461538462
 40
0.2615384615384616
 40
0.2615384615384616
 40
0.2615384615384616
 40
0.2615384615384616
 40
0.2769230769230769
 40
0.2769230769230769
 40
0.2769230769230769
 40
0.2769230769230769
 40
0.2923076923076923
 40
0.2923076923076923
 40
0.2923076923076923
 40
0.2923076923076923
 40
0.3076923076923077
 40
0.3076923076923077
 40
0.3076923076923077
 40
0.3076923076923077
 40
0.3230769230769231
 40
0.3230769230769231
 40
0.3230769230769231
 40
0.3230769230769231
 40
0.3384615384615385
 40
0.3384615384615385
 40
0.3384615384615385
 40
0.3384615384615385
 40
0.3538461538461539
 40
0.3538461538461539
 40
0.3538461538461539
 40
0.3538461538461539
 40
0.3692307692307693
 40
0.3692307692307693
 40
0.3692307692307693
 40
0.3692307692307693
 40
0.3846153846153846
 40
0.3846153846153846
 40
0.3846153846153846
 40
0.3846153846153846
 40
0.4
 40
0.4
 40
0.4
 40
0.4
 40
0.4153846153846154
 40
0.4153846153846154
 40
0.4153846153846154
 40
0.4153846153846154
 40
0.4307692307692308
 40
0.4307692307692308
 40
0.4307692307692308
 40
0.4307692307692308
 40
0.4461538461538462
 40
0.4461538461538462
 40
0.4461538461538462
 40
0.4461538461538462
 40
0.4615384615384616
 40
0.4615384615384616
 40
0.4615384615384616
 40
0.4615384615384616
 40
0.4769230769230769
 40
0.4769230769230769
 40
0.4769230769230769
 40
0.4769230769230769
 40
0.4923076923076923
 40
0.4923076923076923
 40
0.4923076923076923
 40
0.4923076923076923
 40
0.5076923076923077
 40
0.5076923076923077
 40
0.5076923076923077
 40
0.5076923076923077
 40
0.5230769230769231
 40
0.5230769230769231
 40
0.5230769230769231
 40
0.5230769230769231
 40
0.5384615384615384
 40
0.5384615384615384
 40
0.5384615384615384
 40
0.5384615384615384
 40
0.5538461538461539
 40
0.5538461538461539
 40
0.5538461538461539
 40
0.5538461538461539
 40
0.5692307692307692
 40
0.5692307692307692
 40
0.5692307692307692
 40
0.5692307692307692
 40
0.5846153846153846
 40
0.5846153846153846
 40
0.5846153846153846
 40
0.5846153846153846
 40
0.6
 40
0.6
 40
0.6
 40
0.6
 40
0.6153846153846154
 40
0.6153846153846154
 40
0.6153846153846154
 40
0.6153846153846154
 40
0.6307692307692307
 40
0.6307692307692307
 40
0.6307692307692307
 40
0.6307692307692307
 40
0.6461538461538462
 40
0.6461538461538462
 40
0.6461538461538462
 40
0.6461538461538462
 40
0.6615384615384615
 40
0.6615384615384615
 40
0.6615384615384615
 40
0.6615384615384615
 40
0.676923076923077
 40
0.676923076923077
 40
0.676923076923077
 40
0.676923076923077
 40
0.6923076923076923
 40
0.6923076923076923
 40
0.6923076923076923
 40
0.6923076923076923
 40
0.7076923076923077
 40
0.7076923076923077
 40
0.7076923076923077
 40
0.7076923076923077
 40
0.7230769230769231
 40
0.7230769230769231
 40
0.7230769230769231
 40
0.7230769230769231
 40
0.7384615384615385
 40
0.7384615384615385
 40
0.7384615384615385
 40
0.7384615384615385
 40
0.7538461538461538
 40
0.7538461538461538
 40
0.7538461538461538
 40
0.7538461538461538
 40
0.7692307692307693
 40
0.7692307692307693
 40
0.7692307692307693
 40
0.7692307692307693
 40
0.7846153846153846
 40
0.7846153846153846
 40
0.7846153846153846
 40
0.7846153846153846
 40
0.8
 40
0.8
 40
0.8
 40
0.8
 40
0.8153846153846154
 40
0.8153846153846154
 40
0.8153846153846154
 40
0.8153846153846154
 40
0.8307692307692308
 40
0.8307692307692308
 40
0.8307692307692308
 40
0.8307692307692308
 40
0.8461538461538461
 40
0.8461538461538461
 40
0.8461538461538461
 40
0.8461538461538461
 40
0.8615384615384616
 40
0.8615384615384616
 40
0.8615384615384616
 40
0.8615384615384616
 40
0.8769230769230769
 40
0.8769230769230769
 40
0.8769230769230769
 40
0.8769230769230769
 40
0.8923076923076924
 40
0.8923076923076924
 40
0.8923076923076924
 40
0.8923076923076924
 40
0.9076923076923077
 40
0.9076923076923077
 40
0.9076923076923077
 40
0.9076923076923077
 40
0.9230769230769231
 40
0.9230769230769231
 40
0.9230769230769231
 40
0.9230769230769231
 40
0.9384615384615385
 40
0.9384615384615385
 40
0.9384615384615385
 40
0.9384615384615385
 40
0.9538461538461539
 40
0.9538461538461539
 40
0.9538461538461539
 40
0.9538461538461539
 40
0.9692307692307692
 40
0.9692307692307692
 40
0.9692307692307692
 40
0.9692307692307692
 40
1.0
 40
1.0
 40
1.0
 40
1.0
 10
1.513476377952756
 20
6.078795275590551
 30
0.0
 10
1.513476377952756
 20
6.078795275590551
 30
0.0
 10
1.962964566929134
 20
6.078795275590551
 30
0.0
 10
1.962964566929134
 20
6.078795275590551
 30
0.0
 10
1.962964566929134
 20
6.078795275590551
 30
0.0
 10
1.994543307086614
 20
6.110374015748032
 30
0.0
 10
2.040570866141732
 20
6.122708661417323
 30
0.0
 10
2.083704724409449
 20
6.111149606299213
 30
0.0
 10
2.083704724409449
 20
6.111149606299213
 30
0.0
 10
2.126842519685039
 20
6.099590551181103
 30
0.0
 10
2.160535433070866
 20
6.065897637795276
 30
0.0
 10
2.172094488188976
 20
6.022759842519685
 30
0.0
 10
2.172094488188976
 20
6.022759842519685
 30
0.0
 10
2.183653543307086
 20
5.979622047244095
 30
0.0
 10
2.171318897637795
 20
5.93359842519685
 30
0.0
 10
2.139744094488189
 20
5.90201968503937
 30
0.0
 10
2.139744094488189
 20
5.90201968503937
 30
0.0
 10
2.139744094488189
 20
5.90201968503937
 30
0.0
 10
2.139744094488189
 20
5.708244094488189
 30
0.0
 10
2.139744094488189
 20
5.708244094488189
 30
0.0
 10
2.139744094488189
 20
5.708244094488189
 30
0.0
 10
2.139744094488189
 20
5.708244094488189
 30
0.0
 10
2.942472440944882
 20
5.708244094488189
 30
0.0
 10
2.942472440944882
 20
5.708244094488189
 30
0.0
 10
2.942472440944882
 20
5.708244094488189
 30
0.0
 10
2.942472440944882
 20
5.708244094488189
 30
0.0
 10
2.942472440944882
 20
5.90201968503937
 30
0.0
 10
2.942472440944882
 20
5.90201968503937
 30
0.0
 10
2.942472440944882
 20
5.90201968503937
 30
0.0
 10
2.910893700787402
 20
5.93359842519685
 30
0.0
 10
2.898562992125984
 20
5.979622047244095
 30
0.0
 10
2.91011811023622
 20
6.022759842519685
 30
0.0
 10
2.91011811023622
 20
6.022759842519685
 30
0.0
 10
2.921677165354331
 20
6.065897637795276
 30
0.0
 10
2.955370078740157
 20
6.099590551181103
 30
0.0
 10
2.998507874015748
 20
6.111149606299213
 30
0.0
 10
2.998507874015748
 20
6.111149606299213
 30
0.0
 10
3.041645669291339
 20
6.122708661417323
 30
0.0
 10
3.087669291338583
 20
6.110374015748032
 30
0.0
 10
3.119248031496063
 20
6.078795275590551
 30
0.0
 10
3.119248031496063
 20
6.078795275590551
 30
0.0
 10
3.119248031496063
 20
6.078795275590551
 30
0.0
 10
3.568740157480315
 20
6.078795275590551
 30
0.0
 10
3.568740157480315
 20
6.078795275590551
 30
0.0
 10
3.568740157480315
 20
6.078795275590551
 30
0.0
 10
3.600318897637795
 20
6.110374015748032
 30
0.0
 10
3.646342519685039
 20
6.122708661417323
 30
0.0
 10
3.68948031496063
 20
6.111149606299213
 30
0.0
 10
3.68948031496063
 20
6.111149606299213
 30
0.0
 10
3.732618110236221
 20
6.099590551181103
 30
0.0
 10
3.766311023622047
 20
6.065897637795276
 30
0.0
 10
3.777870078740158
 20
6.022759842519685
 30
0.0
 10
3.777870078740158
 20
6.022759842519685
 30
0.0
 10
3.789429133858268
 20
5.979622047244095
 30
0.0
 10
3.777094488188976
 20
5.93359842519685
 30
0.0
 10
3.745515748031496
 20
5.90201968503937
 30
0.0
 10
3.745515748031496
 20
5.90201968503937
 30
0.0
 10
3.745515748031496
 20
5.90201968503937
 30
0.0
 10
3.745515748031496
 20
5.708244094488189
 30
0.0
 10
3.745515748031496
 20
5.708244094488189
 30
0.0
 10
3.745515748031496
 20
5.708244094488189
 30
0.0
 10
3.745515748031496
 20
5.708244094488189
 30
0.0
 10
4.115909448818898
 20
5.708244094488189
 30
0.0
 10
4.115909448818898
 20
5.708244094488189
 30
0.0
 10
4.115909448818898
 20
5.708244094488189
 30
0.0
 10
4.115909448818898
 20
5.708244094488189
 30
0.0
 10
4.115909448818898
 20
6.495566929133858
 30
0.0
 10
4.115909448818898
 20
6.495566929133858
 30
0.0
 10
4.115909448818898
 20
6.495566929133858
 30
0.0
 10
4.115909448818898
 20
6.495566929133858
 30
0.0
 10
3.92213779527559
 20
6.495566929133858
 30
0.0
 10
3.92213779527559
 20
6.495566929133858
 30
0.0
 10
3.92213779527559
 20
6.495566929133858
 30
0.0
 10
3.89055905511811
 20
6.463988188976378
 30
0.0
 10
3.844531496062992
 20
6.45165748031496
 30
0.0
 10
3.801393700787401
 20
6.463216535433071
 30
0.0
 10
3.801393700787401
 20
6.463216535433071
 30
0.0
 10
3.758259842519685
 20
6.474775590551181
 30
0.0
 10
3.724566929133858
 20
6.508468503937008
 30
0.0
 10
3.713007874015748
 20
6.551602362204725
 30
0.0
 10
3.713007874015748
 20
6.551602362204725
 30
0.0
 10
3.701448818897638
 20
6.594740157480315
 30
0.0
 10
3.713779527559055
 20
6.640767716535433
 30
0.0
 10
3.745358267716536
 20
6.672342519685039
 30
0.0
 10
3.745358267716536
 20
6.672342519685039
 30
0.0
 10
3.745358267716536
 20
6.672342519685039
 30
0.0
 10
3.745358267716536
 20
7.106350393700787
 30
0.0
 10
3.745358267716536
 20
7.106350393700787
 30
0.0
 10
3.745358267716536
 20
7.106350393700787
 30
0.0
 10
3.713779527559055
 20
7.137929133858267
 30
0.0
 10
3.701448818897638
 20
7.183952755905512
 30
0.0
 10
3.713007874015748
 20
7.227090551181102
 30
0.0
 10
3.713007874015748
 20
7.227090551181102
 30
0.0
 10
3.724566929133858
 20
7.270228346456693
 30
0.0
 10
3.758259842519685
 20
7.30392125984252
 30
0.0
 10
3.801393700787401
 20
7.31548031496063
 30
0.0
 10
3.801393700787401
 20
7.31548031496063
 30
0.0
 10
3.844531496062992
 20
7.32703937007874
 30
0.0
 10
3.89055905511811
 20
7.314704724409449
 30
0.0
 10
3.92213779527559
 20
7.283125984251969
 30
0.0
 10
3.92213779527559
 20
7.283125984251969
 30
0.0
 10
3.92213779527559
 20
7.283125984251969
 30
0.0
 10
4.115909448818898
 20
7.283125984251969
 30
0.0
 10
4.115909448818898
 20
7.283125984251969
 30
0.0
 10
4.115909448818898
 20
7.283125984251969
 30
0.0
 10
4.115909448818898
 20
7.283125984251969
 30
0.0
 10
4.115909448818898
 20
8.070370078740158
 30
0.0
 10
4.115909448818898
 20
8.070370078740158
 30
0.0
 10
4.115909448818898
 20
8.070370078740158
 30
0.0
 10
4.115909448818898
 20
8.070370078740158
 30
0.0
 10
3.92213779527559
 20
8.070370078740158
 30
0.0
 10
3.92213779527559
 20
8.070370078740158
 30
0.0
 10
3.92213779527559
 20
8.070370078740158
 30
0.0
 10
3.89055905511811
 20
8.038791338582676
 30
0.0
 10
3.844531496062992
 20
8.02646062992126
 30
0.0
 10
3.801393700787401
 20
8.03801968503937
 30
0.0
 10
3.801393700787401
 20
8.03801968503937
 30
0.0
 10
3.758259842519685
 20
8.04957874015748
 30
0.0
 10
3.724566929133858
 20
8.083271653543306
 30
0.0
 10
3.713007874015748
 20
8.126405511811024
 30
0.0
 10
3.713007874015748
 20
8.126405511811024
 30
0.0
 10
3.701448818897638
 20
8.169543307086615
 30
0.0
 10
3.713779527559055
 20
8.215570866141732
 30
0.0
 10
3.745358267716536
 20
8.247145669291339
 30
0.0
 10
3.745358267716536
 20
8.247145669291339
 30
0.0
 10
3.745358267716536
 20
8.247145669291339
 30
0.0
 10
3.745358267716536
 20
8.857850393700787
 30
0.0
 10
3.745358267716536
 20
8.857850393700787
 30
0.0
 10
3.745358267716536
 20
8.857850393700787
 30
0.0
 10
3.745358267716536
 20
8.857850393700787
 30
0.0
 10
2.942629921259842
 20
8.857850393700787
 30
0.0
 10
2.942629921259842
 20
8.857850393700787
 30
0.0
 10
2.942629921259842
 20
8.857850393700787
 30
0.0
 10
2.942629921259842
 20
8.857850393700787
 30
0.0
 10
2.942629921259842
 20
8.664074803149607
 30
0.0
 10
2.942629921259842
 20
8.664074803149607
 30
0.0
 10
2.942629921259842
 20
8.664074803149607
 30
0.0
 10
2.974208661417323
 20
8.6325
 30
0.0
 10
2.98653937007874
 20
8.586472440944881
 30
0.0
 10
2.97498031496063
 20
8.543334645669292
 30
0.0
 10
2.97498031496063
 20
8.543334645669292
 30
0.0
 10
2.963425196850394
 20
8.500200787401575
 30
0.0
 10
2.929728346456693
 20
8.466507874015749
 30
0.0
 10
2.886594488188976
 20
8.454948818897638
 30
0.0
 10
2.886594488188976
 20
8.454948818897638
 30
0.0
 10
2.843456692913386
 20
8.443389763779528
 30
0.0
 10
2.797429133858268
 20
8.455720472440944
 30
0.0
 10
2.765854330708661
 20
8.487299212598424
 30
0.0
 10
2.765854330708661
 20
8.487299212598424
 30
0.0
 10
2.765854330708661
 20
8.487299212598424
 30
0.0
 10
2.316362204724409
 20
8.487299212598424
 30
0.0
 10
2.316362204724409
 20
8.487299212598424
 30
0.0
 10
2.316362204724409
 20
8.487299212598424
 30
0.0
 10
2.284783464566929
 20
8.455720472440944
 30
0.0
 10
2.238755905511811
 20
8.443389763779528
 30
0.0
 10
2.195622047244095
 20
8.454948818897638
 30
0.0
 10
2.195622047244095
 20
8.454948818897638
 30
0.0
 10
2.152484251968504
 20
8.466507874015749
 30
0.0
 10
2.118791338582677
 20
8.500200787401575
 30
0.0
 10
2.107232283464567
 20
8.543334645669292
 30
0.0
 10
2.107232283464567
 20
8.543334645669292
 30
0.0
 10
2.095673228346457
 20
8.586472440944881
 30
0.0
 10
2.108007874015748
 20
8.6325
 30
0.0
 10
2.139586614173228
 20
8.664074803149607
 30
0.0
 10
2.139586614173228
 20
8.664074803149607
 30
0.0
 10
2.139586614173228
 20
8.664074803149607
 30
0.0
 10
2.139586614173228
 20
8.857850393700787
 30
0.0
 10
2.139586614173228
 20
8.857850393700787
 30
0.0
 10
2.139586614173228
 20
8.857850393700787
 30
0.0
 10
2.139586614173228
 20
8.857850393700787
 30
0.0
 10
1.336854330708661
 20
8.857850393700787
 30
0.0
 10
1.336854330708661
 20
8.857850393700787
 30
0.0
 10
1.336854330708661
 20
8.857850393700787
 30
0.0
 10
1.336854330708661
 20
8.857850393700787
 30
0.0
 10
1.336854330708661
 20
8.247145669291339
 30
0.0
 10
1.336854330708661
 20
8.247145669291339
 30
0.0
 10
1.336854330708661
 20
8.247145669291339
 30
0.0
 10
1.368433070866142
 20
8.215570866141732
 30
0.0
 10
1.380767716535433
 20
8.169543307086615
 30
0.0
 10
1.369208661417323
 20
8.126405511811024
 30
0.0
 10
1.369208661417323
 20
8.126405511811024
 30
0.0
 10
1.357649606299212
 20
8.083271653543306
 30
0.0
 10
1.323956692913386
 20
8.04957874015748
 30
0.0
 10
1.280818897637795
 20
8.03801968503937
 30
0.0
 10
1.280818897637795
 20
8.03801968503937
 30
0.0
 10
1.237681102362205
 20
8.02646062992126
 30
0.0
 10
1.191657480314961
 20
8.038791338582676
 30
0.0
 10
1.16007874015748
 20
8.070370078740158
 30
0.0
 10
1.16007874015748
 20
8.070370078740158
 30
0.0
 10
1.16007874015748
 20
8.070370078740158
 30
0.0
 10
0.9663031496062993
 20
8.070370078740158
 30
0.0
 10
0.9663031496062993
 20
8.070370078740158
 30
0.0
 10
0.9663031496062993
 20
8.070370078740158
 30
0.0
 10
0.9663031496062993
 20
8.070370078740158
 30
0.0
 10
0.9663031496062993
 20
7.283125984251969
 30
0.0
 10
0.9663031496062993
 20
7.283125984251969
 30
0.0
 10
0.9663031496062993
 20
7.283125984251969
 30
0.0
 10
0.9663031496062993
 20
7.283125984251969
 30
0.0
 10
1.16007874015748
 20
7.283125984251969
 30
0.0
 10
1.16007874015748
 20
7.283125984251969
 30
0.0
 10
1.16007874015748
 20
7.283125984251969
 30
0.0
 10
1.191657480314961
 20
7.314704724409449
 30
0.0
 10
1.237681102362205
 20
7.32703937007874
 30
0.0
 10
1.280818897637795
 20
7.31548031496063
 30
0.0
 10
1.280818897637795
 20
7.31548031496063
 30
0.0
 10
1.323956692913386
 20
7.30392125984252
 30
0.0
 10
1.357649606299212
 20
7.270228346456693
 30
0.0
 10
1.369208661417323
 20
7.227090551181102
 30
0.0
 10
1.369208661417323
 20
7.227090551181102
 30
0.0
 10
1.380767716535433
 20
7.183952755905512
 30
0.0
 10
1.368433070866142
 20
7.137929133858267
 30
0.0
 10
1.336854330708661
 20
7.106350393700787
 30
0.0
 10
1.336854330708661
 20
7.106350393700787
 30
0.0
 10
1.336854330708661
 20
7.106350393700787
 30
0.0
 10
1.336854330708661
 20
6.672342519685039
 30
0.0
 10
1.336854330708661
 20
6.672342519685039
 30
0.0
 10
1.336854330708661
 20
6.672342519685039
 30
0.0
 10
1.368433070866142
 20
6.640767716535433
 30
0.0
 10
1.380767716535433
 20
6.594740157480315
 30
0.0
 10
1.369208661417323
 20
6.551602362204725
 30
0.0
 10
1.369208661417323
 20
6.551602362204725
 30
0.0
 10
1.357649606299212
 20
6.508468503937008
 30
0.0
 10
1.323956692913386
 20
6.474775590551181
 30
0.0
 10
1.280818897637795
 20
6.463216535433071
 30
0.0
 10
1.280818897637795
 20
6.463216535433071
 30
0.0
 10
1.237681102362205
 20
6.45165748031496
 30
0.0
 10
1.191657480314961
 20
6.463988188976378
 30
0.0
 10
1.16007874015748
 20
6.495566929133858
 30
0.0
 10
1.16007874015748
 20
6.495566929133858
 30
0.0
 10
1.16007874015748
 20
6.495566929133858
 30
0.0
 10
0.9663031496062993
 20
6.495566929133858
 30
0.0
 10
0.9663031496062993
 20
6.495566929133858
 30
0.0
 10
0.9663031496062993
 20
6.495566929133858
 30
0.0
 10
0.9663031496062993
 20
6.495566929133858
 30
0.0
 10
0.9663031496062993
 20
5.708244094488189
 30
0.0
 10
0.9663031496062993
 20
5.708244094488189
 30
0.0
 10
0.9663031496062993
 20
5.708244094488189
 30
0.0
 10
0.9663031496062993
 20
5.708244094488189
 30
0.0
 10
1.336696850393701
 20
5.708244094488189
 30
0.0
 10
1.336696850393701
 20
5.708244094488189
 30
0.0
 10
1.336696850393701
 20
5.708244094488189
 30
0.0
 10
1.336696850393701
 20
5.708244094488189
 30
0.0
 10
1.336696850393701
 20
5.90201968503937
 30
0.0
 10
1.336696850393701
 20
5.90201968503937
 30
0.0
 10
1.336696850393701
 20
5.90201968503937
 30
0.0
 10
1.30511811023622
 20
5.93359842519685
 30
0.0
 10
1.292787401574803
 20
5.979622047244095
 30
0.0
 10
1.304346456692913
 20
6.022759842519685
 30
0.0
 10
1.304346456692913
 20
6.022759842519685
 30
0.0
 10
1.315905511811024
 20
6.065897637795276
 30
0.0
 10
1.34959842519685
 20
6.099590551181103
 30
0.0
 10
1.392732283464567
 20
6.111149606299213
 30
0.0
 10
1.392732283464567
 20
6.111149606299213
 30
0.0
 10
1.435870078740157
 20
6.122708661417323
 30
0.0
 10
1.481897637795276
 20
6.110374015748032
 30
0.0
 10
1.513476377952756
 20
6.078795275590551
 30
0.0
  0
SPLINE
  5
75
330
1F
100
AcDbEntity
  8
Layer 1
370
     9
100
AcDbSpline
210
0.0
220
0.0
230
1.0
 70
    11
 71
     3
 72
    23
 73
    19
 74
     0
 42
0.000000001
 43
0.0000000001
 40
0.0
 40
0.0
 40
0.0
 40
0.0
 40
0.2
 40
0.2
 40
0.2
 40
0.2
 40
0.4
 40
0.4
 40
0.4
 40
0.4
 40
0.6
 40
0.6
 40
0.6
 40
0.6
 40
1.0
 40
1.0
 40
1.0
 40
1.000003937007874
 40
1.000003937007874
 40
1.000003937007874
 40
1.000003937007874
 10
-10.87476377952756
 20
3.261586614173228
 30
0.0
 10
-10.87476377952756
 20
3.304637795275591
 30
0.0
 10
-10.90966141732283
 20
3.33953937007874
 30
0.0
 10
-10.9527125984252
 20
3.33953937007874
 30
0.0
 10
-10.9527125984252
 20
3.33953937007874
 30
0.0
 10
-10.99576771653543
 20
3.33953937007874
 30
0.0
 10
-11.03066535433071
 20
3.304637795275591
 30
0.0
 10
-11.03066929133858
 20
3.261586614173228
 30
0.0
 10
-11.03066929133858
 20
3.261586614173228
 30
0.0
 10
-11.03066929133858
 20
3.218531496062992
 30
0.0
 10
-10.99576771653543
 20
3.183633858267716
 30
0.0
 10
-10.95271653543307
 20
3.183633858267716
 30
0.0
 10
-10.95271653543307
 20
3.183633858267716
 30
0.0
 10
-10.90966141732283
 20
3.183633858267716
 30
0.0
 10
-10.87476377952756
 20
3.218531496062992
 30
0.0
 10
-10.87476377952756
 20
3.261582677165354
 30
0.0
 10
-10.87476377952756
 20
4.553118110236216
 30
0.0
 10
-10.87476377952756
 20
0.678515748031475
 30
0.0
 10
-10.87476377952756
 20
3.261586614173228
 30
0.0
  0
SPLINE
  5
76
330
1F
100
AcDbEntity
  8
Layer 1
370
     9
100
AcDbSpline
210
0.0
220
0.0
230
1.0
 70
    11
 71
     3
 72
    20
 73
    16
 74
     0
 42
0.000000001
 43
0.0000000001
 40
0.0
 40
0.0
 40
0.0
 40
0.0
 40
0.2
 40
0.2
 40
0.2
 40
0.2
 40
0.4
 40
0.4
 40
0.4
 40
0.4
 40
0.6
 40
0.6
 40
0.6
 40
0.6
 40
1.0
 40
1.0
 40
1.0
 40
1.0
 10
-10.26929133858268
 20
2.358870078740158
 30
0.0
 10
-10.26929133858268
 20
2.40192125984252
 30
0.0
 10
-10.30419291338583
 20
2.436822834645669
 30
0.0
 10
-10.34724409448819
 20
2.436822834645669
 30
0.0
 10
-10.34724409448819
 20
2.436822834645669
 30
0.0
 10
-10.39029527559055
 20
2.436822834645669
 30
0.0
 10
-10.4251968503937
 20
2.401925196850394
 30
0.0
 10
-10.4251968503937
 20
2.358870078740158
 30
0.0
 10
-10.4251968503937
 20
2.358870078740158
 30
0.0
 10
-10.4251968503937
 20
2.315818897637795
 30
0.0
 10
-10.39029527559055
 20
2.280917322834646
 30
0.0
 10
-10.34724409448819
 20
2.280917322834646
 30
0.0
 10
-10.34724409448819
 20
2.280917322834646
 30
0.0
 10
-10.30419291338583
 20
2.280917322834646
 30
0.0
 10
-10.26929133858268
 20
2.315818897637795
 30
0.0
 10
-10.26929133858268
 20
2.358870078740158
 30
0.0
  0
SPLINE
  5
77
330
1F
100
AcDbEntity
  8
Layer 1
370
     9
100
AcDbSpline
210
0.0
220
0.0
230
1.0
 70
    11
 71
     3
 72
    20
 73
    16
 74
     0
 42
0.000000001
 43
0.0000000001
 40
0.0
 40
0.0
 40
0.0
 40
0.0
 40
0.2
 40
0.2
 40
0.2
 40
0.2
 40
0.4
 40
0.4
 40
0.4
 40
0.4
 40
0.6
 40
0.6
 40
0.6
 40
0.6
 40
1.0
 40
1.0
 40
1.0
 40
1.0
 10
-8.158200787401574
 20
5.977228346456693
 30
0.0
 10
-8.158200787401574
 20
6.020283464566929
 30
0.0
 10
-8.193102362204725
 20
6.055181102362205
 30
0.0
 10
-8.236153543307086
 20
6.055181102362205
 30
0.0
 10
-8.236153543307086
 20
6.055181102362205
 30
0.0
 10
-8.279204724409448
 20
6.055181102362205
 30
0.0
 10
-8.314106299212598
 20
6.020283464566929
 30
0.0
 10
-8.314106299212598
 20
5.977228346456693
 30
0.0
 10
-8.314106299212598
 20
5.977228346456693
 30
0.0
 10
-8.314106299212598
 20
5.934177165354331
 30
0.0
 10
-8.279204724409448
 20
5.899275590551181
 30
0.0
 10
-8.236153543307086
 20
5.899275590551181
 30
0.0
 10
-8.236153543307086
 20
5.899275590551181
 30
0.0
 10
-8.193102362204725
 20
5.899275590551181
 30
0.0
 10
-8.158200787401574
 20
5.934177165354331
 30
0.0
 10
-8.158200787401574
 20
5.977228346456693
 30
0.0
  0
SPLINE
  5
78
330
1F
100
AcDbEntity
  8
Layer 1
370
     9
100
AcDbSpline
210
0.0
220
0.0
230
1.0
 70
    11
 71
     3
 72
    20
 73
    16
 74
     0
 42
0.000000001
 43
0.0000000001
 40
0.0
 40
0.0
 40
0.0
 40
0.0
 40
0.2
 40
0.2
 40
0.2
 40
0.2
 40
0.4
 40
0.4
 40
0.4
 40
0.4
 40
0.6
 40
0.6
 40
0.6
 40
0.6
 40
1.0
 40
1.0
 40
1.0
 40
1.0
 10
-7.255488188976378
 20
5.371759842519685
 30
0.0
 10
-7.255488188976378
 20
5.414811023622047
 30
0.0
 10
-7.290389763779528
 20
5.449712598425197
 30
0.0
 10
-7.33344094488189
 20
5.449712598425197
 30
0.0
 10
-7.33344094488189
 20
5.449712598425197
 30
0.0
 10
-7.376492125984252
 20
5.449712598425197
 30
0.0
 10
-7.411393700787402
 20
5.414811023622047
 30
0.0
 10
-7.411393700787402
 20
5.371759842519685
 30
0.0
 10
-7.411393700787402
 20
5.371759842519685
 30
0.0
 10
-7.411393700787402
 20
5.328708661417322
 30
0.0
 10
-7.376492125984252
 20
5.293807086614173
 30
0.0
 10
-7.33344094488189
 20
5.293807086614173
 30
0.0
 10
-7.33344094488189
 20
5.293807086614173
 30
0.0
 10
-7.290389763779528
 20
5.293807086614173
 30
0.0
 10
-7.255488188976378
 20
5.328708661417322
 30
0.0
 10
-7.255488188976378
 20
5.371759842519685
 30
0.0
  0
SPLINE
  5
79
330
1F
100
AcDbEntity
  8
Layer 1
370
     9
100
AcDbSpline
210
0.0
220
0.0
230
1.0
 70
    11
 71
     3
 72
    20
 73
    16
 74
     0
 42
0.000000001
 43
0.0000000001
 40
0.0
 40
0.0
 40
0.0
 40
0.0
 40
0.2
 40
0.2
 40
0.2
 40
0.2
 40
0.4
 40
0.4
 40
0.4
 40
0.4
 40
0.6
 40
0.6
 40
0.6
 40
0.6
 40
1.0
 40
1.0
 40
1.0
 40
1.0
 10
-12.98493700787402
 20
5.978145669291338
 30
0.0
 10
-12.98493700787402
 20
6.021196850393701
 30
0.0
 10
-13.01983858267717
 20
6.056098425196851
 30
0.0
 10
-13.06288976377953
 20
6.056098425196851
 30
0.0
 10
-13.06288976377953
 20
6.056098425196851
 30
0.0
 10
-13.10594094488189
 20
6.056098425196851
 30
0.0
 10
-13.14084251968504
 20
6.021196850393701
 30
0.0
 10
-13.14084251968504
 20
5.978145669291338
 30
0.0
 10
-13.14084251968504
 20
5.978145669291338
 30
0.0
 10
-13.14084251968504
 20
5.935094488188977
 30
0.0
 10
-13.10594094488189
 20
5.900192913385827
 30
0.0
 10
-13.06288976377953
 20
5.900192913385827
 30
0.0
 10
-13.06288976377953
 20
5.900192913385827
 30
0.0
 10
-13.01983858267717
 20
5.900192913385827
 30
0.0
 10
-12.98493700787402
 20
5.935094488188977
 30
0.0
 10
-12.98493700787402
 20
5.978145669291338
 30
0.0
  0
SPLINE
  5
7A
330
1F
100
AcDbEntity
  8
Layer 1
370
     9
100
AcDbSpline
210
0.0
220
0.0
230
1.0
 70
    11
 71
     3
 72
    20
 73
    16
 74
     0
 42
0.000000001
 43
0.0000000001
 40
0.0
 40
0.0
 40
0.0
 40
0.0
 40
0.2
 40
0.2
 40
0.2
 40
0.2
 40
0.4
 40
0.4
 40
0.4
 40
0.4
 40
0.6
 40
0.6
 40
0.6
 40
0.6
 40
1.0
 40
1.0
 40
1.0
 40
1.0
 10
-13.88764960629921
 20
5.372677165354331
 30
0.0
 10
-13.88764960629921
 20
5.415728346456693
 30
0.0
 10
-13.92255118110236
 20
5.450629921259843
 30
0.0
 10
-13.96560236220472
 20
5.450629921259843
 30
0.0
 10
-13.96560236220472
 20
5.450629921259843
 30
0.0
 10
-14.00865354330709
 20
5.450629921259843
 30
0.0
 10
-14.04355511811024
 20
5.415728346456693
 30
0.0
 10
-14.04355511811024
 20
5.372677165354331
 30
0.0
 10
-14.04355511811024
 20
5.372677165354331
 30
0.0
 10
-14.04355511811024
 20
5.329622047244094
 30
0.0
 10
-14.00865748031496
 20
5.294724409448819
 30
0.0
 10
-13.96560236220472
 20
5.294724409448819
 30
0.0
 10
-13.96560236220472
 20
5.294724409448819
 30
0.0
 10
-13.92255118110236
 20
5.294724409448819
 30
0.0
 10
-13.88764960629921
 20
5.329622047244094
 30
0.0
 10
-13.88764960629921
 20
5.372677165354331
 30
0.0
  0
SPLINE
  5
7B
330
1F
100
AcDbEntity
  8
Layer 1
370
     9
100
AcDbSpline
210
0.0
220
0.0
230
1.0
 70
    11
 71
     3
 72
    20
 73
    16
 74
     0
 42
0.000000001
 43
0.0000000001
 40
0.0
 40
0.0
 40
0.0
 40
0.0
 40
0.2
 40
0.2
 40
0.2
 40
0.2
 40
0.4
 40
0.4
 40
0.4
 40
0.4
 40
0.6
 40
0.6
 40
0.6
 40
0.6
 40
1.0
 40
1.0
 40
1.0
 40
1.0
 10
-13.88764960629921
 20
5.978145669291338
 30
0.0
 10
-13.88764960629921
 20
6.021196850393701
 30
0.0
 10
-13.92255118110236
 20
6.056098425196851
 30
0.0
 10
-13.96560236220472
 20
6.056098425196851
 30
0.0
 10
-13.96560236220472
 20
6.056098425196851
 30
0.0
 10
-14.00865354330709
 20
6.056098425196851
 30
0.0
 10
-14.04355511811024
 20
6.021196850393701
 30
0.0
 10
-14.04355511811024
 20
5.978145669291338
 30
0.0
 10
-14.04355511811024
 20
5.978145669291338
 30
0.0
 10
-14.04355511811024
 20
5.935094488188977
 30
0.0
 10
-14.00865748031496
 20
5.900192913385827
 30
0.0
 10
-13.96560236220472
 20
5.900192913385827
 30
0.0
 10
-13.96560236220472
 20
5.900192913385827
 30
0.0
 10
-13.92255118110236
 20
5.900192913385827
 30
0.0
 10
-13.88764960629921
 20
5.935094488188977
 30
0.0
 10
-13.88764960629921
 20
5.978145669291338
 30
0.0
  0
SPLINE
  5
7C
330
1F
100
AcDbEntity
  8
Layer 1
370
     9
100
AcDbSpline
210
0.0
220
0.0
230
1.0
 70
    11
 71
     3
 72
    20
 73
    16
 74
     0
 42
0.000000001
 43
0.0000000001
 40
0.0
 40
0.0
 40
0.0
 40
0.0
 40
0.2
 40
0.2
 40
0.2
 40
0.2
 40
0.4
 40
0.4
 40
0.4
 40
0.4
 40
0.6
 40
0.6
 40
0.6
 40
0.6
 40
1.0
 40
1.0
 40
1.0
 40
1.0
 10
-12.98493700787402
 20
5.372677165354331
 30
0.0
 10
-12.98493700787402
 20
5.415728346456693
 30
0.0
 10
-13.01983858267717
 20
5.450629921259843
 30
0.0
 10
-13.06288976377953
 20
5.450629921259843
 30
0.0
 10
-13.06288976377953
 20
5.450629921259843
 30
0.0
 10
-13.10594094488189
 20
5.450629921259843
 30
0.0
 10
-13.14084251968504
 20
5.415728346456693
 30
0.0
 10
-13.14084251968504
 20
5.372677165354331
 30
0.0
 10
-13.14084251968504
 20
5.372677165354331
 30
0.0
 10
-13.14084251968504
 20
5.329622047244094
 30
0.0
 10
-13.10594094488189
 20
5.294724409448819
 30
0.0
 10
-13.06288976377953
 20
5.294724409448819
 30
0.0
 10
-13.06288976377953
 20
5.294724409448819
 30
0.0
 10
-13.01983858267717
 20
5.294724409448819
 30
0.0
 10
-12.98493700787402
 20
5.329622047244094
 30
0.0
 10
-12.98493700787402
 20
5.372677165354331
 30
0.0
  0
SPLINE
  5
7D
330
1F
100
AcDbEntity
  8
Layer 1
370
     9
100
AcDbSpline
210
0.0
220
0.0
230
1.0
 70
    11
 71
     3
 72
    20
 73
    16
 74
     0
 42
0.000000001
 43
0.0000000001
 40
0.0
 40
0.0
 40
0.0
 40
0.0
 40
0.2
 40
0.2
 40
0.2
 40
0.2
 40
0.4
 40
0.4
 40
0.4
 40
0.4
 40
0.6
 40
0.6
 40
0.6
 40
0.6
 40
1.0
 40
1.0
 40
1.0
 40
1.0
 10
-8.158200787401574
 20
5.371759842519685
 30
0.0
 10
-8.158200787401574
 20
5.414811023622047
 30
0.0
 10
-8.193102362204725
 20
5.449712598425197
 30
0.0
 10
-8.236153543307086
 20
5.449712598425197
 30
0.0
 10
-8.236153543307086
 20
5.449712598425197
 30
0.0
 10
-8.279204724409448
 20
5.449712598425197
 30
0.0
 10
-8.314106299212598
 20
5.414811023622047
 30
0.0
 10
-8.314106299212598
 20
5.371759842519685
 30
0.0
 10
-8.314106299212598
 20
5.371759842519685
 30
0.0
 10
-8.314106299212598
 20
5.328708661417322
 30
0.0
 10
-8.279204724409448
 20
5.293807086614173
 30
0.0
 10
-8.236153543307086
 20
5.293807086614173
 30
0.0
 10
-8.236153543307086
 20
5.293807086614173
 30
0.0
 10
-8.193102362204725
 20
5.293807086614173
 30
0.0
 10
-8.158200787401574
 20
5.328708661417322
 30
0.0
 10
-8.158200787401574
 20
5.371759842519685
 30
0.0
  0
SPLINE
  5
7E
330
1F
100
AcDbEntity
  8
Layer 1
370
     9
100
AcDbSpline
210
0.0
220
0.0
230
1.0
 70
    11
 71
     3
 72
    20
 73
    16
 74
     0
 42
0.000000001
 43
0.0000000001
 40
0.0
 40
0.0
 40
0.0
 40
0.0
 40
0.2
 40
0.2
 40
0.2
 40
0.2
 40
0.4
 40
0.4
 40
0.4
 40
0.4
 40
0.6
 40
0.6
 40
0.6
 40
0.6
 40
1.0
 40
1.0
 40
1.0
 40
1.0
 10
-7.255488188976378
 20
5.977228346456693
 30
0.0
 10
-7.255488188976378
 20
6.020283464566929
 30
0.0
 10
-7.290389763779528
 20
6.055181102362205
 30
0.0
 10
-7.33344094488189
 20
6.055181102362205
 30
0.0
 10
-7.33344094488189
 20
6.055181102362205
 30
0.0
 10
-7.376492125984252
 20
6.055181102362205
 30
0.0
 10
-7.411393700787402
 20
6.020283464566929
 30
0.0
 10
-7.411393700787402
 20
5.977228346456693
 30
0.0
 10
-7.411393700787402
 20
5.977228346456693
 30
0.0
 10
-7.411393700787402
 20
5.934177165354331
 30
0.0
 10
-7.376492125984252
 20
5.899275590551181
 30
0.0
 10
-7.33344094488189
 20
5.899275590551181
 30
0.0
 10
-7.33344094488189
 20
5.899275590551181
 30
0.0
 10
-7.290389763779528
 20
5.899275590551181
 30
0.0
 10
-7.255488188976378
 20
5.934177165354331
 30
0.0
 10
-7.255488188976378
 20
5.977228346456693
 30
0.0
  0
SPLINE
  5
7F
330
1F
100
AcDbEntity
  8
Layer 1
370
     9
100
AcDbSpline
210
0.0
220
0.0
230
1.0
 70
    11
 71
     3
 72
    23
 73
    19
 74
     0
 42
0.000000001
 43
0.0000000001
 40
0.0
 40
0.0
 40
0.0
 40
0.0
 40
0.2
 40
0.2
 40
0.2
 40
0.2
 40
0.4
 40
0.4
 40
0.4
 40
0.4
 40
0.6
 40
0.6
 40
0.6
 40
0.6
 40
1.0
 40
1.0
 40
1.0
 40
1.000003937007874
 40
1.000003937007874
 40
1.000003937007874
 40
1.000003937007874
 10
-10.26929133858268
 20
3.261586614173228
 30
0.0
 10
-10.26929133858268
 20
3.304637795275591
 30
0.0
 10
-10.30419291338583
 20
3.33953937007874
 30
0.0
 10
-10.34724409448819
 20
3.33953937007874
 30
0.0
 10
-10.34724409448819
 20
3.33953937007874
 30
0.0
 10
-10.39029527559055
 20
3.33953937007874
 30
0.0
 10
-10.4251968503937
 20
3.304637795275591
 30
0.0
 10
-10.4251968503937
 20
3.261586614173228
 30
0.0
 10
-10.4251968503937
 20
3.261586614173228
 30
0.0
 10
-10.4251968503937
 20
3.218531496062992
 30
0.0
 10
-10.39029527559055
 20
3.183633858267716
 30
0.0
 10
-10.34724409448819
 20
3.183633858267716
 30
0.0
 10
-10.34724409448819
 20
3.183633858267716
 30
0.0
 10
-10.30419291338583
 20
3.183633858267716
 30
0.0
 10
-10.26929133858268
 20
3.218531496062992
 30
0.0
 10
-10.26929133858268
 20
3.261582677165354
 30
0.0
 10
-10.26929133858268
 20
4.553118110236216
 30
0.0
 10
-10.26929133858268
 20
0.678515748031475
 30
0.0
 10
-10.26929133858268
 20
3.261586614173228
 30
0.0
  0
SPLINE
  5
80
330
1F
100
AcDbEntity
  8
Layer 1
370
     9
100
AcDbSpline
210
0.0
220
0.0
230
1.0
 70
    11
 71
     3
 72
    20
 73
    16
 74
     0
 42
0.000000001
 43
0.0000000001
 40
0.0
 40
0.0
 40
0.0
 40
0.0
 40
0.2
 40
0.2
 40
0.2
 40
0.2
 40
0.4
 40
0.4
 40
0.4
 40
0.4
 40
0.6
 40
0.6
 40
0.6
 40
0.6
 40
1.0
 40
1.0
 40
1.0
 40
1.0
 10
-10.87476377952756
 20
2.358870078740158
 30
0.0
 10
-10.87476377952756
 20
2.40192125984252
 30
0.0
 10
-10.90966141732283
 20
2.436822834645669
 30
0.0
 10
-10.9527125984252
 20
2.436822834645669
 30
0.0
 10
-10.9527125984252
 20
2.436822834645669
 30
0.0
 10
-10.99576771653543
 20
2.436822834645669
 30
0.0
 10
-11.03066535433071
 20
2.401925196850394
 30
0.0
 10
-11.03066929133858
 20
2.358870078740158
 30
0.0
 10
-11.03066929133858
 20
2.358870078740158
 30
0.0
 10
-11.03066929133858
 20
2.315818897637795
 30
0.0
 10
-10.99576771653543
 20
2.280917322834646
 30
0.0
 10
-10.95271653543307
 20
2.280917322834646
 30
0.0
 10
-10.95271653543307
 20
2.280917322834646
 30
0.0
 10
-10.90966141732283
 20
2.280917322834646
 30
0.0
 10
-10.87476377952756
 20
2.315818897637795
 30
0.0
 10
-10.87476377952756
 20
2.358870078740158
 30
0.0
  0
SPLINE
  5
81
330
1F
100
AcDbEntity
  8
Layer 1
370
     9
100
AcDbSpline
210
0.0
220
0.0
230
1.0
 70
    11
 71
     3
 72
    20
 73
    16
 74
     0
 42
0.000000001
 43
0.0000000001
 40
0.0
 40
0.0
 40
0.0
 40
0.0
 40
0.2
 40
0.2
 40
0.2
 40
0.2
 40
0.4
 40
0.4
 40
0.4
 40
0.4
 40
0.6
 40
0.6
 40
0.6
 40
0.6
 40
1.0
 40
1.0
 40
1.0
 40
1.0
 10
-10.87384645669291
 20
8.991035433070866
 30
0.0
 10
-10.87384645669291
 20
9.034086614173228
 30
0.0
 10
-10.90874803149606
 20
9.068988188976379
 30
0.0
 10
-10.95179921259843
 20
9.068988188976379
 30
0.0
 10
-10.95179921259843
 20
9.068988188976379
 30
0.0
 10
-10.99485039370079
 20
9.068988188976379
 30
0.0
 10
-11.02975196850394
 20
9.034086614173228
 30
0.0
 10
-11.02975196850394
 20
8.991035433070866
 30
0.0
 10
-11.02975196850394
 20
8.991035433070866
 30
0.0
 10
-11.02975196850394
 20
8.947984251968505
 30
0.0
 10
-10.99485039370079
 20
8.913082677165354
 30
0.0
 10
-10.95179921259843
 20
8.913082677165354
 30
0.0
 10
-10.95179921259843
 20
8.913082677165354
 30
0.0
 10
-10.90874803149606
 20
8.913082677165354
 30
0.0
 10
-10.87384645669291
 20
8.94798031496063
 30
0.0
 10
-10.87384645669291
 20
8.991035433070866
 30
0.0
  0
SPLINE
  5
82
330
1F
100
AcDbEntity
  8
Layer 1
370
     9
100
AcDbSpline
210
0.0
220
0.0
230
1.0
 70
    11
 71
     3
 72
    20
 73
    16
 74
     0
 42
0.000000001
 43
0.0000000001
 40
0.0
 40
0.0
 40
0.0
 40
0.0
 40
0.2
 40
0.2
 40
0.2
 40
0.2
 40
0.4
 40
0.4
 40
0.4
 40
0.4
 40
0.6
 40
0.6
 40
0.6
 40
0.6
 40
1.0
 40
1.0
 40
1.0
 40
1.0
 10
-10.26837795275591
 20
8.088318897637794
 30
0.0
 10
-10.26837795275591
 20
8.131374015748031
 30
0.0
 10
-10.30327559055118
 20
8.166271653543307
 30
0.0
 10
-10.34633070866142
 20
8.166271653543307
 30
0.0
 10
-10.34633070866142
 20
8.166271653543307
 30
0.0
 10
-10.38938188976378
 20
8.166271653543307
 30
0.0
 10
-10.42428346456693
 20
8.131374015748031
 30
0.0
 10
-10.42428346456693
 20
8.088318897637794
 30
0.0
 10
-10.42428346456693
 20
8.088318897637794
 30
0.0
 10
-10.42428346456693
 20
8.045267716535433
 30
0.0
 10
-10.38938188976378
 20
8.010366141732284
 30
0.0
 10
-10.34633070866142
 20
8.010366141732284
 30
0.0
 10
-10.34633070866142
 20
8.010366141732284
 30
0.0
 10
-10.30327559055118
 20
8.010366141732284
 30
0.0
 10
-10.26837795275591
 20
8.045267716535433
 30
0.0
 10
-10.26837795275591
 20
8.088318897637794
 30
0.0
  0
SPLINE
  5
83
330
1F
100
AcDbEntity
  8
Layer 1
370
     9
100
AcDbSpline
210
0.0
220
0.0
230
1.0
 70
    11
 71
     3
 72
    20
 73
    16
 74
     0
 42
0.000000001
 43
0.0000000001
 40
0.0
 40
0.0
 40
0.0
 40
0.0
 40
0.2
 40
0.2
 40
0.2
 40
0.2
 40
0.4
 40
0.4
 40
0.4
 40
0.4
 40
0.6
 40
0.6
 40
0.6
 40
0.6
 40
1.0
 40
1.0
 40
1.0
 40
1.0
 10
-10.87384645669291
 20
8.088318897637794
 30
0.0
 10
-10.87384645669291
 20
8.131374015748031
 30
0.0
 10
-10.90874803149606
 20
8.166271653543307
 30
0.0
 10
-10.95179921259843
 20
8.166271653543307
 30
0.0
 10
-10.95179921259843
 20
8.166271653543307
 30
0.0
 10
-10.99485039370079
 20
8.166271653543307
 30
0.0
 10
-11.02975196850394
 20
8.131374015748031
 30
0.0
 10
-11.02975196850394
 20
8.088318897637794
 30
0.0
 10
-11.02975196850394
 20
8.088318897637794
 30
0.0
 10
-11.02975196850394
 20
8.045267716535433
 30
0.0
 10
-10.99485039370079
 20
8.010366141732284
 30
0.0
 10
-10.95179921259843
 20
8.010366141732284
 30
0.0
 10
-10.95179921259843
 20
8.010366141732284
 30
0.0
 10
-10.90874803149606
 20
8.010366141732284
 30
0.0
 10
-10.87384645669291
 20
8.045267716535433
 30
0.0
 10
-10.87384645669291
 20
8.088318897637794
 30
0.0
  0
SPLINE
  5
84
330
1F
100
AcDbEntity
  8
Layer 1
370
     9
100
AcDbSpline
210
0.0
220
0.0
230
1.0
 70
    11
 71
     3
 72
    20
 73
    16
 74
     0
 42
0.000000001
 43
0.0000000001
 40
0.0
 40
0.0
 40
0.0
 40
0.0
 40
0.2
 40
0.2
 40
0.2
 40
0.2
 40
0.4
 40
0.4
 40
0.4
 40
0.4
 40
0.6
 40
0.6
 40
0.6
 40
0.6
 40
1.0
 40
1.0
 40
1.0
 40
1.0
 10
-10.26837795275591
 20
8.991035433070866
 30
0.0
 10
-10.26837795275591
 20
9.034086614173228
 30
0.0
 10
-10.30327559055118
 20
9.068988188976379
 30
0.0
 10
-10.34633070866142
 20
9.068988188976379
 30
0.0
 10
-10.34633070866142
 20
9.068988188976379
 30
0.0
 10
-10.38938188976378
 20
9.068988188976379
 30
0.0
 10
-10.42428346456693
 20
9.034086614173228
 30
0.0
 10
-10.42428346456693
 20
8.991035433070866
 30
0.0
 10
-10.42428346456693
 20
8.991035433070866
 30
0.0
 10
-10.42428346456693
 20
8.947984251968505
 30
0.0
 10
-10.38938188976378
 20
8.913082677165354
 30
0.0
 10
-10.34633070866142
 20
8.913082677165354
 30
0.0
 10
-10.34633070866142
 20
8.913082677165354
 30
0.0
 10
-10.30327559055118
 20
8.913082677165354
 30
0.0
 10
-10.26837795275591
 20
8.94798031496063
 30
0.0
 10
-10.26837795275591
 20
8.991035433070866
 30
0.0
  0
SPLINE
  5
85
330
1F
100
AcDbEntity
  8
Layer 1
370
     9
100
AcDbSpline
210
0.0
220
0.0
230
1.0
 70
    11
 71
     3
 72
    20
 73
    16
 74
     0
 42
0.000000001
 43
0.0000000001
 40
0.0
 40
0.0
 40
0.0
 40
0.0
 40
0.2
 40
0.2
 40
0.2
 40
0.2
 40
0.4
 40
0.4
 40
0.4
 40
0.4
 40
0.6
 40
0.6
 40
0.6
 40
0.6
 40
1.0
 40
1.0
 40
1.0
 40
1.0
 10
-7.194496062992126
 20
2.219677165354331
 30
0.0
 10
-7.194496062992126
 20
2.219677165354331
 30
0.0
 10
-14.10454724409449
 20
2.219677165354331
 30
0.0
 10
-14.10454724409449
 20
2.219677165354331
 30
0.0
 10
-14.10454724409449
 20
2.219677165354331
 30
0.0
 10
-14.10454724409449
 20
2.219677165354331
 30
0.0
 10
-14.10454724409449
 20
9.130228346456693
 30
0.0
 10
-14.10454724409449
 20
9.130228346456693
 30
0.0
 10
-14.10454724409449
 20
9.130228346456693
 30
0.0
 10
-14.10454724409449
 20
9.130228346456693
 30
0.0
 10
-7.194496062992126
 20
9.130228346456693
 30
0.0
 10
-7.194496062992126
 20
9.130228346456693
 30
0.0
 10
-7.194496062992126
 20
9.130228346456693
 30
0.0
 10
-7.194496062992126
 20
9.130228346456693
 30
0.0
 10
-7.194496062992126
 20
2.219677165354331
 30
0.0
 10
-7.194496062992126
 20
2.219677165354331
 30
0.0
  0
SPLINE
  5
86
330
1F
100
AcDbEntity
  8
Layer 1
370
     9
100
AcDbSpline
210
0.0
220
0.0
230
1.0
 70
    11
 71
     3
 72
   312
 73
   308
 74
     0
 42
0.000000001
 43
0.0000000001
 40
0.0
 40
0.0
 40
0.0
 40
0.0
 40
0.0128205128205128
 40
0.0128205128205128
 40
0.0128205128205128
 40
0.0128205128205128
 40
0.0256410256410256
 40
0.0256410256410256
 40
0.0256410256410256
 40
0.0256410256410256
 40
0.0384615384615385
 40
0.0384615384615385
 40
0.0384615384615385
 40
0.0384615384615385
 40
0.0512820512820513
 40
0.0512820512820513
 40
0.0512820512820513
 40
0.0512820512820513
 40
0.0641025641025641
 40
0.0641025641025641
 40
0.0641025641025641
 40
0.0641025641025641
 40
0.0769230769230769
 40
0.0769230769230769
 40
0.0769230769230769
 40
0.0769230769230769
 40
0.0897435897435897
 40
0.0897435897435897
 40
0.0897435897435897
 40
0.0897435897435897
 40
0.1025641025641026
 40
0.1025641025641026
 40
0.1025641025641026
 40
0.1025641025641026
 40
0.1153846153846154
 40
0.1153846153846154
 40
0.1153846153846154
 40
0.1153846153846154
 40
0.1282051282051282
 40
0.1282051282051282
 40
0.1282051282051282
 40
0.1282051282051282
 40
0.141025641025641
 40
0.141025641025641
 40
0.141025641025641
 40
0.141025641025641
 40
0.1538461538461539
 40
0.1538461538461539
 40
0.1538461538461539
 40
0.1538461538461539
 40
0.1666666666666667
 40
0.1666666666666667
 40
0.1666666666666667
 40
0.1666666666666667
 40
0.1794871794871795
 40
0.1794871794871795
 40
0.1794871794871795
 40
0.1794871794871795
 40
0.1923076923076923
 40
0.1923076923076923
 40
0.1923076923076923
 40
0.1923076923076923
 40
0.2051282051282051
 40
0.2051282051282051
 40
0.2051282051282051
 40
0.2051282051282051
 40
0.217948717948718
 40
0.217948717948718
 40
0.217948717948718
 40
0.217948717948718
 40
0.2307692307692308
 40
0.2307692307692308
 40
0.2307692307692308
 40
0.2307692307692308
 40
0.2435897435897436
 40
0.2435897435897436
 40
0.2435897435897436
 40
0.2435897435897436
 40
0.2564102564102564
 40
0.2564102564102564
 40
0.2564102564102564
 40
0.2564102564102564
 40
0.2692307692307692
 40
0.2692307692307692
 40
0.2692307692307692
 40
0.2692307692307692
 40
0.282051282051282
 40
0.282051282051282
 40
0.282051282051282
 40
0.282051282051282
 40
0.2948717948717949
 40
0.2948717948717949
 40
0.2948717948717949
 40
0.2948717948717949
 40
0.3076923076923077
 40
0.3076923076923077
 40
0.3076923076923077
 40
0.3076923076923077
 40
0.3205128205128205
 40
0.3205128205128205
 40
0.3205128205128205
 40
0.3205128205128205
 40
0.3333333333333333
 40
0.3333333333333333
 40
0.3333333333333333
 40
0.3333333333333333
 40
0.3461538461538461
 40
0.3461538461538461
 40
0.3461538461538461
 40
0.3461538461538461
 40
0.358974358974359
 40
0.358974358974359
 40
0.358974358974359
 40
0.358974358974359
 40
0.3717948717948718
 40
0.3717948717948718
 40
0.3717948717948718
 40
0.3717948717948718
 40
0.3846153846153846
 40
0.3846153846153846
 40
0.3846153846153846
 40
0.3846153846153846
 40
0.3974358974358974
 40
0.3974358974358974
 40
0.3974358974358974
 40
0.3974358974358974
 40
0.4102564102564102
 40
0.4102564102564102
 40
0.4102564102564102
 40
0.4102564102564102
 40
0.4230769230769231
 40
0.4230769230769231
 40
0.4230769230769231
 40
0.4230769230769231
 40
0.4358974358974359
 40
0.4358974358974359
 40
0.4358974358974359
 40
0.4358974358974359
 40
0.4487179487179487
 40
0.4487179487179487
 40
0.4487179487179487
 40
0.4487179487179487
 40
0.4615384615384616
 40
0.4615384615384616
 40
0.4615384615384616
 40
0.4615384615384616
 40
0.4743589743589743
 40
0.4743589743589743
 40
0.4743589743589743
 40
0.4743589743589743
 40
0.4871794871794872
 40
0.4871794871794872
 40
0.4871794871794872
 40
0.4871794871794872
 40
0.5
 40
0.5
 40
0.5
 40
0.5
 40
0.5128205128205128
 40
0.5128205128205128
 40
0.5128205128205128
 40
0.5128205128205128
 40
0.5256410256410257
 40
0.5256410256410257
 40
0.5256410256410257
 40
0.5256410256410257
 40
0.5384615384615384
 40
0.5384615384615384
 40
0.5384615384615384
 40
0.5384615384615384
 40
0.5512820512820513
 40
0.5512820512820513
 40
0.5512820512820513
 40
0.5512820512820513
 40
0.5641025641025641
 40
0.5641025641025641
 40
0.5641025641025641
 40
0.5641025641025641
 40
0.5769230769230769
 40
0.5769230769230769
 40
0.5769230769230769
 40
0.5769230769230769
 40
0.5897435897435898
 40
0.5897435897435898
 40
0.5897435897435898
 40
0.5897435897435898
 40
0.6025641025641025
 40
0.6025641025641025
 40
0.6025641025641025
 40
0.6025641025641025
 40
0.6153846153846154
 40
0.6153846153846154
 40
0.6153846153846154
 40
0.6153846153846154
 40
0.6282051282051282
 40
0.6282051282051282
 40
0.6282051282051282
 40
0.6282051282051282
 40
0.6410256410256411
 40
0.6410256410256411
 40
0.6410256410256411
 40
0.6410256410256411
 40
0.6538461538461539
 40
0.6538461538461539
 40
0.6538461538461539
 40
0.6538461538461539
 40
0.6666666666666666
 40
0.6666666666666666
 40
0.6666666666666666
 40
0.6666666666666666
 40
0.6794871794871795
 40
0.6794871794871795
 40
0.6794871794871795
 40
0.6794871794871795
 40
0.6923076923076923
 40
0.6923076923076923
 40
0.6923076923076923
 40
0.6923076923076923
 40
0.7051282051282052
 40
0.7051282051282052
 40
0.7051282051282052
 40
0.7051282051282052
 40
0.717948717948718
 40
0.717948717948718
 40
0.717948717948718
 40
0.717948717948718
 40
0.7307692307692307
 40
0.7307692307692307
 40
0.7307692307692307
 40
0.7307692307692307
 40
0.7435897435897436
 40
0.7435897435897436
 40
0.7435897435897436
 40
0.7435897435897436
 40
0.7564102564102564
 40
0.7564102564102564
 40
0.7564102564102564
 40
0.7564102564102564
 40
0.7692307692307693
 40
0.7692307692307693
 40
0.7692307692307693
 40
0.7692307692307693
 40
0.782051282051282
 40
0.782051282051282
 40
0.782051282051282
 40
0.782051282051282
 40
0.7948717948717948
 40
0.7948717948717948
 40
0.7948717948717948
 40
0.7948717948717948
 40
0.8076923076923077
 40
0.8076923076923077
 40
0.8076923076923077
 40
0.8076923076923077
 40
0.8205128205128205
 40
0.8205128205128205
 40
0.8205128205128205
 40
0.8205128205128205
 40
0.8333333333333334
 40
0.8333333333333334
 40
0.8333333333333334
 40
0.8333333333333334
 40
0.8461538461538461
 40
0.8461538461538461
 40
0.8461538461538461
 40
0.8461538461538461
 40
0.8589743589743589
 40
0.8589743589743589
 40
0.8589743589743589
 40
0.8589743589743589
 40
0.8717948717948718
 40
0.8717948717948718
 40
0.8717948717948718
 40
0.8717948717948718
 40
0.8846153846153846
 40
0.8846153846153846
 40
0.8846153846153846
 40
0.8846153846153846
 40
0.8974358974358975
 40
0.8974358974358975
 40
0.8974358974358975
 40
0.8974358974358975
 40
0.9102564102564102
 40
0.9102564102564102
 40
0.9102564102564102
 40
0.9102564102564102
 40
0.9230769230769231
 40
0.9230769230769231
 40
0.9230769230769231
 40
0.9230769230769231
 40
0.9358974358974359
 40
0.9358974358974359
 40
0.9358974358974359
 40
0.9358974358974359
 40
0.9487179487179487
 40
0.9487179487179487
 40
0.9487179487179487
 40
0.9487179487179487
 40
0.9615384615384616
 40
0.9615384615384616
 40
0.9615384615384616
 40
0.9615384615384616
 40
0.9743589743589743
 40
0.9743589743589743
 40
0.9743589743589743
 40
0.9743589743589743
 40
1.0
 40
1.0
 40
1.0
 40
1.0
 10
-12.2234094488189
 20
5.064169291338582
 30
0.0
 10
-12.2234094488189
 20
5.064169291338582
 30
0.0
 10
-12.2234094488189
 20
5.49817716535433
 30
0.0
 10
-12.2234094488189
 20
5.49817716535433
 30
0.0
 10
-12.2234094488189
 20
5.49817716535433
 30
0.0
 10
-12.25498818897638
 20
5.529755905511811
 30
0.0
 10
-12.26731889763779
 20
5.575779527559055
 30
0.0
 10
-12.25576377952756
 20
5.618917322834646
 30
0.0
 10
-12.25576377952756
 20
5.618917322834646
 30
0.0
 10
-12.24420472440945
 20
5.662055118110236
 30
0.0
 10
-12.21051181102362
 20
5.695748031496063
 30
0.0
 10
-12.16737401574803
 20
5.707307086614173
 30
0.0
 10
-12.16737401574803
 20
5.707307086614173
 30
0.0
 10
-12.12423622047244
 20
5.71886220472441
 30
0.0
 10
-12.0782125984252
 20
5.706531496062992
 30
0.0
 10
-12.04663385826772
 20
5.674952755905512
 30
0.0
 10
-12.04663385826772
 20
5.674952755905512
 30
0.0
 10
-12.04663385826772
 20
5.674952755905512
 30
0.0
 10
-11.85293700787402
 20
5.674952755905512
 30
0.0
 10
-11.85293700787402
 20
5.674952755905512
 30
0.0
 10
-11.85293700787402
 20
5.674952755905512
 30
0.0
 10
-11.85293700787402
 20
5.674952755905512
 30
0.0
 10
-11.85293700787402
 20
6.462275590551181
 30
0.0
 10
-11.85293700787402
 20
6.462275590551181
 30
0.0
 10
-11.85293700787402
 20
6.462275590551181
 30
0.0
 10
-11.85293700787402
 20
6.462275590551181
 30
0.0
 10
-12.04663385826772
 20
6.462275590551181
 30
0.0
 10
-12.04663385826772
 20
6.462275590551181
 30
0.0
 10
-12.04663385826772
 20
6.462275590551181
 30
0.0
 10
-12.0782125984252
 20
6.430696850393701
 30
0.0
 10
-12.12423622047244
 20
6.418366141732283
 30
0.0
 10
-12.16737401574803
 20
6.429925196850394
 30
0.0
 10
-12.16737401574803
 20
6.429925196850394
 30
0.0
 10
-12.21051181102362
 20
6.44148031496063
 30
0.0
 10
-12.24420472440945
 20
6.475177165354331
 30
0.0
 10
-12.25576377952756
 20
6.518311023622047
 30
0.0
 10
-12.25576377952756
 20
6.518311023622047
 30
0.0
 10
-12.26731889763779
 20
6.561448818897638
 30
0.0
 10
-12.25498818897638
 20
6.607476377952756
 30
0.0
 10
-12.2234094488189
 20
6.639051181102362
 30
0.0
 10
-12.2234094488189
 20
6.639051181102362
 30
0.0
 10
-12.2234094488189
 20
6.639051181102362
 30
0.0
 10
-12.2234094488189
 20
7.07305905511811
 30
0.0
 10
-12.2234094488189
 20
7.07305905511811
 30
0.0
 10
-12.2234094488189
 20
7.07305905511811
 30
0.0
 10
-12.25498818897638
 20
7.104637795275591
 30
0.0
 10
-12.26731889763779
 20
7.150661417322834
 30
0.0
 10
-12.25576377952756
 20
7.193799212598425
 30
0.0
 10
-12.25576377952756
 20
7.193799212598425
 30
0.0
 10
-12.24420472440945
 20
7.236937007874015
 30
0.0
 10
-12.21051181102362
 20
7.270629921259842
 30
0.0
 10
-12.16737401574803
 20
7.282188976377952
 30
0.0
 10
-12.16737401574803
 20
7.282188976377952
 30
0.0
 10
-12.12423622047244
 20
7.293744094488189
 30
0.0
 10
-12.0782125984252
 20
7.281413385826772
 30
0.0
 10
-12.04663385826772
 20
7.249834645669291
 30
0.0
 10
-12.04663385826772
 20
7.249834645669291
 30
0.0
 10
-12.04663385826772
 20
7.249834645669291
 30
0.0
 10
-12.02955511811024
 20
7.249834645669291
 30
0.0
 10
-12.02955511811024
 20
7.249834645669291
 30
0.0
 10
-12.02955511811024
 20
7.249834645669291
 30
0.0
 10
-11.99797637795276
 20
7.281413385826772
 30
0.0
 10
-11.95195275590551
 20
7.293744094488189
 30
0.0
 10
-11.90881496062992
 20
7.282188976377952
 30
0.0
 10
-11.90881496062992
 20
7.282188976377952
 30
0.0
 10
-11.86567716535433
 20
7.270629921259842
 30
0.0
 10
-11.8319842519685
 20
7.236937007874015
 30
0.0
 10
-11.82042913385827
 20
7.193799212598425
 30
0.0
 10
-11.82042913385827
 20
7.193799212598425
 30
0.0
 10
-11.80887007874016
 20
7.150661417322834
 30
0.0
 10
-11.82120078740157
 20
7.104637795275591
 30
0.0
 10
-11.85277952755906
 20
7.07305905511811
 30
0.0
 10
-11.85277952755906
 20
7.07305905511811
 30
0.0
 10
-11.85277952755906
 20
7.07305905511811
 30
0.0
 10
-11.85277952755906
 20
6.879204724409449
 30
0.0
 10
-11.85277952755906
 20
6.879204724409449
 30
0.0
 10
-11.85277952755906
 20
6.879204724409449
 30
0.0
 10
-11.85277952755906
 20
6.879204724409449
 30
0.0
 10
-11.05005118110236
 20
6.879204724409449
 30
0.0
 10
-11.05005118110236
 20
6.879204724409449
 30
0.0
 10
-11.05005118110236
 20
6.879204724409449
 30
0.0
 10
-11.05005118110236
 20
6.879204724409449
 30
0.0
 10
-11.05005118110236
 20
7.07305905511811
 30
0.0
 10
-11.05005118110236
 20
7.07305905511811
 30
0.0
 10
-11.05005118110236
 20
7.07305905511811
 30
0.0
 10
-11.08162992125984
 20
7.104637795275591
 30
0.0
 10
-11.09396062992126
 20
7.150661417322834
 30
0.0
 10
-11.08240157480315
 20
7.193799212598425
 30
0.0
 10
-11.08240157480315
 20
7.193799212598425
 30
0.0
 10
-11.07084251968504
 20
7.236937007874015
 30
0.0
 10
-11.03714960629921
 20
7.270629921259842
 30
0.0
 10
-10.9940157480315
 20
7.282188976377952
 30
0.0
 10
-10.9940157480315
 20
7.282188976377952
 30
0.0
 10
-10.95087795275591
 20
7.293744094488189
 30
0.0
 10
-10.90485039370079
 20
7.281413385826772
 30
0.0
 10
-10.87327165354331
 20
7.249834645669291
 30
0.0
 10
-10.87327165354331
 20
7.249834645669291
 30
0.0
 10
-10.87327165354331
 20
7.249834645669291
 30
0.0
 10
-10.42378346456693
 20
7.249834645669291
 30
0.0
 10
-10.42378346456693
 20
7.249834645669291
 30
0.0
 10
-10.42378346456693
 20
7.249834645669291
 30
0.0
 10
-10.39220472440945
 20
7.281413385826772
 30
0.0
 10
-10.34617716535433
 20
7.293744094488189
 30
0.0
 10
-10.30303937007874
 20
7.282188976377952
 30
0.0
 10
-10.30303937007874
 20
7.282188976377952
 30
0.0
 10
-10.25990551181102
 20
7.270629921259842
 30
0.0
 10
-10.2262125984252
 20
7.236937007874015
 30
0.0
 10
-10.21465354330709
 20
7.193799212598425
 30
0.0
 10
-10.21465354330709
 20
7.193799212598425
 30
0.0
 10
-10.20309448818898
 20
7.150661417322834
 30
0.0
 10
-10.21542913385827
 20
7.104637795275591
 30
0.0
 10
-10.24700393700787
 20
7.07305905511811
 30
0.0
 10
-10.24700393700787
 20
7.07305905511811
 30
0.0
 10
-10.24700393700787
 20
7.07305905511811
 30
0.0
 10
-10.24700393700787
 20
6.879204724409449
 30
0.0
 10
-10.24700393700787
 20
6.879204724409449
 30
0.0
 10
-10.24700393700787
 20
6.879204724409449
 30
0.0
 10
-10.24700393700787
 20
6.879204724409449
 30
0.0
 10
-9.44427559055118
 20
6.879204724409449
 30
0.0
 10
-9.44427559055118
 20
6.879204724409449
 30
0.0
 10
-9.44427559055118
 20
6.879204724409449
 30
0.0
 10
-9.44427559055118
 20
6.879204724409449
 30
0.0
 10
-9.44427559055118
 20
7.07305905511811
 30
0.0
 10
-9.44427559055118
 20
7.07305905511811
 30
0.0
 10
-9.44427559055118
 20
7.07305905511811
 30
0.0
 10
-9.475854330708662
 20
7.104637795275591
 30
0.0
 10
-9.488185039370078
 20
7.150661417322834
 30
0.0
 10
-9.476629921259843
 20
7.193799212598425
 30
0.0
 10
-9.476629921259843
 20
7.193799212598425
 30
0.0
 10
-9.465070866141732
 20
7.236937007874015
 30
0.0
 10
-9.431377952755906
 20
7.270629921259842
 30
0.0
 10
-9.388240157480315
 20
7.282188976377952
 30
0.0
 10
-9.388240157480315
 20
7.282188976377952
 30
0.0
 10
-9.345102362204724
 20
7.293744094488189
 30
0.0
 10
-9.29907874015748
 20
7.281413385826772
 30
0.0
 10
-9.2675
 20
7.249834645669291
 30
0.0
 10
-9.2675
 20
7.249834645669291
 30
0.0
 10
-9.2675
 20
7.249834645669291
 30
0.0
 10
-9.25042125984252
 20
7.249834645669291
 30
0.0
 10
-9.25042125984252
 20
7.249834645669291
 30
0.0
 10
-9.25042125984252
 20
7.249834645669291
 30
0.0
 10
-9.218842519685039
 20
7.281413385826772
 30
0.0
 10
-9.172818897637795
 20
7.293744094488189
 30
0.0
 10
-9.129681102362206
 20
7.282188976377952
 30
0.0
 10
-9.129681102362206
 20
7.282188976377952
 30
0.0
 10
-9.086543307086615
 20
7.270629921259842
 30
0.0
 10
-9.052850393700787
 20
7.236937007874015
 30
0.0
 10
-9.041295275590551
 20
7.193799212598425
 30
0.0
 10
-9.041295275590551
 20
7.193799212598425
 30
0.0
 10
-9.02973622047244
 20
7.150661417322834
 30
0.0
 10
-9.042066929133858
 20
7.104637795275591
 30
0.0
 10
-9.073645669291338
 20
7.07305905511811
 30
0.0
 10
-9.073645669291338
 20
7.07305905511811
 30
0.0
 10
-9.073645669291338
 20
7.07305905511811
 30
0.0
 10
-9.073645669291338
 20
6.638972440944882
 30
0.0
 10
-9.073645669291338
 20
6.638972440944882
 30
0.0
 10
-9.073645669291338
 20
6.638972440944882
 30
0.0
 10
-9.042066929133858
 20
6.607397637795276
 30
0.0
 10
-9.02973622047244
 20
6.561370078740158
 30
0.0
 10
-9.041295275590551
 20
6.518232283464567
 30
0.0
 10
-9.041295275590551
 20
6.518232283464567
 30
0.0
 10
-9.052850393700787
 20
6.47509842519685
 30
0.0
 10
-9.086543307086615
 20
6.44140157480315
 30
0.0
 10
-9.129681102362206
 20
6.429846456692913
 30
0.0
 10
-9.129681102362206
 20
6.429846456692913
 30
0.0
 10
-9.172818897637795
 20
6.418287401574803
 30
0.0
 10
-9.218842519685039
 20
6.43061811023622
 30
0.0
 10
-9.25042125984252
 20
6.462196850393701
 30
0.0
 10
-9.25042125984252
 20
6.462196850393701
 30
0.0
 10
-9.25042125984252
 20
6.462196850393701
 30
0.0
 10
-9.4441968503937
 20
6.462196850393701
 30
0.0
 10
-9.4441968503937
 20
6.462196850393701
 30
0.0
 10
-9.4441968503937
 20
6.462196850393701
 30
0.0
 10
-9.4441968503937
 20
6.462196850393701
 30
0.0
 10
-9.4441968503937
 20
5.674952755905512
 30
0.0
 10
-9.4441968503937
 20
5.674952755905512
 30
0.0
 10
-9.4441968503937
 20
5.674952755905512
 30
0.0
 10
-9.4441968503937
 20
5.674952755905512
 30
0.0
 10
-9.25042125984252
 20
5.674952755905512
 30
0.0
 10
-9.25042125984252
 20
5.674952755905512
 30
0.0
 10
-9.25042125984252
 20
5.674952755905512
 30
0.0
 10
-9.218842519685039
 20
5.706531496062992
 30
0.0
 10
-9.172818897637795
 20
5.71886220472441
 30
0.0
 10
-9.129681102362206
 20
5.707307086614173
 30
0.0
 10
-9.129681102362206
 20
5.707307086614173
 30
0.0
 10
-9.086543307086615
 20
5.695748031496063
 30
0.0
 10
-9.052850393700787
 20
5.662055118110236
 30
0.0
 10
-9.041295275590551
 20
5.618917322834646
 30
0.0
 10
-9.041295275590551
 20
5.618917322834646
 30
0.0
 10
-9.02973622047244
 20
5.575779527559055
 30
0.0
 10
-9.042066929133858
 20
5.529755905511811
 30
0.0
 10
-9.073645669291338
 20
5.49817716535433
 30
0.0
 10
-9.073645669291338
 20
5.49817716535433
 30
0.0
 10
-9.073645669291338
 20
5.49817716535433
 30
0.0
 10
-9.073645669291338
 20
5.064169291338582
 30
0.0
 10
-9.073645669291338
 20
5.064169291338582
 30
0.0
 10
-9.073645669291338
 20
5.064169291338582
 30
0.0
 10
-9.042066929133858
 20
5.032594488188977
 30
0.0
 10
-9.02973622047244
 20
4.986566929133859
 30
0.0
 10
-9.041295275590551
 20
4.943429133858268
 30
0.0
 10
-9.041295275590551
 20
4.943429133858268
 30
0.0
 10
-9.052850393700787
 20
4.900295275590551
 30
0.0
 10
-9.086543307086615
 20
4.866598425196851
 30
0.0
 10
-9.129681102362206
 20
4.855043307086614
 30
0.0
 10
-9.129681102362206
 20
4.855043307086614
 30
0.0
 10
-9.172818897637795
 20
4.843484251968504
 30
0.0
 10
-9.218842519685039
 20
4.855814960629921
 30
0.0
 10
-9.25042125984252
 20
4.887393700787402
 30
0.0
 10
-9.25042125984252
 20
4.887393700787402
 30
0.0
 10
-9.25042125984252
 20
4.887393700787402
 30
0.0
 10
-9.44411811023622
 20
4.887393700787402
 30
0.0
 10
-9.44411811023622
 20
4.887393700787402
 30
0.0
 10
-9.44411811023622
 20
4.887393700787402
 30
0.0
 10
-9.44411811023622
 20
4.887393700787402
 30
0.0
 10
-9.44411811023622
 20
4.276767716535433
 30
0.0
 10
-9.44411811023622
 20
4.276767716535433
 30
0.0
 10
-9.44411811023622
 20
4.276767716535433
 30
0.0
 10
-9.41253937007874
 20
4.245192913385827
 30
0.0
 10
-9.400208661417324
 20
4.199165354330709
 30
0.0
 10
-9.411767716535433
 20
4.156027559055118
 30
0.0
 10
-9.411767716535433
 20
4.156027559055118
 30
0.0
 10
-9.423322834645669
 20
4.112893700787402
 30
0.0
 10
-9.457015748031496
 20
4.079196850393701
 30
0.0
 10
-9.500153543307087
 20
4.067641732283464
 30
0.0
 10
-9.500153543307087
 20
4.067641732283464
 30
0.0
 10
-9.543291338582677
 20
4.056082677165354
 30
0.0
 10
-9.58931496062992
 20
4.068413385826772
 30
0.0
 10
-9.620893700787402
 20
4.099992125984252
 30
0.0
 10
-9.620893700787402
 20
4.099992125984252
 30
0.0
 10
-9.620893700787402
 20
4.099992125984252
 30
0.0
 10
-10.07038582677165
 20
4.099992125984252
 30
0.0
 10
-10.07038582677165
 20
4.099992125984252
 30
0.0
 10
-10.07038582677165
 20
4.099992125984252
 30
0.0
 10
-10.10196456692913
 20
4.068413385826772
 30
0.0
 10
-10.14799212598425
 20
4.056082677165354
 30
0.0
 10
-10.19112598425197
 20
4.067641732283464
 30
0.0
 10
-10.19112598425197
 20
4.067641732283464
 30
0.0
 10
-10.23426377952756
 20
4.079196850393701
 30
0.0
 10
-10.26795669291339
 20
4.112893700787402
 30
0.0
 10
-10.2795157480315
 20
4.156027559055118
 30
0.0
 10
-10.2795157480315
 20
4.156027559055118
 30
0.0
 10
-10.29107480314961
 20
4.199165354330709
 30
0.0
 10
-10.27874015748031
 20
4.245192913385827
 30
0.0
 10
-10.24716141732283
 20
4.276767716535433
 30
0.0
 10
-10.24716141732283
 20
4.276767716535433
 30
0.0
 10
-10.24716141732283
 20
4.276767716535433
 30
0.0
 10
-10.24716141732283
 20
4.469551181102362
 30
0.0
 10
-10.24716141732283
 20
4.469551181102362
 30
0.0
 10
-10.24716141732283
 20
4.469551181102362
 30
0.0
 10
-10.24716141732283
 20
4.469551181102362
 30
0.0
 10
-11.04997244094488
 20
4.469551181102362
 30
0.0
 10
-11.04997244094488
 20
4.469551181102362
 30
0.0
 10
-11.04997244094488
 20
4.469551181102362
 30
0.0
 10
-11.04997244094488
 20
4.469551181102362
 30
0.0
 10
-11.04997244094488
 20
4.276846456692914
 30
0.0
 10
-11.04997244094488
 20
4.276846456692914
 30
0.0
 10
-11.04997244094488
 20
4.276846456692914
 30
0.0
 10
-11.0183937007874
 20
4.245271653543307
 30
0.0
 10
-11.00605905511811
 20
4.199244094488189
 30
0.0
 10
-11.01761811023622
 20
4.156106299212598
 30
0.0
 10
-11.01761811023622
 20
4.156106299212598
 30
0.0
 10
-11.02917716535433
 20
4.112972440944882
 30
0.0
 10
-11.06287007874016
 20
4.079275590551181
 30
0.0
 10
-11.10600787401575
 20
4.067720472440945
 30
0.0
 10
-11.10600787401575
 20
4.067720472440945
 30
0.0
 10
-11.14914173228346
 20
4.056161417322834
 30
0.0
 10
-11.19516929133858
 20
4.068492125984252
 30
0.0
 10
-11.22674803149606
 20
4.100070866141732
 30
0.0
 10
-11.22674803149606
 20
4.100070866141732
 30
0.0
 10
-11.22674803149606
 20
4.100070866141732
 30
0.0
 10
-11.67616141732283
 20
4.100070866141732
 30
0.0
 10
-11.67616141732283
 20
4.100070866141732
 30
0.0
 10
-11.67616141732283
 20
4.100070866141732
 30
0.0
 10
-11.70774015748031
 20
4.068492125984252
 30
0.0
 10
-11.75376377952756
 20
4.056161417322834
 30
0.0
 10
-11.79690157480315
 20
4.067720472440945
 30
0.0
 10
-11.79690157480315
 20
4.067720472440945
 30
0.0
 10
-11.84003937007874
 20
4.079275590551181
 30
0.0
 10
-11.87373228346457
 20
4.112972440944882
 30
0.0
 10
-11.88529133858268
 20
4.156106299212598
 30
0.0
 10
-11.88529133858268
 20
4.156106299212598
 30
0.0
 10
-11.89684645669291
 20
4.199244094488189
 30
0.0
 10
-11.8845157480315
 20
4.245271653543307
 30
0.0
 10
-11.85293700787402
 20
4.276846456692914
 30
0.0
 10
-11.85293700787402
 20
4.276846456692914
 30
0.0
 10
-11.85293700787402
 20
4.276846456692914
 30
0.0
 10
-11.85293700787402
 20
4.469551181102362
 30
0.0
 10
-11.85293700787402
 20
4.469551181102362
 30
0.0
 10
-11.85293700787402
 20
4.469551181102362
 30
0.0
 10
-11.85293700787402
 20
4.469551181102362
 30
0.0
 10
-11.85293700787402
 20
4.887393700787402
 30
0.0
 10
-11.85293700787402
 20
4.887393700787402
 30
0.0
 10
-11.85293700787402
 20
4.887393700787402
 30
0.0
 10
-11.85293700787402
 20
4.887393700787402
 30
0.0
 10
-12.04663385826772
 20
4.887393700787402
 30
0.0
 10
-12.04663385826772
 20
4.887393700787402
 30
0.0
 10
-12.04663385826772
 20
4.887393700787402
 30
0.0
 10
-12.0782125984252
 20
4.855814960629921
 30
0.0
 10
-12.12423622047244
 20
4.843484251968504
 30
0.0
 10
-12.16737401574803
 20
4.855043307086614
 30
0.0
 10
-12.16737401574803
 20
4.855043307086614
 30
0.0
 10
-12.21051181102362
 20
4.866598425196851
 30
0.0
 10
-12.24420472440945
 20
4.900295275590551
 30
0.0
 10
-12.25576377952756
 20
4.943429133858268
 30
0.0
 10
-12.25576377952756
 20
4.943429133858268
 30
0.0
 10
-12.26731889763779
 20
4.986566929133859
 30
0.0
 10
-12.25498818897638
 20
5.032594488188977
 30
0.0
 10
-12.2234094488189
 20
5.064169291338582
 30
0.0
  0
ENDSEC
  0
SECTION
  2
OBJECTS
  0
DICTIONARY
  5
C
330
0
100
AcDbDictionary
281
     1
  3
ACAD_DETAILVIEWSTYLE
350
C2
  3
ACAD_GROUP
350
D
  3
ACAD_LAYOUT
350
1A
  3
ACAD_MATERIAL
350
43
  3
ACAD_MLEADERSTYLE
350
6B
  3
ACAD_MLINESTYLE
350
17
  3
ACAD_PLOTSETTINGS
350
19
  3
ACAD_PLOTSTYLENAME
350
E
  3
ACAD_SCALELIST
350
47
  3
ACAD_SECTIONVIEWSTYLE
350
C3
  3
ACAD_TABLESTYLE
350
69
  3
ACAD_VISUALSTYLE
350
2A
  3
ACDB_RECOMPOSE_DATA
350
BF
  3
AcDbVariableDictionary
350
87
  0
SUN
  5
6D
330
29
100
AcDbSun
 90
        1
290
     0
 63
     7
421
 16777215
 40
1.0
291
     1
 91
  2455826
 92
 54000000
292
     0
 70
     2
 71
   256
280
     1
  0
DICTIONARY
  5
C2
102
{ACAD_REACTORS
330
C
102
}
330
C
100
AcDbDictionary
281
     1
  0
DICTIONARY
  5
D
102
{ACAD_REACTORS
330
C
102
}
330
C
100
AcDbDictionary
281
     1
  0
DICTIONARY
  5
1A
102
{ACAD_REACTORS
330
C
102
}
330
C
100
AcDbDictionary
281
     1
  3
Layout1
350
1E
  3
Layout2
350
26
  3
Model
350
22
  0
DICTIONARY
  5
43
102
{ACAD_REACTORS
330
C
102
}
330
C
100
AcDbDictionary
281
     1
  3
ByBlock
350
45
  3
ByLayer
350
44
  3
Global
350
46
  0
DICTIONARY
  5
6B
102
{ACAD_REACTORS
330
C
102
}
330
C
100
AcDbDictionary
281
     1
  3
Standard
350
6C
  0
DICTIONARY
  5
17
102
{ACAD_REACTORS
330
C
102
}
330
C
100
AcDbDictionary
281
     1
  3
Standard
350
18
  0
DICTIONARY
  5
19
102
{ACAD_REACTORS
330
C
102
}
330
C
100
AcDbDictionary
281
     1
  0
ACDBDICTIONARYWDFLT
  5
E
102
{ACAD_REACTORS
330
C
102
}
330
C
100
AcDbDictionary
281
     1
  3
Normal
350
F
100
AcDbDictionaryWithDefault
340
F
  0
DICTIONARY
  5
47
102
{ACAD_REACTORS
330
C
102
}
330
C
100
AcDbDictionary
281
     1
  3
A0
350
48
  3
A1
350
49
  3
A2
350
4A
  3
A3
350
4B
  3
A4
350
4C
  3
A5
350
4D
  3
A6
350
4E
  3
A7
350
4F
  3
A8
350
50
  3
A9
350
51
  3
B0
350
52
  3
B1
350
53
  3
B2
350
54
  3
B3
350
55
  3
B4
350
56
  3
B5
350
57
  3
B6
350
58
  3
B7
350
59
  3
B8
350
5A
  3
B9
350
5B
  3
C0
350
5C
  3
C1
350
5D
  3
C2
350
5E
  3
C3
350
5F
  3
C4
350
60
  3
C5
350
61
  3
C6
350
62
  3
C7
350
63
  3
C8
350
64
  3
C9
350
65
  3
D0
350
66
  3
D1
350
67
  3
D2
350
68
  0
DICTIONARY
  5
C3
102
{ACAD_REACTORS
330
C
102
}
330
C
100
AcDbDictionary
281
     1
  0
DICTIONARY
  5
69
102
{ACAD_REACTORS
330
C
102
}
330
C
100
AcDbDictionary
281
     1
  3
Standard
350
6A
  0
DICTIONARY
  5
2A
102
{ACAD_REACTORS
330
C
102
}
330
C
100
AcDbDictionary
281
     1
  3
2dWireframe
350
2F
  3
Basic
350
32
  3
Brighten
350
36
  3
ColorChange
350
3A
  3
Conceptual
350
34
  3
Dim
350
35
  3
EdgeColorOff
350
3D
  3
Facepattern
350
39
  3
Flat
350
2B
  3
FlatWithEdges
350
2C
  3
Gouraud
350
2D
  3
GouraudWithEdges
350
2E
  3
Hidden
350
31
  3
JitterOff
350
3B
  3
Linepattern
350
38
  3
OverhangOff
350
3C
  3
Realistic
350
33
  3
Shaded
350
42
  3
Shaded with edges
350
41
  3
Shades of Gray
350
3E
  3
Sketchy
350
3F
  3
Thicken
350
37
  3
Wireframe
350
30
  3
X-Ray
350
40
  0
XRECORD
  5
BF
102
{ACAD_REACTORS
330
C
102
}
330
C
100
AcDbXrecord
280
     1
 90
        1
330
6A
  0
DICTIONARY
  5
87
102
{ACAD_REACTORS
330
C
102
}
330
C
100
AcDbDictionary
281
     1
  3
CANNOSCALE
350
88
  3
CMLEADERSTYLE
350
C1
  3
CTABLESTYLE
350
C0
  3
XCLIPFRAME
350
89
  0
LAYOUT
  5
1E
102
{ACAD_REACTORS
330
1A
102
}
330
1A
100
AcDbPlotSettings
  1

  2
none_device
  4

  6

 40
0.0
 41
0.0
 42
0.0
 43
0.0
 44
0.0
 45
0.0
 46
0.0
 47
0.0
 48
0.0
 49
0.0
140
0.0
141
0.0
142
1.0
143
1.0
 70
   688
 72
     0
 73
     0
 74
     5
  7

 75
    16
 76
     0
 77
     2
 78
   300
147
1.0
148
0.0
149
0.0
100
AcDbLayout
  1
Layout1
 70
     1
 71
     1
 10
0.0
 20
0.0
 11
12.0
 21
9.0
 12
0.0
 22
0.0
 32
0.0
 14
1.000000000000000E+20
 24
1.000000000000000E+20
 34
1.000000000000000E+20
 15
-1.000000000000000E+20
 25
-1.000000000000000E+20
 35
-1.000000000000000E+20
146
0.0
 13
0.0
 23
0.0
 33
0.0
 16
1.0
 26
0.0
 36
0.0
 17
0.0
 27
1.0
 37
0.0
 76
     0
330
1B
  0
LAYOUT
  5
26
102
{ACAD_REACTORS
330
1A
102
}
330
1A
100
AcDbPlotSettings
  1

  2
none_device
  4

  6

 40
0.0
 41
0.0
 42
0.0
 43
0.0
 44
0.0
 45
0.0
 46
0.0
 47
0.0
 48
0.0
 49
0.0
140
0.0
141
0.0
142
1.0
143
1.0
 70
   688
 72
     0
 73
     0
 74
     5
  7

 75
    16
 76
     0
 77
     2
 78
   300
147
1.0
148
0.0
149
0.0
100
AcDbLayout
  1
Layout2
 70
     1
 71
     2
 10
0.0
 20
0.0
 11
0.0
 21
0.0
 12
0.0
 22
0.0
 32
0.0
 14
0.0
 24
0.0
 34
0.0
 15
0.0
 25
0.0
 35
0.0
146
0.0
 13
0.0
 23
0.0
 33
0.0
 16
1.0
 26
0.0
 36
0.0
 17
0.0
 27
1.0
 37
0.0
 76
     0
330
23
  0
LAYOUT
  5
22
102
{ACAD_REACTORS
330
1A
102
}
330
1A
100
AcDbPlotSettings
  1

  2
none_device
  4
Letter_(8.50_x_11.00_Inches)
  6

 40
6.35
 41
6.35
 42
6.35000508
 43
6.35000508
 44
215.9
 45
279.4
 46
0.0
 47
0.0
 48
0.0
 49
0.0
140
0.0
141
0.0
142
1.0
143
1.0
 70
  1712
 72
     0
 73
     0
 74
     0
  7

 75
     0
 76
     0
 77
     2
 78
   300
147
1.0
148
0.0
149
0.0
100
AcDbLayout
  1
Model
 70
     1
 71
     0
 10
0.0
 20
0.0
 11
12.0
 21
9.0
 12
0.0
 22
0.0
 32
0.0
 14
-14.10604724409449
 24
2.218177165354331
 34
0.0
 15
4.117409448818898
 25
9.131728346456693
 35
0.0
146
0.0
 13
0.0
 23
0.0
 33
0.0
 16
1.0
 26
0.0
 36
0.0
 17
0.0
 27
1.0
 37
0.0
 76
     0
330
1F
331
29
  0
MATERIAL
  5
45
102
{ACAD_REACTORS
330
43
102
}
330
43
100
AcDbMaterial
  1
ByBlock
 72
     1
 94
      127
  0
MATERIAL
  5
44
102
{ACAD_REACTORS
330
43
102
}
330
43
100
AcDbMaterial
  1
ByLayer
 72
     1
 94
      127
  0
MATERIAL
  5
46
102
{ACAD_REACTORS
330
43
102
}
330
43
100
AcDbMaterial
  1
Global
 72
     1
 94
      127
  0
MLEADERSTYLE
  5
6C
102
{ACAD_REACTORS
330
6B
102
}
102
{ACAD_XDICTIONARY
360
BD
102
}
330
6B
100
AcDbMLeaderStyle
170
     2
171
     1
172
     0
 90
        2
 40
0.0
 41
0.0
173
     1
 91
-1056964608
340
14
 92
       -2
290
     1
 42
0.09
291
     1
 43
0.36
  3
Standard
341
0
 44
0.18
300

342
11
174
     1
178
     6
175
     1
176
     0
 93
-1056964608
 45
0.18
292
     0
297
     0
 46
0.18
343
0
 94
-1056964608
 47
1.0
 49
1.0
140
1.0
293
     1
141
0.0
294
     1
177
     0
142
1.0
295
     0
296
     0
143
0.125
1001
ACAD_MLEADERVER
1070
     2
  0
MLINESTYLE
  5
18
102
{ACAD_REACTORS
330
17
102
}
330
17
100
AcDbMlineStyle
  2
Standard
 70
     0
  3

 62
   256
 51
90.0
 52
90.0
 71
     2
 49
0.5
 62
   256
  6
BYLAYER
 49
-0.5
 62
   256
  6
BYLAYER
  0
ACDBPLACEHOLDER
  5
F
102
{ACAD_REACTORS
330
E
102
}
330
E
  0
SCALE
  5
48
102
{ACAD_REACTORS
330
47
102
}
330
47
100
AcDbScale
 70
     0
300
1:1
140
1.0
141
1.0
290
     1
  0
SCALE
  5
49
102
{ACAD_REACTORS
330
47
102
}
330
47
100
AcDbScale
 70
     0
300
1:2
140
1.0
141
2.0
290
     0
  0
SCALE
  5
4A
102
{ACAD_REACTORS
330
47
102
}
330
47
100
AcDbScale
 70
     0
300
1:4
140
1.0
141
4.0
290
     0
  0
SCALE
  5
4B
102
{ACAD_REACTORS
330
47
102
}
330
47
100
AcDbScale
 70
     0
300
1:5
140
1.0
141
5.0
290
     0
  0
SCALE
  5
4C
102
{ACAD_REACTORS
330
47
102
}
330
47
100
AcDbScale
 70
     0
300
1:8
140
1.0
141
8.0
290
     0
  0
SCALE
  5
4D
102
{ACAD_REACTORS
330
47
102
}
330
47
100
AcDbScale
 70
     0
300
1:10
140
1.0
141
10.0
290
     0
  0
SCALE
  5
4E
102
{ACAD_REACTORS
330
47
102
}
330
47
100
AcDbScale
 70
     0
300
1:16
140
1.0
141
16.0
290
     0
  0
SCALE
  5
4F
102
{ACAD_REACTORS
330
47
102
}
330
47
100
AcDbScale
 70
     0
300
1:20
140
1.0
141
20.0
290
     0
  0
SCALE
  5
50
102
{ACAD_REACTORS
330
47
102
}
330
47
100
AcDbScale
 70
     0
300
1:30
140
1.0
141
30.0
290
     0
  0
SCALE
  5
51
102
{ACAD_REACTORS
330
47
102
}
330
47
100
AcDbScale
 70
     0
300
1:40
140
1.0
141
40.0
290
     0
  0
SCALE
  5
52
102
{ACAD_REACTORS
330
47
102
}
330
47
100
AcDbScale
 70
     0
300
1:50
140
1.0
141
50.0
290
     0
  0
SCALE
  5
53
102
{ACAD_REACTORS
330
47
102
}
330
47
100
AcDbScale
 70
     0
300
1:100
140
1.0
141
100.0
290
     0
  0
SCALE
  5
54
102
{ACAD_REACTORS
330
47
102
}
330
47
100
AcDbScale
 70
     0
300
2:1
140
2.0
141
1.0
290
     0
  0
SCALE
  5
55
102
{ACAD_REACTORS
330
47
102
}
330
47
100
AcDbScale
 70
     0
300
4:1
140
4.0
141
1.0
290
     0
  0
SCALE
  5
56
102
{ACAD_REACTORS
330
47
102
}
330
47
100
AcDbScale
 70
     0
300
8:1
140
8.0
141
1.0
290
     0
  0
SCALE
  5
57
102
{ACAD_REACTORS
330
47
102
}
330
47
100
AcDbScale
 70
     0
300
10:1
140
10.0
141
1.0
290
     0
  0
SCALE
  5
58
102
{ACAD_REACTORS
330
47
102
}
330
47
100
AcDbScale
 70
     0
300
100:1
140
100.0
141
1.0
290
     0
  0
SCALE
  5
59
102
{ACAD_REACTORS
330
47
102
}
330
47
100
AcDbScale
 70
     0
300
1/128" = 1'-0"
140
0.0078125
141
12.0
290
     0
  0
SCALE
  5
5A
102
{ACAD_REACTORS
330
47
102
}
330
47
100
AcDbScale
 70
     0
300
1/64" = 1'-0"
140
0.015625
141
12.0
290
     0
  0
SCALE
  5
5B
102
{ACAD_REACTORS
330
47
102
}
330
47
100
AcDbScale
 70
     0
300
1/32" = 1'-0"
140
0.03125
141
12.0
290
     0
  0
SCALE
  5
5C
102
{ACAD_REACTORS
330
47
102
}
330
47
100
AcDbScale
 70
     0
300
1/16" = 1'-0"
140
0.0625
141
12.0
290
     0
  0
SCALE
  5
5D
102
{ACAD_REACTORS
330
47
102
}
330
47
100
AcDbScale
 70
     0
300
3/32" = 1'-0"
140
0.09375
141
12.0
290
     0
  0
SCALE
  5
5E
102
{ACAD_REACTORS
330
47
102
}
330
47
100
AcDbScale
 70
     0
300
1/8" = 1'-0"
140
0.125
141
12.0
290
     0
  0
SCALE
  5
5F
102
{ACAD_REACTORS
330
47
102
}
330
47
100
AcDbScale
 70
     0
300
3/16" = 1'-0"
140
0.1875
141
12.0
290
     0
  0
SCALE
  5
60
102
{ACAD_REACTORS
330
47
102
}
330
47
100
AcDbScale
 70
     0
300
1/4" = 1'-0"
140
0.25
141
12.0
290
     0
  0
SCALE
  5
61
102
{ACAD_REACTORS
330
47
102
}
330
47
100
AcDbScale
 70
     0
300
3/8" = 1'-0"
140
0.375
141
12.0
290
     0
  0
SCALE
  5
62
102
{ACAD_REACTORS
330
47
102
}
330
47
100
AcDbScale
 70
     0
300
1/2" = 1'-0"
140
0.5
141
12.0
290
     0
  0
SCALE
  5
63
102
{ACAD_REACTORS
330
47
102
}
330
47
100
AcDbScale
 70
     0
300
3/4" = 1'-0"
140
0.75
141
12.0
290
     0
  0
SCALE
  5
64
102
{ACAD_REACTORS
330
47
102
}
330
47
100
AcDbScale
 70
     0
300
1" = 1'-0"
140
1.0
141
12.0
290
     0
  0
SCALE
  5
65
102
{ACAD_REACTORS
330
47
102
}
330
47
100
AcDbScale
 70
     0
300
1-1/2" = 1'-0"
140
1.5
141
12.0
290
     0
  0
SCALE
  5
66
102
{ACAD_REACTORS
330
47
102
}
330
47
100
AcDbScale
 70
     0
300
3" = 1'-0"
140
3.0
141
12.0
290
     0
  0
SCALE
  5
67
102
{ACAD_REACTORS
330
47
102
}
330
47
100
AcDbScale
 70
     0
300
6" = 1'-0"
140
6.0
141
12.0
290
     0
  0
SCALE
  5
68
102
{ACAD_REACTORS
330
47
102
}
330
47
100
AcDbScale
 70
     0
300
1'-0" = 1'-0"
140
12.0
141
12.0
290
     0
  0
TABLESTYLE
  5
6A
102
{ACAD_REACTORS
330
69
102
}
102
{ACAD_XDICTIONARY
360
BA
102
}
330
69
100
AcDbTableStyle
  3
Standard
 70
     0
 71
     0
 40
0.06
 41
0.06
280
     0
281
     0
  7
Standard
140
0.18
170
     2
 62
     0
 63
   257
283
     0
 90
        4
 91
        0
  1

274
    -2
284
     1
 64
     0
275
    -2
285
     1
 65
     0
276
    -2
286
     1
 66
     0
277
    -2
287
     1
 67
     0
278
    -2
288
     1
 68
     0
279
    -2
289
     1
 69
     0
  7
Standard
140
0.25
170
     5
 62
     0
 63
   257
283
     0
 90
        4
 91
        0
  1

274
    -2
284
     1
 64
     0
275
    -2
285
     1
 65
     0
276
    -2
286
     1
 66
     0
277
    -2
287
     1
 67
     0
278
    -2
288
     1
 68
     0
279
    -2
289
     1
 69
     0
  7
Standard
140
0.18
170
     5
 62
     0
 63
   257
283
     0
 90
        4
 91
        0
  1

274
    -2
284
     1
 64
     0
275
    -2
285
     1
 65
     0
276
    -2
286
     1
 66
     0
277
    -2
287
     1
 67
     0
278
    -2
288
     1
 68
     0
279
    -2
289
     1
 69
     0
  0
VISUALSTYLE
  5
2F
102
{ACAD_REACTORS
330
2A
102
}
102
{ACAD_XDICTIONARY
360
92
102
}
330
2A
100
AcDbVisualStyle
  2
2dWireframe
 70
     4
 71
     0
 72
     2
 73
     0
 90
        0
 40
0.6
 41
30.0
 62
     5
 63
     7
421
 16777215
 74
     1
 91
        4
 64
     7
 65
   257
 75
     1
175
     1
 42
1.0
 92
        0
 66
   257
 43
1.0
 76
     1
 77
     6
 78
     2
 67
     7
 79
     5
170
     0
171
     0
290
     0
174
     0
 93
        1
 44
0.0
173
     0
291
     0
 45
0.0
  0
VISUALSTYLE
  5
32
102
{ACAD_REACTORS
330
2A
102
}
102
{ACAD_XDICTIONARY
360
98
102
}
330
2A
100
AcDbVisualStyle
  2
Basic
 70
     7
 71
     1
 72
     0
 73
     1
 90
        0
 40
0.6
 41
30.0
 62
     5
 63
     7
421
 16777215
 74
     0
 91
        4
 64
     7
 65
   257
 75
     1
175
     1
 42
1.0
 92
        8
 66
     7
 43
1.0
 76
     1
 77
     6
 78
     2
 67
     7
 79
     5
170
     0
171
     0
290
     0
174
     0
 93
        1
 44
0.0
173
     0
291
     1
 45
0.0
  0
VISUALSTYLE
  5
36
102
{ACAD_REACTORS
330
2A
102
}
102
{ACAD_XDICTIONARY
360
A0
102
}
330
2A
100
AcDbVisualStyle
  2
Brighten
 70
    12
 71
     2
 72
     2
 73
     0
 90
        0
 40
0.6
 41
30.0
 62
     5
 63
     7
421
 16777215
 74
     1
 91
        4
 64
     7
 65
   257
 75
     1
175
     1
 42
1.0
 92
        8
 66
     7
 43
1.0
 76
     1
 77
     6
 78
     2
 67
     7
 79
     5
170
     0
171
     0
290
     0
174
     0
 93
        1
 44
50.0
173
     0
291
     1
 45
0.0
  0
VISUALSTYLE
  5
3A
102
{ACAD_REACTORS
330
2A
102
}
102
{ACAD_XDICTIONARY
360
A8
102
}
330
2A
100
AcDbVisualStyle
  2
ColorChange
 70
    16
 71
     2
 72
     2
 73
     3
 90
        0
 40
0.6
 41
30.0
 62
     5
 63
     8
421
  8421504
 74
     1
 91
        4
 64
     7
 65
   257
 75
     1
175
     1
 42
1.0
 92
        8
 66
     8
424
  8421504
 43
1.0
 76
     1
 77
     6
 78
     2
 67
     7
 79
     5
170
     0
171
     0
290
     0
174
     0
 93
        1
 44
0.0
173
     0
291
     1
 45
0.0
  0
VISUALSTYLE
  5
34
102
{ACAD_REACTORS
330
2A
102
}
102
{ACAD_XDICTIONARY
360
9C
102
}
330
2A
100
AcDbVisualStyle
  2
Conceptual
 70
     9
 71
     3
 72
     2
 73
     0
 90
        0
 40
0.6
 41
30.0
 62
     5
 63
     7
421
 16777215
 74
     2
 91
        2
 64
     7
 65
   257
 75
     1
175
     1
 42
179.0
 92
        8
 66
     7
 43
1.0
 76
     1
 77
     6
 78
     2
 67
     7
 79
     3
170
     0
171
     0
290
     0
174
     0
 93
        1
 44
0.0
173
     0
291
     0
 45
0.0
  0
VISUALSTYLE
  5
35
102
{ACAD_REACTORS
330
2A
102
}
102
{ACAD_XDICTIONARY
360
9E
102
}
330
2A
100
AcDbVisualStyle
  2
Dim
 70
    11
 71
     2
 72
     2
 73
     0
 90
        0
 40
0.6
 41
30.0
 62
     5
 63
     7
421
 16777215
 74
     1
 91
        4
 64
     7
 65
   257
 75
     1
175
     1
 42
1.0
 92
        8
 66
     7
 43
1.0
 76
     1
 77
     6
 78
     2
 67
     7
 79
     5
170
     0
171
     0
290
     0
174
     0
 93
        1
 44
-50.0
173
     0
291
     1
 45
0.0
  0
VISUALSTYLE
  5
3D
102
{ACAD_REACTORS
330
2A
102
}
102
{ACAD_XDICTIONARY
360
AE
102
}
330
2A
100
AcDbVisualStyle
  2
EdgeColorOff
 70
    22
 71
     2
 72
     2
 73
     0
 90
        0
 40
0.6
 41
30.0
 62
     5
 63
     7
421
 16777215
 74
     1
 91
        4
 64
     7
 65
   257
 75
     1
175
     1
 42
1.0
 92
        8
 66
     7
 43
1.0
 76
     1
 77
     6
 78
     2
 67
     7
 79
     5
170
     0
171
     0
290
     0
174
     0
 93
        1
 44
0.0
173
     0
291
     1
 45
0.0
  0
VISUALSTYLE
  5
39
102
{ACAD_REACTORS
330
2A
102
}
102
{ACAD_XDICTIONARY
360
A6
102
}
330
2A
100
AcDbVisualStyle
  2
Facepattern
 70
    15
 71
     2
 72
     2
 73
     0
 90
        0
 40
0.6
 41
30.0
 62
     5
 63
     7
421
 16777215
 74
     1
 91
        4
 64
     7
 65
   257
 75
     1
175
     1
 42
1.0
 92
        8
 66
     7
 43
1.0
 76
     1
 77
     6
 78
     2
 67
     7
 79
     5
170
     0
171
     0
290
     0
174
     0
 93
        1
 44
0.0
173
     0
291
     1
 45
0.0
  0
VISUALSTYLE
  5
2B
102
{ACAD_REACTORS
330
2A
102
}
102
{ACAD_XDICTIONARY
360
8A
102
}
330
2A
100
AcDbVisualStyle
  2
Flat
 70
     0
 71
     2
 72
     1
 73
     1
 90
        2
 40
0.6
 41
30.0
 62
     5
 63
     7
421
 16777215
 74
     0
 91
        0
 64
     7
 65
   257
 75
     1
175
     1
 42
1.0
 92
        8
 66
     7
 43
1.0
 76
     1
 77
     6
 78
     2
 67
     7
 79
     5
170
     0
171
     0
290
     0
174
     0
 93
       13
 44
0.0
173
     0
291
     1
 45
0.0
  0
VISUALSTYLE
  5
2C
102
{ACAD_REACTORS
330
2A
102
}
102
{ACAD_XDICTIONARY
360
8C
102
}
330
2A
100
AcDbVisualStyle
  2
FlatWithEdges
 70
     1
 71
     2
 72
     1
 73
     1
 90
        2
 40
0.6
 41
30.0
 62
     5
 63
     7
421
 16777215
 74
     1
 91
        0
 64
     7
 65
   257
 75
     1
175
     1
 42
1.0
 92
        0
 66
   257
 43
1.0
 76
     1
 77
     6
 78
     2
 67
     7
 79
     5
170
     0
171
     0
290
     0
174
     0
 93
       13
 44
0.0
173
     0
291
     1
 45
0.0
  0
VISUALSTYLE
  5
2D
102
{ACAD_REACTORS
330
2A
102
}
102
{ACAD_XDICTIONARY
360
8E
102
}
330
2A
100
AcDbVisualStyle
  2
Gouraud
 70
     2
 71
     2
 72
     2
 73
     1
 90
        2
 40
0.6
 41
30.0
 62
     5
 63
     7
421
 16777215
 74
     0
 91
        0
 64
     7
 65
   257
 75
     1
175
     1
 42
1.0
 92
        0
 66
     7
 43
1.0
 76
     1
 77
     6
 78
     2
 67
     7
 79
     5
170
     0
171
     0
290
     0
174
     0
 93
       13
 44
0.0
173
     0
291
     1
 45
0.0
  0
VISUALSTYLE
  5
2E
102
{ACAD_REACTORS
330
2A
102
}
102
{ACAD_XDICTIONARY
360
90
102
}
330
2A
100
AcDbVisualStyle
  2
GouraudWithEdges
 70
     3
 71
     2
 72
     2
 73
     1
 90
        2
 40
0.6
 41
30.0
 62
     5
 63
     7
421
 16777215
 74
     1
 91
        0
 64
     7
 65
   257
 75
     1
175
     1
 42
1.0
 92
        0
 66
   257
 43
1.0
 76
     1
 77
     6
 78
     2
 67
     7
 79
     5
170
     0
171
     0
290
     0
174
     0
 93
       13
 44
0.0
173
     0
291
     1
 45
0.0
  0
VISUALSTYLE
  5
31
102
{ACAD_REACTORS
330
2A
102
}
102
{ACAD_XDICTIONARY
360
96
102
}
330
2A
100
AcDbVisualStyle
  2
Hidden
 70
     6
 71
     1
 72
     2
 73
     2
 90
        0
 40
0.6
 41
30.0
 62
     5
 63
     7
421
 16777215
 74
     2
 91
        2
 64
     7
 65
   257
 75
     2
175
     1
 42
40.0
 92
        0
 66
   257
 43
1.0
 76
     1
 77
     6
 78
     2
 67
     7
 79
     3
170
     0
171
     0
290
     0
174
     0
 93
        1
 44
0.0
173
     0
291
     0
 45
0.0
  0
VISUALSTYLE
  5
3B
102
{ACAD_REACTORS
330
2A
102
}
102
{ACAD_XDICTIONARY
360
AA
102
}
330
2A
100
AcDbVisualStyle
  2
JitterOff
 70
    20
 71
     2
 72
     2
 73
     0
 90
        0
 40
0.6
 41
30.0
 62
     5
 63
     7
421
 16777215
 74
     1
 91
        4
 64
     7
 65
   257
 75
     1
175
     1
 42
1.0
 92
       10
 66
     7
 43
1.0
 76
     1
 77
     6
 78
     2
 67
     7
 79
     5
170
     0
171
     0
290
     0
174
     0
 93
        1
 44
0.0
173
     0
291
     1
 45
0.0
  0
VISUALSTYLE
  5
38
102
{ACAD_REACTORS
330
2A
102
}
102
{ACAD_XDICTIONARY
360
A4
102
}
330
2A
100
AcDbVisualStyle
  2
Linepattern
 70
    14
 71
     2
 72
     2
 73
     0
 90
        0
 40
0.6
 41
30.0
 62
     5
 63
     7
421
 16777215
 74
     1
 91
        4
 64
     7
 65
   257
 75
     7
175
     7
 42
1.0
 92
        8
 66
     7
 43
1.0
 76
     1
 77
     6
 78
     2
 67
     7
 79
     5
170
     0
171
     0
290
     0
174
     0
 93
        1
 44
0.0
173
     0
291
     1
 45
0.0
  0
VISUALSTYLE
  5
3C
102
{ACAD_REACTORS
330
2A
102
}
102
{ACAD_XDICTIONARY
360
AC
102
}
330
2A
100
AcDbVisualStyle
  2
OverhangOff
 70
    21
 71
     2
 72
     2
 73
     0
 90
        0
 40
0.6
 41
30.0
 62
     5
 63
     7
421
 16777215
 74
     1
 91
        4
 64
     7
 65
   257
 75
     1
175
     1
 42
1.0
 92
        9
 66
     7
 43
1.0
 76
     1
 77
     6
 78
     2
 67
     7
 79
     5
170
     0
171
     0
290
     0
174
     0
 93
        1
 44
0.0
173
     0
291
     1
 45
0.0
  0
VISUALSTYLE
  5
33
102
{ACAD_REACTORS
330
2A
102
}
102
{ACAD_XDICTIONARY
360
9A
102
}
330
2A
100
AcDbVisualStyle
  2
Realistic
 70
     8
 71
     2
 72
     3
 73
     0
 90
        2
 40
0.6
 41
30.0
 62
     5
 63
     7
421
 16777215
 74
     0
 91
        0
 64
     7
 65
   257
 75
     1
175
     1
 42
1.0
 92
        8
 66
   257
 43
1.0
 76
     1
 77
     6
 78
     2
 67
     7
 79
     3
170
     0
171
     0
290
     0
174
     0
 93
       13
 44
0.0
173
     0
291
     0
 45
0.0
  0
VISUALSTYLE
  5
42
102
{ACAD_REACTORS
330
2A
102
}
102
{ACAD_XDICTIONARY
360
B8
102
}
330
2A
100
AcDbVisualStyle
  2
Shaded
 70
    27
 71
     2
 72
     2
 73
     1
 90
        2
 40
0.6
 41
30.0
 62
     5
 63
     7
421
 16777215
 74
     0
 91
        4
 64
     7
 65
   257
 75
     1
175
     1
 42
1.0
 92
        8
 66
   257
 43
1.0
 76
     1
 77
     6
 78
     2
 67
     8
425
  7895160
 79
     3
170
     0
171
     0
290
     0
174
     0
 93
        5
 44
0.0
173
     0
291
     0
 45
0.0
  0
VISUALSTYLE
  5
41
102
{ACAD_REACTORS
330
2A
102
}
102
{ACAD_XDICTIONARY
360
B6
102
}
330
2A
100
AcDbVisualStyle
  2
Shaded with edges
 70
    26
 71
     2
 72
     2
 73
     1
 90
        2
 40
0.6
 41
30.0
 62
     5
 63
     7
421
 16777215
 74
     1
 91
       10
 64
     7
 65
   257
 75
     2
175
     1
 42
1.0
 92
        8
 66
   257
 43
1.0
 76
     1
 77
     6
 78
     2
 67
     7
 79
     3
170
     0
171
     0
290
     0
174
     0
 93
        5
 44
0.0
173
     0
291
     0
 45
0.0
  0
VISUALSTYLE
  5
3E
102
{ACAD_REACTORS
330
2A
102
}
102
{ACAD_XDICTIONARY
360
B0
102
}
330
2A
100
AcDbVisualStyle
  2
Shades of Gray
 70
    23
 71
     2
 72
     2
 73
     3
 90
        0
 40
0.6
 41
30.0
 62
     5
 63
     7
421
 16777215
 74
     2
 91
        2
 64
     7
 65
     7
 75
     1
175
     1
 42
40.0
 92
        8
 66
     7
 43
1.0
 76
     1
 77
     6
 78
     2
 67
     7
 79
     3
170
     0
171
     0
290
     0
174
     0
 93
        1
 44
0.0
173
     0
291
     0
 45
0.0
  0
VISUALSTYLE
  5
3F
102
{ACAD_REACTORS
330
2A
102
}
102
{ACAD_XDICTIONARY
360
B2
102
}
330
2A
100
AcDbVisualStyle
  2
Sketchy
 70
    24
 71
     1
 72
     2
 73
     2
 90
        0
 40
0.6
 41
30.0
 62
     5
 63
     7
421
 16777215
 74
     2
 91
        2
 64
     7
 65
     7
 75
     1
175
     1
 42
40.0
 92
       11
 66
     7
 43
1.0
 76
     1
 77
     6
 78
     2
 67
     7
 79
     6
170
     0
171
     0
290
     0
174
     0
 93
        1
 44
0.0
173
     0
291
     0
 45
0.0
  0
VISUALSTYLE
  5
37
102
{ACAD_REACTORS
330
2A
102
}
102
{ACAD_XDICTIONARY
360
A2
102
}
330
2A
100
AcDbVisualStyle
  2
Thicken
 70
    13
 71
     2
 72
     2
 73
     0
 90
        0
 40
0.6
 41
30.0
 62
     5
 63
     7
421
 16777215
 74
     1
 91
        4
 64
     7
 65
   257
 75
     1
175
     1
 42
1.0
 92
       12
 66
     7
 43
1.0
 76
     1
 77
     6
 78
     2
 67
     7
 79
     5
170
     0
171
     0
290
     0
174
     0
 93
        1
 44
0.0
173
     0
291
     1
 45
0.0
  0
VISUALSTYLE
  5
30
102
{ACAD_REACTORS
330
2A
102
}
102
{ACAD_XDICTIONARY
360
94
102
}
330
2A
100
AcDbVisualStyle
  2
Wireframe
 70
     5
 71
     0
 72
     2
 73
     0
 90
        0
 40
0.6
 41
30.0
 62
     5
 63
     7
421
 16777215
 74
     1
 91
        4
 64
     7
 65
   257
 75
     1
175
     1
 42
1.0
 92
        0
 66
   257
 43
1.0
 76
     1
 77
     6
 78
     2
 67
     7
 79
     3
170
     0
171
     0
290
     0
174
     0
 93
        1
 44
0.0
173
     0
291
     0
 45
0.0
  0
VISUALSTYLE
  5
40
102
{ACAD_REACTORS
330
2A
102
}
102
{ACAD_XDICTIONARY
360
B4
102
}
330
2A
100
AcDbVisualStyle
  2
X-Ray
 70
    25
 71
     2
 72
     2
 73
     1
 90
        1
 40
0.5
 41
30.0
 62
     5
 63
     7
421
 16777215
 74
     1
 91
        0
 64
     7
 65
   257
 75
     1
175
     1
 42
1.0
 92
        8
 66
     7
 43
1.0
 76
     1
 77
     6
 78
     2
 67
     7
 79
     3
170
     0
171
     0
290
     0
174
     0
 93
       13
 44
0.0
173
     0
291
     0
 45
0.0
  0
DICTIONARYVAR
  5
88
102
{ACAD_REACTORS
330
87
102
}
330
87
100
DictionaryVariables
280
     0
  1
1:1
  0
DICTIONARYVAR
  5
C1
102
{ACAD_REACTORS
330
87
102
}
330
87
100
DictionaryVariables
280
     0
  1
Standard
  0
DICTIONARYVAR
  5
C0
102
{ACAD_REACTORS
330
87
102
}
330
87
100
DictionaryVariables
280
     0
  1
Standard
  0
DICTIONARYVAR
  5
89
102
{ACAD_REACTORS
330
87
102
}
330
87
100
DictionaryVariables
280
     0
  1
2
  0
DICTIONARY
  5
BD
330
6C
100
AcDbDictionary
280
     1
281
     1
  3
ACAD_XREC_ROUNDTRIP
360
BE
  0
DICTIONARY
  5
BA
330
6A
100
AcDbDictionary
280
     1
281
     1
  3
ACAD_ROUNDTRIP_2008_TABLESTYLE_CELLSTYLEMAP
360
BB
  0
DICTIONARY
  5
92
330
2F
100
AcDbDictionary
280
     1
281
     1
  3
ACAD_XREC_ROUNDTRIP
360
93
  0
DICTIONARY
  5
98
330
32
100
AcDbDictionary
280
     1
281
     1
  3
ACAD_XREC_ROUNDTRIP
360
99
  0
DICTIONARY
  5
A0
330
36
100
AcDbDictionary
280
     1
281
     1
  3
ACAD_XREC_ROUNDTRIP
360
A1
  0
DICTIONARY
  5
A8
330
3A
100
AcDbDictionary
280
     1
281
     1
  3
ACAD_XREC_ROUNDTRIP
360
A9
  0
DICTIONARY
  5
9C
330
34
100
AcDbDictionary
280
     1
281
     1
  3
ACAD_XREC_ROUNDTRIP
360
9D
  0
DICTIONARY
  5
9E
330
35
100
AcDbDictionary
280
     1
281
     1
  3
ACAD_XREC_ROUNDTRIP
360
9F
  0
DICTIONARY
  5
AE
330
3D
100
AcDbDictionary
280
     1
281
     1
  3
ACAD_XREC_ROUNDTRIP
360
AF
  0
DICTIONARY
  5
A6
330
39
100
AcDbDictionary
280
     1
281
     1
  3
ACAD_XREC_ROUNDTRIP
360
A7
  0
DICTIONARY
  5
8A
330
2B
100
AcDbDictionary
280
     1
281
     1
  3
ACAD_XREC_ROUNDTRIP
360
8B
  0
DICTIONARY
  5
8C
330
2C
100
AcDbDictionary
280
     1
281
     1
  3
ACAD_XREC_ROUNDTRIP
360
8D
  0
DICTIONARY
  5
8E
330
2D
100
AcDbDictionary
280
     1
281
     1
  3
ACAD_XREC_ROUNDTRIP
360
8F
  0
DICTIONARY
  5
90
330
2E
100
AcDbDictionary
280
     1
281
     1
  3
ACAD_XREC_ROUNDTRIP
360
91
  0
DICTIONARY
  5
96
330
31
100
AcDbDictionary
280
     1
281
     1
  3
ACAD_XREC_ROUNDTRIP
360
97
  0
DICTIONARY
  5
AA
330
3B
100
AcDbDictionary
280
     1
281
     1
  3
ACAD_XREC_ROUNDTRIP
360
AB
  0
DICTIONARY
  5
A4
330
38
100
AcDbDictionary
280
     1
281
     1
  3
ACAD_XREC_ROUNDTRIP
360
A5
  0
DICTIONARY
  5
AC
330
3C
100
AcDbDictionary
280
     1
281
     1
  3
ACAD_XREC_ROUNDTRIP
360
AD
  0
DICTIONARY
  5
9A
330
33
100
AcDbDictionary
280
     1
281
     1
  3
ACAD_XREC_ROUNDTRIP
360
9B
  0
DICTIONARY
  5
B8
330
42
100
AcDbDictionary
280
     1
281
     1
  3
ACAD_XREC_ROUNDTRIP
360
B9
  0
DICTIONARY
  5
B6
330
41
100
AcDbDictionary
280
     1
281
     1
  3
ACAD_XREC_ROUNDTRIP
360
B7
  0
DICTIONARY
  5
B0
330
3E
100
AcDbDictionary
280
     1
281
     1
  3
ACAD_XREC_ROUNDTRIP
360
B1
  0
DICTIONARY
  5
B2
330
3F
100
AcDbDictionary
280
     1
281
     1
  3
ACAD_XREC_ROUNDTRIP
360
B3
  0
DICTIONARY
  5
A2
330
37
100
AcDbDictionary
280
     1
281
     1
  3
ACAD_XREC_ROUNDTRIP
360
A3
  0
DICTIONARY
  5
94
330
30
100
AcDbDictionary
280
     1
281
     1
  3
ACAD_XREC_ROUNDTRIP
360
95
  0
DICTIONARY
  5
B4
330
40
100
AcDbDictionary
280
     1
281
     1
  3
ACAD_XREC_ROUNDTRIP
360
B5
  0
XRECORD
  5
BE
102
{ACAD_REACTORS
330
BD
102
}
330
BD
100
AcDbXrecord
280
     1
102
ACAD_ROUNDTRIP_2010_MLEADER_STYLE
  0
CELLSTYLEMAP
  5
BB
102
{ACAD_REACTORS
330
BA
102
}
330
BA
100
AcDbCellStyleMap
 90
        3
300
CELLSTYLE
  1
TABLEFORMAT_BEGIN
 90
        5
170
     1
 91
        0
 92
    32768
 62
   257
 93
        1
300
CONTENTFORMAT
  1
CONTENTFORMAT_BEGIN
 90
        0
 91
        0
 92
        4
 93
        0
300

 40
0.0
140
1.0
 94
        5
 62
     0
340
11
144
0.25
309
CONTENTFORMAT_END
171
     1
301
MARGIN
  1
CELLMARGIN_BEGIN
 40
0.06
 40
0.06
 40
0.06
 40
0.06
 40
0.06
 40
0.06
309
CELLMARGIN_END
 94
        6
 95
        1
302
GRIDFORMAT
  1
GRIDFORMAT_BEGIN
 90
        0
 91
        1
 62
     0
 92
       -2
340
14
 93
        0
 40
0.045
309
GRIDFORMAT_END
 95
        2
302
GRIDFORMAT
  1
GRIDFORMAT_BEGIN
 90
        0
 91
        1
 62
     0
 92
       -2
340
14
 93
        0
 40
0.045
309
GRIDFORMAT_END
 95
        4
302
GRIDFORMAT
  1
GRIDFORMAT_BEGIN
 90
        0
 91
        1
 62
     0
 92
       -2
340
14
 93
        0
 40
0.045
309
GRIDFORMAT_END
 95
        8
302
GRIDFORMAT
  1
GRIDFORMAT_BEGIN
 90
        0
 91
        1
 62
     0
 92
       -2
340
14
 93
        0
 40
0.045
309
GRIDFORMAT_END
 95
       16
302
GRIDFORMAT
  1
GRIDFORMAT_BEGIN
 90
        0
 91
        1
 62
     0
 92
       -2
340
14
 93
        0
 40
0.045
309
GRIDFORMAT_END
 95
       32
302
GRIDFORMAT
  1
GRIDFORMAT_BEGIN
 90
        0
 91
        1
 62
     0
 92
       -2
340
14
 93
        0
 40
0.045
309
GRIDFORMAT_END
309
TABLEFORMAT_END
  1
CELLSTYLE_BEGIN
 90
        1
 91
        1
300
_TITLE
309
CELLSTYLE_END
300
CELLSTYLE
  1
TABLEFORMAT_BEGIN
 90
        5
170
     1
 91
        0
 92
        0
 62
   257
 93
        1
300
CONTENTFORMAT
  1
CONTENTFORMAT_BEGIN
 90
        0
 91
        0
 92
        4
 93
        0
300

 40
0.0
140
1.0
 94
        5
 62
     0
340
11
144
0.18
309
CONTENTFORMAT_END
171
     1
301
MARGIN
  1
CELLMARGIN_BEGIN
 40
0.06
 40
0.06
 40
0.06
 40
0.06
 40
0.06
 40
0.06
309
CELLMARGIN_END
 94
        6
 95
        1
302
GRIDFORMAT
  1
GRIDFORMAT_BEGIN
 90
        0
 91
        1
 62
     0
 92
       -2
340
14
 93
        0
 40
0.045
309
GRIDFORMAT_END
 95
        2
302
GRIDFORMAT
  1
GRIDFORMAT_BEGIN
 90
        0
 91
        1
 62
     0
 92
       -2
340
14
 93
        0
 40
0.045
309
GRIDFORMAT_END
 95
        4
302
GRIDFORMAT
  1
GRIDFORMAT_BEGIN
 90
        0
 91
        1
 62
     0
 92
       -2
340
14
 93
        0
 40
0.045
309
GRIDFORMAT_END
 95
        8
302
GRIDFORMAT
  1
GRIDFORMAT_BEGIN
 90
        0
 91
        1
 62
     0
 92
       -2
340
14
 93
        0
 40
0.045
309
GRIDFORMAT_END
 95
       16
302
GRIDFORMAT
  1
GRIDFORMAT_BEGIN
 90
        0
 91
        1
 62
     0
 92
       -2
340
14
 93
        0
 40
0.045
309
GRIDFORMAT_END
 95
       32
302
GRIDFORMAT
  1
GRIDFORMAT_BEGIN
 90
        0
 91
        1
 62
     0
 92
       -2
340
14
 93
        0
 40
0.045
309
GRIDFORMAT_END
309
TABLEFORMAT_END
  1
CELLSTYLE_BEGIN
 90
        2
 91
        1
300
_HEADER
309
CELLSTYLE_END
300
CELLSTYLE
  1
TABLEFORMAT_BEGIN
 90
        5
170
     1
 91
        0
 92
        0
 62
   257
 93
        1
300
CONTENTFORMAT
  1
CONTENTFORMAT_BEGIN
 90
        0
 91
        0
 92
        4
 93
        0
300

 40
0.0
140
1.0
 94
        2
 62
     0
340
11
144
0.18
309
CONTENTFORMAT_END
171
     1
301
MARGIN
  1
CELLMARGIN_BEGIN
 40
0.06
 40
0.06
 40
0.06
 40
0.06
 40
0.06
 40
0.06
309
CELLMARGIN_END
 94
        6
 95
        1
302
GRIDFORMAT
  1
GRIDFORMAT_BEGIN
 90
        0
 91
        1
 62
     0
 92
       -2
340
14
 93
        0
 40
0.045
309
GRIDFORMAT_END
 95
        2
302
GRIDFORMAT
  1
GRIDFORMAT_BEGIN
 90
        0
 91
        1
 62
     0
 92
       -2
340
14
 93
        0
 40
0.045
309
GRIDFORMAT_END
 95
        4
302
GRIDFORMAT
  1
GRIDFORMAT_BEGIN
 90
        0
 91
        1
 62
     0
 92
       -2
340
14
 93
        0
 40
0.045
309
GRIDFORMAT_END
 95
        8
302
GRIDFORMAT
  1
GRIDFORMAT_BEGIN
 90
        0
 91
        1
 62
     0
 92
       -2
340
14
 93
        0
 40
0.045
309
GRIDFORMAT_END
 95
       16
302
GRIDFORMAT
  1
GRIDFORMAT_BEGIN
 90
        0
 91
        1
 62
     0
 92
       -2
340
14
 93
        0
 40
0.045
309
GRIDFORMAT_END
 95
       32
302
GRIDFORMAT
  1
GRIDFORMAT_BEGIN
 90
        0
 91
        1
 62
     0
 92
       -2
340
14
 93
        0
 40
0.045
309
GRIDFORMAT_END
309
TABLEFORMAT_END
  1
CELLSTYLE_BEGIN
 90
        3
 91
        2
300
_DATA
309
CELLSTYLE_END
  0
XRECORD
  5
93
102
{ACAD_REACTORS
330
92
102
}
330
92
100
AcDbXrecord
280
     1
102
RTVSPropertyOp0
 70
     1
102
RTVSPropertyOp1
 70
     1
102
RTVSPropertyOp2
 70
     1
102
RTVSPropertyOp3
 70
     1
102
RTVSPropertyOp4
 70
     1
102
RTVSPropertyOp5
 70
     1
102
RTVSPropertyOp6
 70
     1
102
RTVSPropertyOp7
 70
     1
102
RTVSPropertyOp8
 70
     1
102
RTVSPropertyOp9
 70
     1
102
RTVSPropertyOp10
 70
     1
102
RTVSPropertyOp11
 70
     1
102
RTVSPropertyOp12
 70
     1
102
RTVSPropertyOp13
 70
     1
102
RTVSPropertyOp14
 70
     1
102
RTVSPropertyOp15
 70
     1
102
RTVSPropertyOp16
 70
     1
102
RTVSPropertyOp17
 70
     1
102
RTVSPropertyOp18
 70
     1
102
RTVSPropertyOp19
 70
     1
102
RTVSPropertyOp20
 70
     1
102
RTVSPropertyOp21
 70
     1
102
RTVSPropertyOp22
 70
     1
102
RTVSPropertyOp23
 70
     1
102
RTVSPropertyOp24
 70
     1
102
RTVSPropertyOp25
 70
     1
102
RTVSPropertyOp26
 70
     1
102
RTVSPropertyOp27
 70
     1
102
RTVSPropertyOp28
 70
     1
102
RTVSPropertyOp29
 70
     1
102
RTVSPropertyOp30
 70
     1
102
RTVSPropertyOp31
 70
     1
102
RTVSPropertyOp32
 70
     1
102
RTVSPropertyOp33
 70
     1
102
RTVSPropertyOp34
 70
     1
102
RTVSPropertyOp35
 70
     1
102
RTVSPropertyOp36
 70
     1
102
RTVSPropertyOp37
 70
     1
102
RTVSPropertyOp38
 70
     1
102
RTVSPropertyOp39
 70
     1
102
RTVSPropertyOp40
 70
     1
102
RTVSPropertyOp41
 70
     1
102
RTVSPropertyOp42
 70
     1
102
RTVSPropertyOp43
 70
     1
102
RTVSPropertyOp44
 70
     1
102
RTVSPropertyOp45
 70
     1
102
RTVSPropertyOp46
 70
     1
102
RTVSPropertyOp47
 70
     1
102
RTVSPropertyOp48
 70
     1
102
RTVSPropertyOp49
 70
     1
102
RTVSPropertyOp50
 70
     1
102
RTVSPropertyOp51
 70
     0
102
RTVSPropertyOp52
 70
     0
102
RTVSPropertyOp53
 70
     1
102
RTVSPropertyOp54
 70
     1
102
RTVSPropertyOp55
 70
     1
102
RTVSPropertyOp56
 70
     1
102
RTVSPropertyOp57
 70
     1
102
RTVSPost2010Prop28
280
     1
102
RTVSPost2010PropOp28
 70
     1
102
RTVSPost2010Prop29
280
     1
102
RTVSPost2010PropOp29
 70
     1
102
RTVSPost2010Prop30
280
     0
102
RTVSPost2010PropOp30
 70
     1
102
RTVSPost2010Prop31
280
     0
102
RTVSPost2010PropOp31
 70
     1
102
RTVSPost2010Prop32
280
     0
102
RTVSPost2010PropOp32
 70
     1
102
RTVSPost2010Prop33
280
     0
102
RTVSPost2010PropOp33
 70
     1
102
RTVSPost2010Prop34
280
     0
102
RTVSPost2010PropOp34
 70
     1
102
RTVSPost2010Prop35
280
     0
102
RTVSPost2010PropOp35
 70
     1
102
RTVSPost2010Prop36
280
     0
102
RTVSPost2010PropOp36
 70
     1
102
RTVSPost2010Prop37
 90
       50
102
RTVSPost2010PropOp37
 70
     1
102
RTVSPost2010Prop38
140
0.0
102
RTVSPost2010PropOp38
 70
     1
102
RTVSPost2010Prop39
140
1.0
102
RTVSPost2010PropOp39
 70
     1
102
RTVSPost2010Prop40
 90
        0
102
RTVSPost2010PropOp40
 70
     1
102
RTVSPost2010Prop41ColorIndex
 90
       18
102
RTVSPost2010Prop41ColorRGB
 90
        0
102
RTVSPost2010PropOp41
 70
     1
102
RTVSPost2010Prop42
 90
       50
102
RTVSPost2010PropOp42
 70
     1
102
RTVSPost2010Prop43
 90
        3
102
RTVSPost2010PropOp43
 70
     1
102
RTVSPost2010Prop44ColorIndex
 90
        5
102
RTVSPost2010Prop44ColorRGB
 90
      255
102
RTVSPost2010PropOp44
 70
     1
102
RTVSPost2010Prop45
280
     0
102
RTVSPost2010PropOp45
 70
     1
102
RTVSPost2010Prop46
 90
       50
102
RTVSPost2010PropOp46
 70
     1
102
RTVSPost2010Prop47
 90
       50
102
RTVSPost2010PropOp47
 70
     1
102
RTVSPost2010Prop48
 90
       50
102
RTVSPost2010PropOp48
 70
     1
102
RTVSPost2010Prop49
280
     0
102
RTVSPost2010PropOp49
 70
     1
102
RTVSPost2010Prop50
 90
       50
102
RTVSPost2010PropOp50
 70
     1
102
RTVSPost2010Prop51ColorIndex
 90
      256
102
RTVSPost2010Prop51ColorRGB
 90
-16777216
102
RTVSPost2010PropOp51
 70
     0
102
RTVSPost2010Prop52
140
1.0
102
RTVSPost2010PropOp52
 70
     0
102
RTVSPost2010Prop53
 90
        2
102
RTVSPost2010PropOp53
 70
     1
102
RTVSPost2010Prop54
  1
strokes_ogs.tif
102
RTVSPost2010PropOp54
 70
     1
102
RTVSPost2010Prop55
280
     0
102
RTVSPost2010PropOp55
 70
     1
102
RTVSPost2010Prop56
140
1.0
102
RTVSPost2010PropOp56
 70
     1
102
RTVSPost2010Prop57
140
1.0
102
RTVSPost2010PropOp57
 70
     1
  0
XRECORD
  5
99
102
{ACAD_REACTORS
330
98
102
}
330
98
100
AcDbXrecord
280
     1
102
RTVSPropertyOp0
 70
     1
102
RTVSPropertyOp1
 70
     1
102
RTVSPropertyOp2
 70
     1
102
RTVSPropertyOp3
 70
     1
102
RTVSPropertyOp4
 70
     1
102
RTVSPropertyOp5
 70
     1
102
RTVSPropertyOp6
 70
     1
102
RTVSPropertyOp7
 70
     1
102
RTVSPropertyOp8
 70
     1
102
RTVSPropertyOp9
 70
     1
102
RTVSPropertyOp10
 70
     1
102
RTVSPropertyOp11
 70
     1
102
RTVSPropertyOp12
 70
     1
102
RTVSPropertyOp13
 70
     1
102
RTVSPropertyOp14
 70
     1
102
RTVSPropertyOp15
 70
     1
102
RTVSPropertyOp16
 70
     1
102
RTVSPropertyOp17
 70
     1
102
RTVSPropertyOp18
 70
     1
102
RTVSPropertyOp19
 70
     1
102
RTVSPropertyOp20
 70
     1
102
RTVSPropertyOp21
 70
     1
102
RTVSPropertyOp22
 70
     1
102
RTVSPropertyOp23
 70
     1
102
RTVSPropertyOp24
 70
     1
102
RTVSPropertyOp25
 70
     1
102
RTVSPropertyOp26
 70
     1
102
RTVSPropertyOp27
 70
     1
102
RTVSPropertyOp28
 70
     1
102
RTVSPropertyOp29
 70
     1
102
RTVSPropertyOp30
 70
     1
102
RTVSPropertyOp31
 70
     1
102
RTVSPropertyOp32
 70
     1
102
RTVSPropertyOp33
 70
     1
102
RTVSPropertyOp34
 70
     1
102
RTVSPropertyOp35
 70
     1
102
RTVSPropertyOp36
 70
     1
102
RTVSPropertyOp37
 70
     1
102
RTVSPropertyOp38
 70
     1
102
RTVSPropertyOp39
 70
     1
102
RTVSPropertyOp40
 70
     1
102
RTVSPropertyOp41
 70
     1
102
RTVSPropertyOp42
 70
     1
102
RTVSPropertyOp43
 70
     1
102
RTVSPropertyOp44
 70
     1
102
RTVSPropertyOp45
 70
     1
102
RTVSPropertyOp46
 70
     1
102
RTVSPropertyOp47
 70
     1
102
RTVSPropertyOp48
 70
     1
102
RTVSPropertyOp49
 70
     1
102
RTVSPropertyOp50
 70
     1
102
RTVSPropertyOp51
 70
     0
102
RTVSPropertyOp52
 70
     0
102
RTVSPropertyOp53
 70
     1
102
RTVSPropertyOp54
 70
     1
102
RTVSPropertyOp55
 70
     1
102
RTVSPropertyOp56
 70
     1
102
RTVSPropertyOp57
 70
     1
102
RTVSPost2010Prop28
280
     0
102
RTVSPost2010PropOp28
 70
     1
102
RTVSPost2010Prop29
280
     1
102
RTVSPost2010PropOp29
 70
     1
102
RTVSPost2010Prop30
280
     1
102
RTVSPost2010PropOp30
 70
     1
102
RTVSPost2010Prop31
280
     0
102
RTVSPost2010PropOp31
 70
     1
102
RTVSPost2010Prop32
280
     0
102
RTVSPost2010PropOp32
 70
     1
102
RTVSPost2010Prop33
280
     0
102
RTVSPost2010PropOp33
 70
     1
102
RTVSPost2010Prop34
280
     0
102
RTVSPost2010PropOp34
 70
     1
102
RTVSPost2010Prop35
280
     0
102
RTVSPost2010PropOp35
 70
     1
102
RTVSPost2010Prop36
280
     0
102
RTVSPost2010PropOp36
 70
     1
102
RTVSPost2010Prop37
 90
       50
102
RTVSPost2010PropOp37
 70
     1
102
RTVSPost2010Prop38
140
0.0
102
RTVSPost2010PropOp38
 70
     1
102
RTVSPost2010Prop39
140
1.0
102
RTVSPost2010PropOp39
 70
     1
102
RTVSPost2010Prop40
 90
        0
102
RTVSPost2010PropOp40
 70
     1
102
RTVSPost2010Prop41ColorIndex
 90
       18
102
RTVSPost2010Prop41ColorRGB
 90
        0
102
RTVSPost2010PropOp41
 70
     1
102
RTVSPost2010Prop42
 90
       50
102
RTVSPost2010PropOp42
 70
     1
102
RTVSPost2010Prop43
 90
        3
102
RTVSPost2010PropOp43
 70
     1
102
RTVSPost2010Prop44ColorIndex
 90
        5
102
RTVSPost2010Prop44ColorRGB
 90
      255
102
RTVSPost2010PropOp44
 70
     1
102
RTVSPost2010Prop45
280
     0
102
RTVSPost2010PropOp45
 70
     1
102
RTVSPost2010Prop46
 90
       50
102
RTVSPost2010PropOp46
 70
     1
102
RTVSPost2010Prop47
 90
       50
102
RTVSPost2010PropOp47
 70
     1
102
RTVSPost2010Prop48
 90
       50
102
RTVSPost2010PropOp48
 70
     1
102
RTVSPost2010Prop49
280
     0
102
RTVSPost2010PropOp49
 70
     1
102
RTVSPost2010Prop50
 90
       50
102
RTVSPost2010PropOp50
 70
     1
102
RTVSPost2010Prop51ColorIndex
 90
      256
102
RTVSPost2010Prop51ColorRGB
 90
-16777216
102
RTVSPost2010PropOp51
 70
     0
102
RTVSPost2010Prop52
140
1.0
102
RTVSPost2010PropOp52
 70
     0
102
RTVSPost2010Prop53
 90
        2
102
RTVSPost2010PropOp53
 70
     1
102
RTVSPost2010Prop54
  1
strokes_ogs.tif
102
RTVSPost2010PropOp54
 70
     1
102
RTVSPost2010Prop55
280
     0
102
RTVSPost2010PropOp55
 70
     1
102
RTVSPost2010Prop56
140
1.0
102
RTVSPost2010PropOp56
 70
     1
102
RTVSPost2010Prop57
140
1.0
102
RTVSPost2010PropOp57
 70
     1
  0
XRECORD
  5
A1
102
{ACAD_REACTORS
330
A0
102
}
330
A0
100
AcDbXrecord
280
     1
102
RTVSPropertyOp0
 70
     1
102
RTVSPropertyOp1
 70
     1
102
RTVSPropertyOp2
 70
     1
102
RTVSPropertyOp3
 70
     1
102
RTVSPropertyOp4
 70
     1
102
RTVSPropertyOp5
 70
     1
102
RTVSPropertyOp6
 70
     1
102
RTVSPropertyOp7
 70
     1
102
RTVSPropertyOp8
 70
     1
102
RTVSPropertyOp9
 70
     1
102
RTVSPropertyOp10
 70
     1
102
RTVSPropertyOp11
 70
     1
102
RTVSPropertyOp12
 70
     1
102
RTVSPropertyOp13
 70
     1
102
RTVSPropertyOp14
 70
     1
102
RTVSPropertyOp15
 70
     1
102
RTVSPropertyOp16
 70
     1
102
RTVSPropertyOp17
 70
     1
102
RTVSPropertyOp18
 70
     1
102
RTVSPropertyOp19
 70
     1
102
RTVSPropertyOp20
 70
     1
102
RTVSPropertyOp21
 70
     1
102
RTVSPropertyOp22
 70
     1
102
RTVSPropertyOp23
 70
     1
102
RTVSPropertyOp24
 70
     1
102
RTVSPropertyOp25
 70
     1
102
RTVSPropertyOp26
 70
     1
102
RTVSPropertyOp27
 70
     1
102
RTVSPropertyOp28
 70
     1
102
RTVSPropertyOp29
 70
     1
102
RTVSPropertyOp30
 70
     1
102
RTVSPropertyOp31
 70
     1
102
RTVSPropertyOp32
 70
     1
102
RTVSPropertyOp33
 70
     1
102
RTVSPropertyOp34
 70
     1
102
RTVSPropertyOp35
 70
     1
102
RTVSPropertyOp36
 70
     1
102
RTVSPropertyOp37
 70
     1
102
RTVSPropertyOp38
 70
     1
102
RTVSPropertyOp39
 70
     1
102
RTVSPropertyOp40
 70
     1
102
RTVSPropertyOp41
 70
     1
102
RTVSPropertyOp42
 70
     1
102
RTVSPropertyOp43
 70
     1
102
RTVSPropertyOp44
 70
     1
102
RTVSPropertyOp45
 70
     1
102
RTVSPropertyOp46
 70
     1
102
RTVSPropertyOp47
 70
     1
102
RTVSPropertyOp48
 70
     1
102
RTVSPropertyOp49
 70
     1
102
RTVSPropertyOp50
 70
     1
102
RTVSPropertyOp51
 70
     0
102
RTVSPropertyOp52
 70
     0
102
RTVSPropertyOp53
 70
     1
102
RTVSPropertyOp54
 70
     1
102
RTVSPropertyOp55
 70
     1
102
RTVSPropertyOp56
 70
     1
102
RTVSPropertyOp57
 70
     1
102
RTVSPost2010Prop28
280
     0
102
RTVSPost2010PropOp28
 70
     1
102
RTVSPost2010Prop29
280
     1
102
RTVSPost2010PropOp29
 70
     1
102
RTVSPost2010Prop30
280
     1
102
RTVSPost2010PropOp30
 70
     1
102
RTVSPost2010Prop31
280
     0
102
RTVSPost2010PropOp31
 70
     1
102
RTVSPost2010Prop32
280
     0
102
RTVSPost2010PropOp32
 70
     1
102
RTVSPost2010Prop33
280
     0
102
RTVSPost2010PropOp33
 70
     1
102
RTVSPost2010Prop34
280
     0
102
RTVSPost2010PropOp34
 70
     1
102
RTVSPost2010Prop35
280
     0
102
RTVSPost2010PropOp35
 70
     1
102
RTVSPost2010Prop36
280
     0
102
RTVSPost2010PropOp36
 70
     1
102
RTVSPost2010Prop37
 90
       50
102
RTVSPost2010PropOp37
 70
     1
102
RTVSPost2010Prop38
140
0.0
102
RTVSPost2010PropOp38
 70
     1
102
RTVSPost2010Prop39
140
1.0
102
RTVSPost2010PropOp39
 70
     1
102
RTVSPost2010Prop40
 90
        0
102
RTVSPost2010PropOp40
 70
     1
102
RTVSPost2010Prop41ColorIndex
 90
       18
102
RTVSPost2010Prop41ColorRGB
 90
        0
102
RTVSPost2010PropOp41
 70
     1
102
RTVSPost2010Prop42
 90
       50
102
RTVSPost2010PropOp42
 70
     1
102
RTVSPost2010Prop43
 90
        3
102
RTVSPost2010PropOp43
 70
     1
102
RTVSPost2010Prop44ColorIndex
 90
        5
102
RTVSPost2010Prop44ColorRGB
 90
      255
102
RTVSPost2010PropOp44
 70
     1
102
RTVSPost2010Prop45
280
     0
102
RTVSPost2010PropOp45
 70
     1
102
RTVSPost2010Prop46
 90
       50
102
RTVSPost2010PropOp46
 70
     1
102
RTVSPost2010Prop47
 90
       50
102
RTVSPost2010PropOp47
 70
     1
102
RTVSPost2010Prop48
 90
       50
102
RTVSPost2010PropOp48
 70
     1
102
RTVSPost2010Prop49
280
     0
102
RTVSPost2010PropOp49
 70
     1
102
RTVSPost2010Prop50
 90
       50
102
RTVSPost2010PropOp50
 70
     1
102
RTVSPost2010Prop51ColorIndex
 90
      256
102
RTVSPost2010Prop51ColorRGB
 90
-16777216
102
RTVSPost2010PropOp51
 70
     0
102
RTVSPost2010Prop52
140
1.0
102
RTVSPost2010PropOp52
 70
     0
102
RTVSPost2010Prop53
 90
        2
102
RTVSPost2010PropOp53
 70
     1
102
RTVSPost2010Prop54
  1
strokes_ogs.tif
102
RTVSPost2010PropOp54
 70
     1
102
RTVSPost2010Prop55
280
     0
102
RTVSPost2010PropOp55
 70
     1
102
RTVSPost2010Prop56
140
1.0
102
RTVSPost2010PropOp56
 70
     1
102
RTVSPost2010Prop57
140
1.0
102
RTVSPost2010PropOp57
 70
     1
  0
XRECORD
  5
A9
102
{ACAD_REACTORS
330
A8
102
}
330
A8
100
AcDbXrecord
280
     1
102
RTVSPropertyOp0
 70
     1
102
RTVSPropertyOp1
 70
     1
102
RTVSPropertyOp2
 70
     1
102
RTVSPropertyOp3
 70
     1
102
RTVSPropertyOp4
 70
     1
102
RTVSPropertyOp5
 70
     1
102
RTVSPropertyOp6
 70
     1
102
RTVSPropertyOp7
 70
     1
102
RTVSPropertyOp8
 70
     1
102
RTVSPropertyOp9
 70
     1
102
RTVSPropertyOp10
 70
     1
102
RTVSPropertyOp11
 70
     1
102
RTVSPropertyOp12
 70
     1
102
RTVSPropertyOp13
 70
     1
102
RTVSPropertyOp14
 70
     1
102
RTVSPropertyOp15
 70
     1
102
RTVSPropertyOp16
 70
     1
102
RTVSPropertyOp17
 70
     1
102
RTVSPropertyOp18
 70
     1
102
RTVSPropertyOp19
 70
     1
102
RTVSPropertyOp20
 70
     1
102
RTVSPropertyOp21
 70
     1
102
RTVSPropertyOp22
 70
     1
102
RTVSPropertyOp23
 70
     1
102
RTVSPropertyOp24
 70
     1
102
RTVSPropertyOp25
 70
     1
102
RTVSPropertyOp26
 70
     1
102
RTVSPropertyOp27
 70
     1
102
RTVSPropertyOp28
 70
     1
102
RTVSPropertyOp29
 70
     1
102
RTVSPropertyOp30
 70
     1
102
RTVSPropertyOp31
 70
     1
102
RTVSPropertyOp32
 70
     1
102
RTVSPropertyOp33
 70
     1
102
RTVSPropertyOp34
 70
     1
102
RTVSPropertyOp35
 70
     1
102
RTVSPropertyOp36
 70
     1
102
RTVSPropertyOp37
 70
     1
102
RTVSPropertyOp38
 70
     1
102
RTVSPropertyOp39
 70
     1
102
RTVSPropertyOp40
 70
     1
102
RTVSPropertyOp41
 70
     1
102
RTVSPropertyOp42
 70
     1
102
RTVSPropertyOp43
 70
     1
102
RTVSPropertyOp44
 70
     1
102
RTVSPropertyOp45
 70
     1
102
RTVSPropertyOp46
 70
     1
102
RTVSPropertyOp47
 70
     1
102
RTVSPropertyOp48
 70
     1
102
RTVSPropertyOp49
 70
     1
102
RTVSPropertyOp50
 70
     1
102
RTVSPropertyOp51
 70
     0
102
RTVSPropertyOp52
 70
     0
102
RTVSPropertyOp53
 70
     1
102
RTVSPropertyOp54
 70
     1
102
RTVSPropertyOp55
 70
     1
102
RTVSPropertyOp56
 70
     1
102
RTVSPropertyOp57
 70
     1
102
RTVSPost2010Prop28
280
     0
102
RTVSPost2010PropOp28
 70
     1
102
RTVSPost2010Prop29
280
     1
102
RTVSPost2010PropOp29
 70
     1
102
RTVSPost2010Prop30
280
     1
102
RTVSPost2010PropOp30
 70
     1
102
RTVSPost2010Prop31
280
     0
102
RTVSPost2010PropOp31
 70
     1
102
RTVSPost2010Prop32
280
     0
102
RTVSPost2010PropOp32
 70
     1
102
RTVSPost2010Prop33
280
     0
102
RTVSPost2010PropOp33
 70
     1
102
RTVSPost2010Prop34
280
     0
102
RTVSPost2010PropOp34
 70
     1
102
RTVSPost2010Prop35
280
     0
102
RTVSPost2010PropOp35
 70
     1
102
RTVSPost2010Prop36
280
     0
102
RTVSPost2010PropOp36
 70
     1
102
RTVSPost2010Prop37
 90
       50
102
RTVSPost2010PropOp37
 70
     1
102
RTVSPost2010Prop38
140
0.0
102
RTVSPost2010PropOp38
 70
     1
102
RTVSPost2010Prop39
140
1.0
102
RTVSPost2010PropOp39
 70
     1
102
RTVSPost2010Prop40
 90
        0
102
RTVSPost2010PropOp40
 70
     1
102
RTVSPost2010Prop41ColorIndex
 90
       18
102
RTVSPost2010Prop41ColorRGB
 90
        0
102
RTVSPost2010PropOp41
 70
     1
102
RTVSPost2010Prop42
 90
       50
102
RTVSPost2010PropOp42
 70
     1
102
RTVSPost2010Prop43
 90
        3
102
RTVSPost2010PropOp43
 70
     1
102
RTVSPost2010Prop44ColorIndex
 90
        5
102
RTVSPost2010Prop44ColorRGB
 90
      255
102
RTVSPost2010PropOp44
 70
     1
102
RTVSPost2010Prop45
280
     0
102
RTVSPost2010PropOp45
 70
     1
102
RTVSPost2010Prop46
 90
       50
102
RTVSPost2010PropOp46
 70
     1
102
RTVSPost2010Prop47
 90
       50
102
RTVSPost2010PropOp47
 70
     1
102
RTVSPost2010Prop48
 90
       50
102
RTVSPost2010PropOp48
 70
     1
102
RTVSPost2010Prop49
280
     0
102
RTVSPost2010PropOp49
 70
     1
102
RTVSPost2010Prop50
 90
       50
102
RTVSPost2010PropOp50
 70
     1
102
RTVSPost2010Prop51ColorIndex
 90
      256
102
RTVSPost2010Prop51ColorRGB
 90
-16777216
102
RTVSPost2010PropOp51
 70
     0
102
RTVSPost2010Prop52
140
1.0
102
RTVSPost2010PropOp52
 70
     0
102
RTVSPost2010Prop53
 90
        2
102
RTVSPost2010PropOp53
 70
     1
102
RTVSPost2010Prop54
  1
strokes_ogs.tif
102
RTVSPost2010PropOp54
 70
     1
102
RTVSPost2010Prop55
280
     0
102
RTVSPost2010PropOp55
 70
     1
102
RTVSPost2010Prop56
140
1.0
102
RTVSPost2010PropOp56
 70
     1
102
RTVSPost2010Prop57
140
1.0
102
RTVSPost2010PropOp57
 70
     1
  0
XRECORD
  5
9D
102
{ACAD_REACTORS
330
9C
102
}
330
9C
100
AcDbXrecord
280
     1
102
RTVSPropertyOp0
 70
     1
102
RTVSPropertyOp1
 70
     1
102
RTVSPropertyOp2
 70
     1
102
RTVSPropertyOp3
 70
     1
102
RTVSPropertyOp4
 70
     1
102
RTVSPropertyOp5
 70
     1
102
RTVSPropertyOp6
 70
     1
102
RTVSPropertyOp7
 70
     1
102
RTVSPropertyOp8
 70
     1
102
RTVSPropertyOp9
 70
     1
102
RTVSPropertyOp10
 70
     1
102
RTVSPropertyOp11
 70
     1
102
RTVSPropertyOp12
 70
     1
102
RTVSPropertyOp13
 70
     1
102
RTVSPropertyOp14
 70
     1
102
RTVSPropertyOp15
 70
     1
102
RTVSPropertyOp16
 70
     1
102
RTVSPropertyOp17
 70
     1
102
RTVSPropertyOp18
 70
     1
102
RTVSPropertyOp19
 70
     1
102
RTVSPropertyOp20
 70
     1
102
RTVSPropertyOp21
 70
     1
102
RTVSPropertyOp22
 70
     1
102
RTVSPropertyOp23
 70
     1
102
RTVSPropertyOp24
 70
     1
102
RTVSPropertyOp25
 70
     1
102
RTVSPropertyOp26
 70
     1
102
RTVSPropertyOp27
 70
     1
102
RTVSPropertyOp28
 70
     1
102
RTVSPropertyOp29
 70
     1
102
RTVSPropertyOp30
 70
     1
102
RTVSPropertyOp31
 70
     1
102
RTVSPropertyOp32
 70
     1
102
RTVSPropertyOp33
 70
     1
102
RTVSPropertyOp34
 70
     1
102
RTVSPropertyOp35
 70
     1
102
RTVSPropertyOp36
 70
     1
102
RTVSPropertyOp37
 70
     1
102
RTVSPropertyOp38
 70
     1
102
RTVSPropertyOp39
 70
     1
102
RTVSPropertyOp40
 70
     1
102
RTVSPropertyOp41
 70
     1
102
RTVSPropertyOp42
 70
     1
102
RTVSPropertyOp43
 70
     1
102
RTVSPropertyOp44
 70
     1
102
RTVSPropertyOp45
 70
     1
102
RTVSPropertyOp46
 70
     1
102
RTVSPropertyOp47
 70
     1
102
RTVSPropertyOp48
 70
     1
102
RTVSPropertyOp49
 70
     1
102
RTVSPropertyOp50
 70
     1
102
RTVSPropertyOp51
 70
     0
102
RTVSPropertyOp52
 70
     0
102
RTVSPropertyOp53
 70
     1
102
RTVSPropertyOp54
 70
     1
102
RTVSPropertyOp55
 70
     1
102
RTVSPropertyOp56
 70
     1
102
RTVSPropertyOp57
 70
     1
102
RTVSPost2010Prop28
280
     0
102
RTVSPost2010PropOp28
 70
     1
102
RTVSPost2010Prop29
280
     1
102
RTVSPost2010PropOp29
 70
     1
102
RTVSPost2010Prop30
280
     1
102
RTVSPost2010PropOp30
 70
     1
102
RTVSPost2010Prop31
280
     0
102
RTVSPost2010PropOp31
 70
     1
102
RTVSPost2010Prop32
280
     0
102
RTVSPost2010PropOp32
 70
     1
102
RTVSPost2010Prop33
280
     0
102
RTVSPost2010PropOp33
 70
     1
102
RTVSPost2010Prop34
280
     0
102
RTVSPost2010PropOp34
 70
     1
102
RTVSPost2010Prop35
280
     0
102
RTVSPost2010PropOp35
 70
     1
102
RTVSPost2010Prop36
280
     0
102
RTVSPost2010PropOp36
 70
     1
102
RTVSPost2010Prop37
 90
       50
102
RTVSPost2010PropOp37
 70
     1
102
RTVSPost2010Prop38
140
0.0
102
RTVSPost2010PropOp38
 70
     1
102
RTVSPost2010Prop39
140
1.0
102
RTVSPost2010PropOp39
 70
     1
102
RTVSPost2010Prop40
 90
        0
102
RTVSPost2010PropOp40
 70
     1
102
RTVSPost2010Prop41ColorIndex
 90
       18
102
RTVSPost2010Prop41ColorRGB
 90
        0
102
RTVSPost2010PropOp41
 70
     1
102
RTVSPost2010Prop42
 90
       50
102
RTVSPost2010PropOp42
 70
     1
102
RTVSPost2010Prop43
 90
        3
102
RTVSPost2010PropOp43
 70
     1
102
RTVSPost2010Prop44ColorIndex
 90
        5
102
RTVSPost2010Prop44ColorRGB
 90
      255
102
RTVSPost2010PropOp44
 70
     1
102
RTVSPost2010Prop45
280
     0
102
RTVSPost2010PropOp45
 70
     1
102
RTVSPost2010Prop46
 90
       50
102
RTVSPost2010PropOp46
 70
     1
102
RTVSPost2010Prop47
 90
       50
102
RTVSPost2010PropOp47
 70
     1
102
RTVSPost2010Prop48
 90
       50
102
RTVSPost2010PropOp48
 70
     1
102
RTVSPost2010Prop49
280
     0
102
RTVSPost2010PropOp49
 70
     1
102
RTVSPost2010Prop50
 90
       50
102
RTVSPost2010PropOp50
 70
     1
102
RTVSPost2010Prop51ColorIndex
 90
      256
102
RTVSPost2010Prop51ColorRGB
 90
-16777216
102
RTVSPost2010PropOp51
 70
     0
102
RTVSPost2010Prop52
140
1.0
102
RTVSPost2010PropOp52
 70
     0
102
RTVSPost2010Prop53
 90
        2
102
RTVSPost2010PropOp53
 70
     1
102
RTVSPost2010Prop54
  1
strokes_ogs.tif
102
RTVSPost2010PropOp54
 70
     1
102
RTVSPost2010Prop55
280
     0
102
RTVSPost2010PropOp55
 70
     1
102
RTVSPost2010Prop56
140
1.0
102
RTVSPost2010PropOp56
 70
     1
102
RTVSPost2010Prop57
140
1.0
102
RTVSPost2010PropOp57
 70
     1
  0
XRECORD
  5
9F
102
{ACAD_REACTORS
330
9E
102
}
330
9E
100
AcDbXrecord
280
     1
102
RTVSPropertyOp0
 70
     1
102
RTVSPropertyOp1
 70
     1
102
RTVSPropertyOp2
 70
     1
102
RTVSPropertyOp3
 70
     1
102
RTVSPropertyOp4
 70
     1
102
RTVSPropertyOp5
 70
     1
102
RTVSPropertyOp6
 70
     1
102
RTVSPropertyOp7
 70
     1
102
RTVSPropertyOp8
 70
     1
102
RTVSPropertyOp9
 70
     1
102
RTVSPropertyOp10
 70
     1
102
RTVSPropertyOp11
 70
     1
102
RTVSPropertyOp12
 70
     1
102
RTVSPropertyOp13
 70
     1
102
RTVSPropertyOp14
 70
     1
102
RTVSPropertyOp15
 70
     1
102
RTVSPropertyOp16
 70
     1
102
RTVSPropertyOp17
 70
     1
102
RTVSPropertyOp18
 70
     1
102
RTVSPropertyOp19
 70
     1
102
RTVSPropertyOp20
 70
     1
102
RTVSPropertyOp21
 70
     1
102
RTVSPropertyOp22
 70
     1
102
RTVSPropertyOp23
 70
     1
102
RTVSPropertyOp24
 70
     1
102
RTVSPropertyOp25
 70
     1
102
RTVSPropertyOp26
 70
     1
102
RTVSPropertyOp27
 70
     1
102
RTVSPropertyOp28
 70
     1
102
RTVSPropertyOp29
 70
     1
102
RTVSPropertyOp30
 70
     1
102
RTVSPropertyOp31
 70
     1
102
RTVSPropertyOp32
 70
     1
102
RTVSPropertyOp33
 70
     1
102
RTVSPropertyOp34
 70
     1
102
RTVSPropertyOp35
 70
     1
102
RTVSPropertyOp36
 70
     1
102
RTVSPropertyOp37
 70
     1
102
RTVSPropertyOp38
 70
     1
102
RTVSPropertyOp39
 70
     1
102
RTVSPropertyOp40
 70
     1
102
RTVSPropertyOp41
 70
     1
102
RTVSPropertyOp42
 70
     1
102
RTVSPropertyOp43
 70
     1
102
RTVSPropertyOp44
 70
     1
102
RTVSPropertyOp45
 70
     1
102
RTVSPropertyOp46
 70
     1
102
RTVSPropertyOp47
 70
     1
102
RTVSPropertyOp48
 70
     1
102
RTVSPropertyOp49
 70
     1
102
RTVSPropertyOp50
 70
     1
102
RTVSPropertyOp51
 70
     0
102
RTVSPropertyOp52
 70
     0
102
RTVSPropertyOp53
 70
     1
102
RTVSPropertyOp54
 70
     1
102
RTVSPropertyOp55
 70
     1
102
RTVSPropertyOp56
 70
     1
102
RTVSPropertyOp57
 70
     1
102
RTVSPost2010Prop28
280
     0
102
RTVSPost2010PropOp28
 70
     1
102
RTVSPost2010Prop29
280
     1
102
RTVSPost2010PropOp29
 70
     1
102
RTVSPost2010Prop30
280
     1
102
RTVSPost2010PropOp30
 70
     1
102
RTVSPost2010Prop31
280
     0
102
RTVSPost2010PropOp31
 70
     1
102
RTVSPost2010Prop32
280
     0
102
RTVSPost2010PropOp32
 70
     1
102
RTVSPost2010Prop33
280
     0
102
RTVSPost2010PropOp33
 70
     1
102
RTVSPost2010Prop34
280
     0
102
RTVSPost2010PropOp34
 70
     1
102
RTVSPost2010Prop35
280
     0
102
RTVSPost2010PropOp35
 70
     1
102
RTVSPost2010Prop36
280
     0
102
RTVSPost2010PropOp36
 70
     1
102
RTVSPost2010Prop37
 90
       50
102
RTVSPost2010PropOp37
 70
     1
102
RTVSPost2010Prop38
140
0.0
102
RTVSPost2010PropOp38
 70
     1
102
RTVSPost2010Prop39
140
1.0
102
RTVSPost2010PropOp39
 70
     1
102
RTVSPost2010Prop40
 90
        0
102
RTVSPost2010PropOp40
 70
     1
102
RTVSPost2010Prop41ColorIndex
 90
       18
102
RTVSPost2010Prop41ColorRGB
 90
        0
102
RTVSPost2010PropOp41
 70
     1
102
RTVSPost2010Prop42
 90
       50
102
RTVSPost2010PropOp42
 70
     1
102
RTVSPost2010Prop43
 90
        3
102
RTVSPost2010PropOp43
 70
     1
102
RTVSPost2010Prop44ColorIndex
 90
        5
102
RTVSPost2010Prop44ColorRGB
 90
      255
102
RTVSPost2010PropOp44
 70
     1
102
RTVSPost2010Prop45
280
     0
102
RTVSPost2010PropOp45
 70
     1
102
RTVSPost2010Prop46
 90
       50
102
RTVSPost2010PropOp46
 70
     1
102
RTVSPost2010Prop47
 90
       50
102
RTVSPost2010PropOp47
 70
     1
102
RTVSPost2010Prop48
 90
       50
102
RTVSPost2010PropOp48
 70
     1
102
RTVSPost2010Prop49
280
     0
102
RTVSPost2010PropOp49
 70
     1
102
RTVSPost2010Prop50
 90
       50
102
RTVSPost2010PropOp50
 70
     1
102
RTVSPost2010Prop51ColorIndex
 90
      256
102
RTVSPost2010Prop51ColorRGB
 90
-16777216
102
RTVSPost2010PropOp51
 70
     0
102
RTVSPost2010Prop52
140
1.0
102
RTVSPost2010PropOp52
 70
     0
102
RTVSPost2010Prop53
 90
        2
102
RTVSPost2010PropOp53
 70
     1
102
RTVSPost2010Prop54
  1
strokes_ogs.tif
102
RTVSPost2010PropOp54
 70
     1
102
RTVSPost2010Prop55
280
     0
102
RTVSPost2010PropOp55
 70
     1
102
RTVSPost2010Prop56
140
1.0
102
RTVSPost2010PropOp56
 70
     1
102
RTVSPost2010Prop57
140
1.0
102
RTVSPost2010PropOp57
 70
     1
  0
XRECORD
  5
AF
102
{ACAD_REACTORS
330
AE
102
}
330
AE
100
AcDbXrecord
280
     1
102
RTVSPropertyOp0
 70
     0
102
RTVSPropertyOp1
 70
     0
102
RTVSPropertyOp2
 70
     0
102
RTVSPropertyOp3
 70
     0
102
RTVSPropertyOp4
 70
     0
102
RTVSPropertyOp5
 70
     0
102
RTVSPropertyOp6
 70
     0
102
RTVSPropertyOp7
 70
     0
102
RTVSPropertyOp8
 70
     0
102
RTVSPropertyOp9
 70
     0
102
RTVSPropertyOp10
 70
     0
102
RTVSPropertyOp11
 70
     0
102
RTVSPropertyOp12
 70
     0
102
RTVSPropertyOp13
 70
     0
102
RTVSPropertyOp14
 70
     2
102
RTVSPropertyOp15
 70
     0
102
RTVSPropertyOp16
 70
     0
102
RTVSPropertyOp17
 70
     0
102
RTVSPropertyOp18
 70
     0
102
RTVSPropertyOp19
 70
     0
102
RTVSPropertyOp20
 70
     0
102
RTVSPropertyOp21
 70
     0
102
RTVSPropertyOp22
 70
     0
102
RTVSPropertyOp23
 70
     0
102
RTVSPropertyOp24
 70
     0
102
RTVSPropertyOp25
 70
     0
102
RTVSPropertyOp26
 70
     0
102
RTVSPropertyOp27
 70
     0
102
RTVSPropertyOp28
 70
     0
102
RTVSPropertyOp29
 70
     0
102
RTVSPropertyOp30
 70
     0
102
RTVSPropertyOp31
 70
     0
102
RTVSPropertyOp32
 70
     0
102
RTVSPropertyOp33
 70
     0
102
RTVSPropertyOp34
 70
     0
102
RTVSPropertyOp35
 70
     0
102
RTVSPropertyOp36
 70
     0
102
RTVSPropertyOp37
 70
     0
102
RTVSPropertyOp38
 70
     0
102
RTVSPropertyOp39
 70
     0
102
RTVSPropertyOp40
 70
     0
102
RTVSPropertyOp41
 70
     0
102
RTVSPropertyOp42
 70
     0
102
RTVSPropertyOp43
 70
     0
102
RTVSPropertyOp44
 70
     0
102
RTVSPropertyOp45
 70
     0
102
RTVSPropertyOp46
 70
     0
102
RTVSPropertyOp47
 70
     0
102
RTVSPropertyOp48
 70
     0
102
RTVSPropertyOp49
 70
     0
102
RTVSPropertyOp50
 70
     0
102
RTVSPropertyOp51
 70
     0
102
RTVSPropertyOp52
 70
     0
102
RTVSPropertyOp53
 70
     0
102
RTVSPropertyOp54
 70
     0
102
RTVSPropertyOp55
 70
     0
102
RTVSPropertyOp56
 70
     0
102
RTVSPropertyOp57
 70
     0
102
RTVSPost2010Prop28
280
     0
102
RTVSPost2010PropOp28
 70
     0
102
RTVSPost2010Prop29
280
     1
102
RTVSPost2010PropOp29
 70
     0
102
RTVSPost2010Prop30
280
     1
102
RTVSPost2010PropOp30
 70
     0
102
RTVSPost2010Prop31
280
     0
102
RTVSPost2010PropOp31
 70
     0
102
RTVSPost2010Prop32
280
     0
102
RTVSPost2010PropOp32
 70
     0
102
RTVSPost2010Prop33
280
     0
102
RTVSPost2010PropOp33
 70
     0
102
RTVSPost2010Prop34
280
     0
102
RTVSPost2010PropOp34
 70
     0
102
RTVSPost2010Prop35
280
     0
102
RTVSPost2010PropOp35
 70
     0
102
RTVSPost2010Prop36
280
     0
102
RTVSPost2010PropOp36
 70
     0
102
RTVSPost2010Prop37
 90
       50
102
RTVSPost2010PropOp37
 70
     0
102
RTVSPost2010Prop38
140
0.0
102
RTVSPost2010PropOp38
 70
     0
102
RTVSPost2010Prop39
140
1.0
102
RTVSPost2010PropOp39
 70
     0
102
RTVSPost2010Prop40
 90
        0
102
RTVSPost2010PropOp40
 70
     0
102
RTVSPost2010Prop41ColorIndex
 90
       18
102
RTVSPost2010Prop41ColorRGB
 90
        0
102
RTVSPost2010PropOp41
 70
     0
102
RTVSPost2010Prop42
 90
       50
102
RTVSPost2010PropOp42
 70
     0
102
RTVSPost2010Prop43
 90
        3
102
RTVSPost2010PropOp43
 70
     0
102
RTVSPost2010Prop44ColorIndex
 90
        5
102
RTVSPost2010Prop44ColorRGB
 90
      255
102
RTVSPost2010PropOp44
 70
     0
102
RTVSPost2010Prop45
280
     0
102
RTVSPost2010PropOp45
 70
     0
102
RTVSPost2010Prop46
 90
       50
102
RTVSPost2010PropOp46
 70
     0
102
RTVSPost2010Prop47
 90
       50
102
RTVSPost2010PropOp47
 70
     0
102
RTVSPost2010Prop48
 90
       50
102
RTVSPost2010PropOp48
 70
     0
102
RTVSPost2010Prop49
280
     0
102
RTVSPost2010PropOp49
 70
     0
102
RTVSPost2010Prop50
 90
       50
102
RTVSPost2010PropOp50
 70
     0
102
RTVSPost2010Prop51ColorIndex
 90
      256
102
RTVSPost2010Prop51ColorRGB
 90
-16777216
102
RTVSPost2010PropOp51
 70
     0
102
RTVSPost2010Prop52
140
1.0
102
RTVSPost2010PropOp52
 70
     0
102
RTVSPost2010Prop53
 90
        2
102
RTVSPost2010PropOp53
 70
     0
102
RTVSPost2010Prop54
  1
strokes_ogs.tif
102
RTVSPost2010PropOp54
 70
     0
102
RTVSPost2010Prop55
280
     0
102
RTVSPost2010PropOp55
 70
     0
102
RTVSPost2010Prop56
140
1.0
102
RTVSPost2010PropOp56
 70
     0
102
RTVSPost2010Prop57
140
1.0
102
RTVSPost2010PropOp57
 70
     0
  0
XRECORD
  5
A7
102
{ACAD_REACTORS
330
A6
102
}
330
A6
100
AcDbXrecord
280
     1
102
RTVSPropertyOp0
 70
     1
102
RTVSPropertyOp1
 70
     1
102
RTVSPropertyOp2
 70
     1
102
RTVSPropertyOp3
 70
     1
102
RTVSPropertyOp4
 70
     1
102
RTVSPropertyOp5
 70
     1
102
RTVSPropertyOp6
 70
     1
102
RTVSPropertyOp7
 70
     1
102
RTVSPropertyOp8
 70
     1
102
RTVSPropertyOp9
 70
     1
102
RTVSPropertyOp10
 70
     1
102
RTVSPropertyOp11
 70
     1
102
RTVSPropertyOp12
 70
     1
102
RTVSPropertyOp13
 70
     1
102
RTVSPropertyOp14
 70
     1
102
RTVSPropertyOp15
 70
     1
102
RTVSPropertyOp16
 70
     1
102
RTVSPropertyOp17
 70
     1
102
RTVSPropertyOp18
 70
     1
102
RTVSPropertyOp19
 70
     1
102
RTVSPropertyOp20
 70
     1
102
RTVSPropertyOp21
 70
     1
102
RTVSPropertyOp22
 70
     1
102
RTVSPropertyOp23
 70
     1
102
RTVSPropertyOp24
 70
     1
102
RTVSPropertyOp25
 70
     1
102
RTVSPropertyOp26
 70
     1
102
RTVSPropertyOp27
 70
     1
102
RTVSPropertyOp28
 70
     1
102
RTVSPropertyOp29
 70
     1
102
RTVSPropertyOp30
 70
     1
102
RTVSPropertyOp31
 70
     1
102
RTVSPropertyOp32
 70
     1
102
RTVSPropertyOp33
 70
     1
102
RTVSPropertyOp34
 70
     1
102
RTVSPropertyOp35
 70
     1
102
RTVSPropertyOp36
 70
     1
102
RTVSPropertyOp37
 70
     1
102
RTVSPropertyOp38
 70
     1
102
RTVSPropertyOp39
 70
     1
102
RTVSPropertyOp40
 70
     1
102
RTVSPropertyOp41
 70
     1
102
RTVSPropertyOp42
 70
     1
102
RTVSPropertyOp43
 70
     1
102
RTVSPropertyOp44
 70
     1
102
RTVSPropertyOp45
 70
     1
102
RTVSPropertyOp46
 70
     1
102
RTVSPropertyOp47
 70
     1
102
RTVSPropertyOp48
 70
     1
102
RTVSPropertyOp49
 70
     1
102
RTVSPropertyOp50
 70
     1
102
RTVSPropertyOp51
 70
     0
102
RTVSPropertyOp52
 70
     0
102
RTVSPropertyOp53
 70
     1
102
RTVSPropertyOp54
 70
     1
102
RTVSPropertyOp55
 70
     1
102
RTVSPropertyOp56
 70
     1
102
RTVSPropertyOp57
 70
     1
102
RTVSPost2010Prop28
280
     0
102
RTVSPost2010PropOp28
 70
     1
102
RTVSPost2010Prop29
280
     1
102
RTVSPost2010PropOp29
 70
     1
102
RTVSPost2010Prop30
280
     1
102
RTVSPost2010PropOp30
 70
     1
102
RTVSPost2010Prop31
280
     0
102
RTVSPost2010PropOp31
 70
     1
102
RTVSPost2010Prop32
280
     0
102
RTVSPost2010PropOp32
 70
     1
102
RTVSPost2010Prop33
280
     0
102
RTVSPost2010PropOp33
 70
     1
102
RTVSPost2010Prop34
280
     0
102
RTVSPost2010PropOp34
 70
     1
102
RTVSPost2010Prop35
280
     0
102
RTVSPost2010PropOp35
 70
     1
102
RTVSPost2010Prop36
280
     0
102
RTVSPost2010PropOp36
 70
     1
102
RTVSPost2010Prop37
 90
       50
102
RTVSPost2010PropOp37
 70
     1
102
RTVSPost2010Prop38
140
0.0
102
RTVSPost2010PropOp38
 70
     1
102
RTVSPost2010Prop39
140
1.0
102
RTVSPost2010PropOp39
 70
     1
102
RTVSPost2010Prop40
 90
        0
102
RTVSPost2010PropOp40
 70
     1
102
RTVSPost2010Prop41ColorIndex
 90
       18
102
RTVSPost2010Prop41ColorRGB
 90
        0
102
RTVSPost2010PropOp41
 70
     1
102
RTVSPost2010Prop42
 90
       50
102
RTVSPost2010PropOp42
 70
     1
102
RTVSPost2010Prop43
 90
        3
102
RTVSPost2010PropOp43
 70
     1
102
RTVSPost2010Prop44ColorIndex
 90
        5
102
RTVSPost2010Prop44ColorRGB
 90
      255
102
RTVSPost2010PropOp44
 70
     1
102
RTVSPost2010Prop45
280
     0
102
RTVSPost2010PropOp45
 70
     1
102
RTVSPost2010Prop46
 90
       50
102
RTVSPost2010PropOp46
 70
     1
102
RTVSPost2010Prop47
 90
       50
102
RTVSPost2010PropOp47
 70
     1
102
RTVSPost2010Prop48
 90
       50
102
RTVSPost2010PropOp48
 70
     1
102
RTVSPost2010Prop49
280
     0
102
RTVSPost2010PropOp49
 70
     1
102
RTVSPost2010Prop50
 90
       50
102
RTVSPost2010PropOp50
 70
     1
102
RTVSPost2010Prop51ColorIndex
 90
      256
102
RTVSPost2010Prop51ColorRGB
 90
-16777216
102
RTVSPost2010PropOp51
 70
     0
102
RTVSPost2010Prop52
140
1.0
102
RTVSPost2010PropOp52
 70
     0
102
RTVSPost2010Prop53
 90
        2
102
RTVSPost2010PropOp53
 70
     1
102
RTVSPost2010Prop54
  1
strokes_ogs.tif
102
RTVSPost2010PropOp54
 70
     1
102
RTVSPost2010Prop55
280
     0
102
RTVSPost2010PropOp55
 70
     1
102
RTVSPost2010Prop56
140
1.0
102
RTVSPost2010PropOp56
 70
     1
102
RTVSPost2010Prop57
140
1.0
102
RTVSPost2010PropOp57
 70
     1
  0
XRECORD
  5
8B
102
{ACAD_REACTORS
330
8A
102
}
330
8A
100
AcDbXrecord
280
     1
102
RTVSPropertyOp0
 70
     1
102
RTVSPropertyOp1
 70
     1
102
RTVSPropertyOp2
 70
     1
102
RTVSPropertyOp3
 70
     1
102
RTVSPropertyOp4
 70
     1
102
RTVSPropertyOp5
 70
     1
102
RTVSPropertyOp6
 70
     1
102
RTVSPropertyOp7
 70
     1
102
RTVSPropertyOp8
 70
     1
102
RTVSPropertyOp9
 70
     1
102
RTVSPropertyOp10
 70
     1
102
RTVSPropertyOp11
 70
     1
102
RTVSPropertyOp12
 70
     1
102
RTVSPropertyOp13
 70
     1
102
RTVSPropertyOp14
 70
     1
102
RTVSPropertyOp15
 70
     1
102
RTVSPropertyOp16
 70
     1
102
RTVSPropertyOp17
 70
     1
102
RTVSPropertyOp18
 70
     1
102
RTVSPropertyOp19
 70
     1
102
RTVSPropertyOp20
 70
     1
102
RTVSPropertyOp21
 70
     1
102
RTVSPropertyOp22
 70
     1
102
RTVSPropertyOp23
 70
     1
102
RTVSPropertyOp24
 70
     1
102
RTVSPropertyOp25
 70
     1
102
RTVSPropertyOp26
 70
     1
102
RTVSPropertyOp27
 70
     1
102
RTVSPropertyOp28
 70
     1
102
RTVSPropertyOp29
 70
     1
102
RTVSPropertyOp30
 70
     1
102
RTVSPropertyOp31
 70
     1
102
RTVSPropertyOp32
 70
     1
102
RTVSPropertyOp33
 70
     1
102
RTVSPropertyOp34
 70
     1
102
RTVSPropertyOp35
 70
     1
102
RTVSPropertyOp36
 70
     1
102
RTVSPropertyOp37
 70
     1
102
RTVSPropertyOp38
 70
     1
102
RTVSPropertyOp39
 70
     1
102
RTVSPropertyOp40
 70
     1
102
RTVSPropertyOp41
 70
     1
102
RTVSPropertyOp42
 70
     1
102
RTVSPropertyOp43
 70
     1
102
RTVSPropertyOp44
 70
     1
102
RTVSPropertyOp45
 70
     1
102
RTVSPropertyOp46
 70
     1
102
RTVSPropertyOp47
 70
     1
102
RTVSPropertyOp48
 70
     1
102
RTVSPropertyOp49
 70
     1
102
RTVSPropertyOp50
 70
     1
102
RTVSPropertyOp51
 70
     0
102
RTVSPropertyOp52
 70
     0
102
RTVSPropertyOp53
 70
     1
102
RTVSPropertyOp54
 70
     1
102
RTVSPropertyOp55
 70
     1
102
RTVSPropertyOp56
 70
     1
102
RTVSPropertyOp57
 70
     1
102
RTVSPost2010Prop28
280
     0
102
RTVSPost2010PropOp28
 70
     1
102
RTVSPost2010Prop29
280
     1
102
RTVSPost2010PropOp29
 70
     1
102
RTVSPost2010Prop30
280
     1
102
RTVSPost2010PropOp30
 70
     1
102
RTVSPost2010Prop31
280
     0
102
RTVSPost2010PropOp31
 70
     1
102
RTVSPost2010Prop32
280
     0
102
RTVSPost2010PropOp32
 70
     1
102
RTVSPost2010Prop33
280
     0
102
RTVSPost2010PropOp33
 70
     1
102
RTVSPost2010Prop34
280
     0
102
RTVSPost2010PropOp34
 70
     1
102
RTVSPost2010Prop35
280
     0
102
RTVSPost2010PropOp35
 70
     1
102
RTVSPost2010Prop36
280
     0
102
RTVSPost2010PropOp36
 70
     1
102
RTVSPost2010Prop37
 90
       50
102
RTVSPost2010PropOp37
 70
     1
102
RTVSPost2010Prop38
140
0.0
102
RTVSPost2010PropOp38
 70
     1
102
RTVSPost2010Prop39
140
1.0
102
RTVSPost2010PropOp39
 70
     1
102
RTVSPost2010Prop40
 90
        0
102
RTVSPost2010PropOp40
 70
     1
102
RTVSPost2010Prop41ColorIndex
 90
       18
102
RTVSPost2010Prop41ColorRGB
 90
        0
102
RTVSPost2010PropOp41
 70
     1
102
RTVSPost2010Prop42
 90
       50
102
RTVSPost2010PropOp42
 70
     1
102
RTVSPost2010Prop43
 90
        3
102
RTVSPost2010PropOp43
 70
     1
102
RTVSPost2010Prop44ColorIndex
 90
        5
102
RTVSPost2010Prop44ColorRGB
 90
      255
102
RTVSPost2010PropOp44
 70
     1
102
RTVSPost2010Prop45
280
     0
102
RTVSPost2010PropOp45
 70
     1
102
RTVSPost2010Prop46
 90
       50
102
RTVSPost2010PropOp46
 70
     1
102
RTVSPost2010Prop47
 90
       50
102
RTVSPost2010PropOp47
 70
     1
102
RTVSPost2010Prop48
 90
       50
102
RTVSPost2010PropOp48
 70
     1
102
RTVSPost2010Prop49
280
     0
102
RTVSPost2010PropOp49
 70
     1
102
RTVSPost2010Prop50
 90
       50
102
RTVSPost2010PropOp50
 70
     1
102
RTVSPost2010Prop51ColorIndex
 90
      256
102
RTVSPost2010Prop51ColorRGB
 90
-16777216
102
RTVSPost2010PropOp51
 70
     0
102
RTVSPost2010Prop52
140
1.0
102
RTVSPost2010PropOp52
 70
     0
102
RTVSPost2010Prop53
 90
        2
102
RTVSPost2010PropOp53
 70
     1
102
RTVSPost2010Prop54
  1
strokes_ogs.tif
102
RTVSPost2010PropOp54
 70
     1
102
RTVSPost2010Prop55
280
     0
102
RTVSPost2010PropOp55
 70
     1
102
RTVSPost2010Prop56
140
1.0
102
RTVSPost2010PropOp56
 70
     1
102
RTVSPost2010Prop57
140
1.0
102
RTVSPost2010PropOp57
 70
     1
  0
XRECORD
  5
8D
102
{ACAD_REACTORS
330
8C
102
}
330
8C
100
AcDbXrecord
280
     1
102
RTVSPropertyOp0
 70
     1
102
RTVSPropertyOp1
 70
     1
102
RTVSPropertyOp2
 70
     1
102
RTVSPropertyOp3
 70
     1
102
RTVSPropertyOp4
 70
     1
102
RTVSPropertyOp5
 70
     1
102
RTVSPropertyOp6
 70
     1
102
RTVSPropertyOp7
 70
     1
102
RTVSPropertyOp8
 70
     1
102
RTVSPropertyOp9
 70
     1
102
RTVSPropertyOp10
 70
     1
102
RTVSPropertyOp11
 70
     1
102
RTVSPropertyOp12
 70
     1
102
RTVSPropertyOp13
 70
     1
102
RTVSPropertyOp14
 70
     1
102
RTVSPropertyOp15
 70
     1
102
RTVSPropertyOp16
 70
     1
102
RTVSPropertyOp17
 70
     1
102
RTVSPropertyOp18
 70
     1
102
RTVSPropertyOp19
 70
     1
102
RTVSPropertyOp20
 70
     1
102
RTVSPropertyOp21
 70
     1
102
RTVSPropertyOp22
 70
     1
102
RTVSPropertyOp23
 70
     1
102
RTVSPropertyOp24
 70
     1
102
RTVSPropertyOp25
 70
     1
102
RTVSPropertyOp26
 70
     1
102
RTVSPropertyOp27
 70
     1
102
RTVSPropertyOp28
 70
     1
102
RTVSPropertyOp29
 70
     1
102
RTVSPropertyOp30
 70
     1
102
RTVSPropertyOp31
 70
     1
102
RTVSPropertyOp32
 70
     1
102
RTVSPropertyOp33
 70
     1
102
RTVSPropertyOp34
 70
     1
102
RTVSPropertyOp35
 70
     1
102
RTVSPropertyOp36
 70
     1
102
RTVSPropertyOp37
 70
     1
102
RTVSPropertyOp38
 70
     1
102
RTVSPropertyOp39
 70
     1
102
RTVSPropertyOp40
 70
     1
102
RTVSPropertyOp41
 70
     1
102
RTVSPropertyOp42
 70
     1
102
RTVSPropertyOp43
 70
     1
102
RTVSPropertyOp44
 70
     1
102
RTVSPropertyOp45
 70
     1
102
RTVSPropertyOp46
 70
     1
102
RTVSPropertyOp47
 70
     1
102
RTVSPropertyOp48
 70
     1
102
RTVSPropertyOp49
 70
     1
102
RTVSPropertyOp50
 70
     1
102
RTVSPropertyOp51
 70
     0
102
RTVSPropertyOp52
 70
     0
102
RTVSPropertyOp53
 70
     1
102
RTVSPropertyOp54
 70
     1
102
RTVSPropertyOp55
 70
     1
102
RTVSPropertyOp56
 70
     1
102
RTVSPropertyOp57
 70
     1
102
RTVSPost2010Prop28
280
     0
102
RTVSPost2010PropOp28
 70
     1
102
RTVSPost2010Prop29
280
     1
102
RTVSPost2010PropOp29
 70
     1
102
RTVSPost2010Prop30
280
     1
102
RTVSPost2010PropOp30
 70
     1
102
RTVSPost2010Prop31
280
     0
102
RTVSPost2010PropOp31
 70
     1
102
RTVSPost2010Prop32
280
     0
102
RTVSPost2010PropOp32
 70
     1
102
RTVSPost2010Prop33
280
     0
102
RTVSPost2010PropOp33
 70
     1
102
RTVSPost2010Prop34
280
     0
102
RTVSPost2010PropOp34
 70
     1
102
RTVSPost2010Prop35
280
     0
102
RTVSPost2010PropOp35
 70
     1
102
RTVSPost2010Prop36
280
     0
102
RTVSPost2010PropOp36
 70
     1
102
RTVSPost2010Prop37
 90
       50
102
RTVSPost2010PropOp37
 70
     1
102
RTVSPost2010Prop38
140
0.0
102
RTVSPost2010PropOp38
 70
     1
102
RTVSPost2010Prop39
140
1.0
102
RTVSPost2010PropOp39
 70
     1
102
RTVSPost2010Prop40
 90
        0
102
RTVSPost2010PropOp40
 70
     1
102
RTVSPost2010Prop41ColorIndex
 90
       18
102
RTVSPost2010Prop41ColorRGB
 90
        0
102
RTVSPost2010PropOp41
 70
     1
102
RTVSPost2010Prop42
 90
       50
102
RTVSPost2010PropOp42
 70
     1
102
RTVSPost2010Prop43
 90
        3
102
RTVSPost2010PropOp43
 70
     1
102
RTVSPost2010Prop44ColorIndex
 90
        5
102
RTVSPost2010Prop44ColorRGB
 90
      255
102
RTVSPost2010PropOp44
 70
     1
102
RTVSPost2010Prop45
280
     0
102
RTVSPost2010PropOp45
 70
     1
102
RTVSPost2010Prop46
 90
       50
102
RTVSPost2010PropOp46
 70
     1
102
RTVSPost2010Prop47
 90
       50
102
RTVSPost2010PropOp47
 70
     1
102
RTVSPost2010Prop48
 90
       50
102
RTVSPost2010PropOp48
 70
     1
102
RTVSPost2010Prop49
280
     0
102
RTVSPost2010PropOp49
 70
     1
102
RTVSPost2010Prop50
 90
       50
102
RTVSPost2010PropOp50
 70
     1
102
RTVSPost2010Prop51ColorIndex
 90
      256
102
RTVSPost2010Prop51ColorRGB
 90
-16777216
102
RTVSPost2010PropOp51
 70
     0
102
RTVSPost2010Prop52
140
1.0
102
RTVSPost2010PropOp52
 70
     0
102
RTVSPost2010Prop53
 90
        2
102
RTVSPost2010PropOp53
 70
     1
102
RTVSPost2010Prop54
  1
strokes_ogs.tif
102
RTVSPost2010PropOp54
 70
     1
102
RTVSPost2010Prop55
280
     0
102
RTVSPost2010PropOp55
 70
     1
102
RTVSPost2010Prop56
140
1.0
102
RTVSPost2010PropOp56
 70
     1
102
RTVSPost2010Prop57
140
1.0
102
RTVSPost2010PropOp57
 70
     1
  0
XRECORD
  5
8F
102
{ACAD_REACTORS
330
8E
102
}
330
8E
100
AcDbXrecord
280
     1
102
RTVSPropertyOp0
 70
     1
102
RTVSPropertyOp1
 70
     1
102
RTVSPropertyOp2
 70
     1
102
RTVSPropertyOp3
 70
     1
102
RTVSPropertyOp4
 70
     1
102
RTVSPropertyOp5
 70
     1
102
RTVSPropertyOp6
 70
     1
102
RTVSPropertyOp7
 70
     1
102
RTVSPropertyOp8
 70
     1
102
RTVSPropertyOp9
 70
     1
102
RTVSPropertyOp10
 70
     1
102
RTVSPropertyOp11
 70
     1
102
RTVSPropertyOp12
 70
     1
102
RTVSPropertyOp13
 70
     1
102
RTVSPropertyOp14
 70
     1
102
RTVSPropertyOp15
 70
     1
102
RTVSPropertyOp16
 70
     1
102
RTVSPropertyOp17
 70
     1
102
RTVSPropertyOp18
 70
     1
102
RTVSPropertyOp19
 70
     1
102
RTVSPropertyOp20
 70
     1
102
RTVSPropertyOp21
 70
     1
102
RTVSPropertyOp22
 70
     1
102
RTVSPropertyOp23
 70
     1
102
RTVSPropertyOp24
 70
     1
102
RTVSPropertyOp25
 70
     1
102
RTVSPropertyOp26
 70
     1
102
RTVSPropertyOp27
 70
     1
102
RTVSPropertyOp28
 70
     1
102
RTVSPropertyOp29
 70
     1
102
RTVSPropertyOp30
 70
     1
102
RTVSPropertyOp31
 70
     1
102
RTVSPropertyOp32
 70
     1
102
RTVSPropertyOp33
 70
     1
102
RTVSPropertyOp34
 70
     1
102
RTVSPropertyOp35
 70
     1
102
RTVSPropertyOp36
 70
     1
102
RTVSPropertyOp37
 70
     1
102
RTVSPropertyOp38
 70
     1
102
RTVSPropertyOp39
 70
     1
102
RTVSPropertyOp40
 70
     1
102
RTVSPropertyOp41
 70
     1
102
RTVSPropertyOp42
 70
     1
102
RTVSPropertyOp43
 70
     1
102
RTVSPropertyOp44
 70
     1
102
RTVSPropertyOp45
 70
     1
102
RTVSPropertyOp46
 70
     1
102
RTVSPropertyOp47
 70
     1
102
RTVSPropertyOp48
 70
     1
102
RTVSPropertyOp49
 70
     1
102
RTVSPropertyOp50
 70
     1
102
RTVSPropertyOp51
 70
     0
102
RTVSPropertyOp52
 70
     0
102
RTVSPropertyOp53
 70
     1
102
RTVSPropertyOp54
 70
     1
102
RTVSPropertyOp55
 70
     1
102
RTVSPropertyOp56
 70
     1
102
RTVSPropertyOp57
 70
     1
102
RTVSPost2010Prop28
280
     0
102
RTVSPost2010PropOp28
 70
     1
102
RTVSPost2010Prop29
280
     1
102
RTVSPost2010PropOp29
 70
     1
102
RTVSPost2010Prop30
280
     1
102
RTVSPost2010PropOp30
 70
     1
102
RTVSPost2010Prop31
280
     0
102
RTVSPost2010PropOp31
 70
     1
102
RTVSPost2010Prop32
280
     0
102
RTVSPost2010PropOp32
 70
     1
102
RTVSPost2010Prop33
280
     0
102
RTVSPost2010PropOp33
 70
     1
102
RTVSPost2010Prop34
280
     0
102
RTVSPost2010PropOp34
 70
     1
102
RTVSPost2010Prop35
280
     0
102
RTVSPost2010PropOp35
 70
     1
102
RTVSPost2010Prop36
280
     0
102
RTVSPost2010PropOp36
 70
     1
102
RTVSPost2010Prop37
 90
       50
102
RTVSPost2010PropOp37
 70
     1
102
RTVSPost2010Prop38
140
0.0
102
RTVSPost2010PropOp38
 70
     1
102
RTVSPost2010Prop39
140
1.0
102
RTVSPost2010PropOp39
 70
     1
102
RTVSPost2010Prop40
 90
        0
102
RTVSPost2010PropOp40
 70
     1
102
RTVSPost2010Prop41ColorIndex
 90
       18
102
RTVSPost2010Prop41ColorRGB
 90
        0
102
RTVSPost2010PropOp41
 70
     1
102
RTVSPost2010Prop42
 90
       50
102
RTVSPost2010PropOp42
 70
     1
102
RTVSPost2010Prop43
 90
        3
102
RTVSPost2010PropOp43
 70
     1
102
RTVSPost2010Prop44ColorIndex
 90
        5
102
RTVSPost2010Prop44ColorRGB
 90
      255
102
RTVSPost2010PropOp44
 70
     1
102
RTVSPost2010Prop45
280
     0
102
RTVSPost2010PropOp45
 70
     1
102
RTVSPost2010Prop46
 90
       50
102
RTVSPost2010PropOp46
 70
     1
102
RTVSPost2010Prop47
 90
       50
102
RTVSPost2010PropOp47
 70
     1
102
RTVSPost2010Prop48
 90
       50
102
RTVSPost2010PropOp48
 70
     1
102
RTVSPost2010Prop49
280
     0
102
RTVSPost2010PropOp49
 70
     1
102
RTVSPost2010Prop50
 90
       50
102
RTVSPost2010PropOp50
 70
     1
102
RTVSPost2010Prop51ColorIndex
 90
      256
102
RTVSPost2010Prop51ColorRGB
 90
-16777216
102
RTVSPost2010PropOp51
 70
     0
102
RTVSPost2010Prop52
140
1.0
102
RTVSPost2010PropOp52
 70
     0
102
RTVSPost2010Prop53
 90
        2
102
RTVSPost2010PropOp53
 70
     1
102
RTVSPost2010Prop54
  1
strokes_ogs.tif
102
RTVSPost2010PropOp54
 70
     1
102
RTVSPost2010Prop55
280
     0
102
RTVSPost2010PropOp55
 70
     1
102
RTVSPost2010Prop56
140
1.0
102
RTVSPost2010PropOp56
 70
     1
102
RTVSPost2010Prop57
140
1.0
102
RTVSPost2010PropOp57
 70
     1
  0
XRECORD
  5
91
102
{ACAD_REACTORS
330
90
102
}
330
90
100
AcDbXrecord
280
     1
102
RTVSPropertyOp0
 70
     1
102
RTVSPropertyOp1
 70
     1
102
RTVSPropertyOp2
 70
     1
102
RTVSPropertyOp3
 70
     1
102
RTVSPropertyOp4
 70
     1
102
RTVSPropertyOp5
 70
     1
102
RTVSPropertyOp6
 70
     1
102
RTVSPropertyOp7
 70
     1
102
RTVSPropertyOp8
 70
     1
102
RTVSPropertyOp9
 70
     1
102
RTVSPropertyOp10
 70
     1
102
RTVSPropertyOp11
 70
     1
102
RTVSPropertyOp12
 70
     1
102
RTVSPropertyOp13
 70
     1
102
RTVSPropertyOp14
 70
     1
102
RTVSPropertyOp15
 70
     1
102
RTVSPropertyOp16
 70
     1
102
RTVSPropertyOp17
 70
     1
102
RTVSPropertyOp18
 70
     1
102
RTVSPropertyOp19
 70
     1
102
RTVSPropertyOp20
 70
     1
102
RTVSPropertyOp21
 70
     1
102
RTVSPropertyOp22
 70
     1
102
RTVSPropertyOp23
 70
     1
102
RTVSPropertyOp24
 70
     1
102
RTVSPropertyOp25
 70
     1
102
RTVSPropertyOp26
 70
     1
102
RTVSPropertyOp27
 70
     1
102
RTVSPropertyOp28
 70
     1
102
RTVSPropertyOp29
 70
     1
102
RTVSPropertyOp30
 70
     1
102
RTVSPropertyOp31
 70
     1
102
RTVSPropertyOp32
 70
     1
102
RTVSPropertyOp33
 70
     1
102
RTVSPropertyOp34
 70
     1
102
RTVSPropertyOp35
 70
     1
102
RTVSPropertyOp36
 70
     1
102
RTVSPropertyOp37
 70
     1
102
RTVSPropertyOp38
 70
     1
102
RTVSPropertyOp39
 70
     1
102
RTVSPropertyOp40
 70
     1
102
RTVSPropertyOp41
 70
     1
102
RTVSPropertyOp42
 70
     1
102
RTVSPropertyOp43
 70
     1
102
RTVSPropertyOp44
 70
     1
102
RTVSPropertyOp45
 70
     1
102
RTVSPropertyOp46
 70
     1
102
RTVSPropertyOp47
 70
     1
102
RTVSPropertyOp48
 70
     1
102
RTVSPropertyOp49
 70
     1
102
RTVSPropertyOp50
 70
     1
102
RTVSPropertyOp51
 70
     0
102
RTVSPropertyOp52
 70
     0
102
RTVSPropertyOp53
 70
     1
102
RTVSPropertyOp54
 70
     1
102
RTVSPropertyOp55
 70
     1
102
RTVSPropertyOp56
 70
     1
102
RTVSPropertyOp57
 70
     1
102
RTVSPost2010Prop28
280
     0
102
RTVSPost2010PropOp28
 70
     1
102
RTVSPost2010Prop29
280
     1
102
RTVSPost2010PropOp29
 70
     1
102
RTVSPost2010Prop30
280
     1
102
RTVSPost2010PropOp30
 70
     1
102
RTVSPost2010Prop31
280
     0
102
RTVSPost2010PropOp31
 70
     1
102
RTVSPost2010Prop32
280
     0
102
RTVSPost2010PropOp32
 70
     1
102
RTVSPost2010Prop33
280
     0
102
RTVSPost2010PropOp33
 70
     1
102
RTVSPost2010Prop34
280
     0
102
RTVSPost2010PropOp34
 70
     1
102
RTVSPost2010Prop35
280
     0
102
RTVSPost2010PropOp35
 70
     1
102
RTVSPost2010Prop36
280
     0
102
RTVSPost2010PropOp36
 70
     1
102
RTVSPost2010Prop37
 90
       50
102
RTVSPost2010PropOp37
 70
     1
102
RTVSPost2010Prop38
140
0.0
102
RTVSPost2010PropOp38
 70
     1
102
RTVSPost2010Prop39
140
1.0
102
RTVSPost2010PropOp39
 70
     1
102
RTVSPost2010Prop40
 90
        0
102
RTVSPost2010PropOp40
 70
     1
102
RTVSPost2010Prop41ColorIndex
 90
       18
102
RTVSPost2010Prop41ColorRGB
 90
        0
102
RTVSPost2010PropOp41
 70
     1
102
RTVSPost2010Prop42
 90
       50
102
RTVSPost2010PropOp42
 70
     1
102
RTVSPost2010Prop43
 90
        3
102
RTVSPost2010PropOp43
 70
     1
102
RTVSPost2010Prop44ColorIndex
 90
        5
102
RTVSPost2010Prop44ColorRGB
 90
      255
102
RTVSPost2010PropOp44
 70
     1
102
RTVSPost2010Prop45
280
     0
102
RTVSPost2010PropOp45
 70
     1
102
RTVSPost2010Prop46
 90
       50
102
RTVSPost2010PropOp46
 70
     1
102
RTVSPost2010Prop47
 90
       50
102
RTVSPost2010PropOp47
 70
     1
102
RTVSPost2010Prop48
 90
       50
102
RTVSPost2010PropOp48
 70
     1
102
RTVSPost2010Prop49
280
     0
102
RTVSPost2010PropOp49
 70
     1
102
RTVSPost2010Prop50
 90
       50
102
RTVSPost2010PropOp50
 70
     1
102
RTVSPost2010Prop51ColorIndex
 90
      256
102
RTVSPost2010Prop51ColorRGB
 90
-16777216
102
RTVSPost2010PropOp51
 70
     0
102
RTVSPost2010Prop52
140
1.0
102
RTVSPost2010PropOp52
 70
     0
102
RTVSPost2010Prop53
 90
        2
102
RTVSPost2010PropOp53
 70
     1
102
RTVSPost2010Prop54
  1
strokes_ogs.tif
102
RTVSPost2010PropOp54
 70
     1
102
RTVSPost2010Prop55
280
     0
102
RTVSPost2010PropOp55
 70
     1
102
RTVSPost2010Prop56
140
1.0
102
RTVSPost2010PropOp56
 70
     1
102
RTVSPost2010Prop57
140
1.0
102
RTVSPost2010PropOp57
 70
     1
  0
XRECORD
  5
97
102
{ACAD_REACTORS
330
96
102
}
330
96
100
AcDbXrecord
280
     1
102
RTVSPropertyOp0
 70
     1
102
RTVSPropertyOp1
 70
     1
102
RTVSPropertyOp2
 70
     1
102
RTVSPropertyOp3
 70
     1
102
RTVSPropertyOp4
 70
     1
102
RTVSPropertyOp5
 70
     1
102
RTVSPropertyOp6
 70
     1
102
RTVSPropertyOp7
 70
     1
102
RTVSPropertyOp8
 70
     1
102
RTVSPropertyOp9
 70
     1
102
RTVSPropertyOp10
 70
     1
102
RTVSPropertyOp11
 70
     1
102
RTVSPropertyOp12
 70
     1
102
RTVSPropertyOp13
 70
     1
102
RTVSPropertyOp14
 70
     1
102
RTVSPropertyOp15
 70
     1
102
RTVSPropertyOp16
 70
     1
102
RTVSPropertyOp17
 70
     1
102
RTVSPropertyOp18
 70
     1
102
RTVSPropertyOp19
 70
     1
102
RTVSPropertyOp20
 70
     1
102
RTVSPropertyOp21
 70
     1
102
RTVSPropertyOp22
 70
     1
102
RTVSPropertyOp23
 70
     1
102
RTVSPropertyOp24
 70
     1
102
RTVSPropertyOp25
 70
     1
102
RTVSPropertyOp26
 70
     1
102
RTVSPropertyOp27
 70
     1
102
RTVSPropertyOp28
 70
     1
102
RTVSPropertyOp29
 70
     1
102
RTVSPropertyOp30
 70
     1
102
RTVSPropertyOp31
 70
     1
102
RTVSPropertyOp32
 70
     1
102
RTVSPropertyOp33
 70
     1
102
RTVSPropertyOp34
 70
     1
102
RTVSPropertyOp35
 70
     1
102
RTVSPropertyOp36
 70
     1
102
RTVSPropertyOp37
 70
     1
102
RTVSPropertyOp38
 70
     1
102
RTVSPropertyOp39
 70
     1
102
RTVSPropertyOp40
 70
     1
102
RTVSPropertyOp41
 70
     1
102
RTVSPropertyOp42
 70
     1
102
RTVSPropertyOp43
 70
     1
102
RTVSPropertyOp44
 70
     1
102
RTVSPropertyOp45
 70
     1
102
RTVSPropertyOp46
 70
     1
102
RTVSPropertyOp47
 70
     1
102
RTVSPropertyOp48
 70
     1
102
RTVSPropertyOp49
 70
     1
102
RTVSPropertyOp50
 70
     1
102
RTVSPropertyOp51
 70
     0
102
RTVSPropertyOp52
 70
     0
102
RTVSPropertyOp53
 70
     1
102
RTVSPropertyOp54
 70
     1
102
RTVSPropertyOp55
 70
     1
102
RTVSPropertyOp56
 70
     1
102
RTVSPropertyOp57
 70
     1
102
RTVSPost2010Prop28
280
     0
102
RTVSPost2010PropOp28
 70
     1
102
RTVSPost2010Prop29
280
     1
102
RTVSPost2010PropOp29
 70
     1
102
RTVSPost2010Prop30
280
     1
102
RTVSPost2010PropOp30
 70
     1
102
RTVSPost2010Prop31
280
     0
102
RTVSPost2010PropOp31
 70
     1
102
RTVSPost2010Prop32
280
     0
102
RTVSPost2010PropOp32
 70
     1
102
RTVSPost2010Prop33
280
     0
102
RTVSPost2010PropOp33
 70
     1
102
RTVSPost2010Prop34
280
     0
102
RTVSPost2010PropOp34
 70
     1
102
RTVSPost2010Prop35
280
     0
102
RTVSPost2010PropOp35
 70
     1
102
RTVSPost2010Prop36
280
     0
102
RTVSPost2010PropOp36
 70
     1
102
RTVSPost2010Prop37
 90
       50
102
RTVSPost2010PropOp37
 70
     1
102
RTVSPost2010Prop38
140
0.0
102
RTVSPost2010PropOp38
 70
     1
102
RTVSPost2010Prop39
140
1.0
102
RTVSPost2010PropOp39
 70
     1
102
RTVSPost2010Prop40
 90
        0
102
RTVSPost2010PropOp40
 70
     1
102
RTVSPost2010Prop41ColorIndex
 90
       18
102
RTVSPost2010Prop41ColorRGB
 90
        0
102
RTVSPost2010PropOp41
 70
     1
102
RTVSPost2010Prop42
 90
       50
102
RTVSPost2010PropOp42
 70
     1
102
RTVSPost2010Prop43
 90
        3
102
RTVSPost2010PropOp43
 70
     1
102
RTVSPost2010Prop44ColorIndex
 90
        5
102
RTVSPost2010Prop44ColorRGB
 90
      255
102
RTVSPost2010PropOp44
 70
     1
102
RTVSPost2010Prop45
280
     0
102
RTVSPost2010PropOp45
 70
     1
102
RTVSPost2010Prop46
 90
       50
102
RTVSPost2010PropOp46
 70
     1
102
RTVSPost2010Prop47
 90
       50
102
RTVSPost2010PropOp47
 70
     1
102
RTVSPost2010Prop48
 90
       50
102
RTVSPost2010PropOp48
 70
     1
102
RTVSPost2010Prop49
280
     0
102
RTVSPost2010PropOp49
 70
     1
102
RTVSPost2010Prop50
 90
       50
102
RTVSPost2010PropOp50
 70
     1
102
RTVSPost2010Prop51ColorIndex
 90
      256
102
RTVSPost2010Prop51ColorRGB
 90
-16777216
102
RTVSPost2010PropOp51
 70
     0
102
RTVSPost2010Prop52
140
1.0
102
RTVSPost2010PropOp52
 70
     0
102
RTVSPost2010Prop53
 90
        2
102
RTVSPost2010PropOp53
 70
     1
102
RTVSPost2010Prop54
  1
strokes_ogs.tif
102
RTVSPost2010PropOp54
 70
     1
102
RTVSPost2010Prop55
280
     0
102
RTVSPost2010PropOp55
 70
     1
102
RTVSPost2010Prop56
140
1.0
102
RTVSPost2010PropOp56
 70
     1
102
RTVSPost2010Prop57
140
1.0
102
RTVSPost2010PropOp57
 70
     1
  0
XRECORD
  5
AB
102
{ACAD_REACTORS
330
AA
102
}
330
AA
100
AcDbXrecord
280
     1
102
RTVSPropertyOp0
 70
     0
102
RTVSPropertyOp1
 70
     0
102
RTVSPropertyOp2
 70
     0
102
RTVSPropertyOp3
 70
     0
102
RTVSPropertyOp4
 70
     0
102
RTVSPropertyOp5
 70
     0
102
RTVSPropertyOp6
 70
     0
102
RTVSPropertyOp7
 70
     0
102
RTVSPropertyOp8
 70
     0
102
RTVSPropertyOp9
 70
     0
102
RTVSPropertyOp10
 70
     0
102
RTVSPropertyOp11
 70
     0
102
RTVSPropertyOp12
 70
     0
102
RTVSPropertyOp13
 70
     0
102
RTVSPropertyOp14
 70
     2
102
RTVSPropertyOp15
 70
     0
102
RTVSPropertyOp16
 70
     0
102
RTVSPropertyOp17
 70
     0
102
RTVSPropertyOp18
 70
     0
102
RTVSPropertyOp19
 70
     0
102
RTVSPropertyOp20
 70
     0
102
RTVSPropertyOp21
 70
     0
102
RTVSPropertyOp22
 70
     0
102
RTVSPropertyOp23
 70
     0
102
RTVSPropertyOp24
 70
     0
102
RTVSPropertyOp25
 70
     0
102
RTVSPropertyOp26
 70
     0
102
RTVSPropertyOp27
 70
     0
102
RTVSPropertyOp28
 70
     0
102
RTVSPropertyOp29
 70
     0
102
RTVSPropertyOp30
 70
     0
102
RTVSPropertyOp31
 70
     0
102
RTVSPropertyOp32
 70
     0
102
RTVSPropertyOp33
 70
     0
102
RTVSPropertyOp34
 70
     0
102
RTVSPropertyOp35
 70
     0
102
RTVSPropertyOp36
 70
     0
102
RTVSPropertyOp37
 70
     0
102
RTVSPropertyOp38
 70
     0
102
RTVSPropertyOp39
 70
     0
102
RTVSPropertyOp40
 70
     0
102
RTVSPropertyOp41
 70
     0
102
RTVSPropertyOp42
 70
     0
102
RTVSPropertyOp43
 70
     0
102
RTVSPropertyOp44
 70
     0
102
RTVSPropertyOp45
 70
     0
102
RTVSPropertyOp46
 70
     0
102
RTVSPropertyOp47
 70
     0
102
RTVSPropertyOp48
 70
     0
102
RTVSPropertyOp49
 70
     0
102
RTVSPropertyOp50
 70
     0
102
RTVSPropertyOp51
 70
     0
102
RTVSPropertyOp52
 70
     0
102
RTVSPropertyOp53
 70
     0
102
RTVSPropertyOp54
 70
     0
102
RTVSPropertyOp55
 70
     0
102
RTVSPropertyOp56
 70
     0
102
RTVSPropertyOp57
 70
     0
102
RTVSPost2010Prop28
280
     0
102
RTVSPost2010PropOp28
 70
     0
102
RTVSPost2010Prop29
280
     1
102
RTVSPost2010PropOp29
 70
     0
102
RTVSPost2010Prop30
280
     1
102
RTVSPost2010PropOp30
 70
     0
102
RTVSPost2010Prop31
280
     0
102
RTVSPost2010PropOp31
 70
     0
102
RTVSPost2010Prop32
280
     0
102
RTVSPost2010PropOp32
 70
     0
102
RTVSPost2010Prop33
280
     0
102
RTVSPost2010PropOp33
 70
     0
102
RTVSPost2010Prop34
280
     0
102
RTVSPost2010PropOp34
 70
     0
102
RTVSPost2010Prop35
280
     0
102
RTVSPost2010PropOp35
 70
     0
102
RTVSPost2010Prop36
280
     0
102
RTVSPost2010PropOp36
 70
     0
102
RTVSPost2010Prop37
 90
       50
102
RTVSPost2010PropOp37
 70
     0
102
RTVSPost2010Prop38
140
0.0
102
RTVSPost2010PropOp38
 70
     0
102
RTVSPost2010Prop39
140
1.0
102
RTVSPost2010PropOp39
 70
     0
102
RTVSPost2010Prop40
 90
        0
102
RTVSPost2010PropOp40
 70
     0
102
RTVSPost2010Prop41ColorIndex
 90
       18
102
RTVSPost2010Prop41ColorRGB
 90
        0
102
RTVSPost2010PropOp41
 70
     0
102
RTVSPost2010Prop42
 90
       50
102
RTVSPost2010PropOp42
 70
     0
102
RTVSPost2010Prop43
 90
        3
102
RTVSPost2010PropOp43
 70
     0
102
RTVSPost2010Prop44ColorIndex
 90
        5
102
RTVSPost2010Prop44ColorRGB
 90
      255
102
RTVSPost2010PropOp44
 70
     0
102
RTVSPost2010Prop45
280
     0
102
RTVSPost2010PropOp45
 70
     0
102
RTVSPost2010Prop46
 90
       50
102
RTVSPost2010PropOp46
 70
     0
102
RTVSPost2010Prop47
 90
       50
102
RTVSPost2010PropOp47
 70
     0
102
RTVSPost2010Prop48
 90
       50
102
RTVSPost2010PropOp48
 70
     0
102
RTVSPost2010Prop49
280
     0
102
RTVSPost2010PropOp49
 70
     0
102
RTVSPost2010Prop50
 90
       50
102
RTVSPost2010PropOp50
 70
     0
102
RTVSPost2010Prop51ColorIndex
 90
      256
102
RTVSPost2010Prop51ColorRGB
 90
-16777216
102
RTVSPost2010PropOp51
 70
     0
102
RTVSPost2010Prop52
140
1.0
102
RTVSPost2010PropOp52
 70
     0
102
RTVSPost2010Prop53
 90
        2
102
RTVSPost2010PropOp53
 70
     0
102
RTVSPost2010Prop54
  1
strokes_ogs.tif
102
RTVSPost2010PropOp54
 70
     0
102
RTVSPost2010Prop55
280
     0
102
RTVSPost2010PropOp55
 70
     0
102
RTVSPost2010Prop56
140
1.0
102
RTVSPost2010PropOp56
 70
     0
102
RTVSPost2010Prop57
140
1.0
102
RTVSPost2010PropOp57
 70
     0
  0
XRECORD
  5
A5
102
{ACAD_REACTORS
330
A4
102
}
330
A4
100
AcDbXrecord
280
     1
102
RTVSPropertyOp0
 70
     1
102
RTVSPropertyOp1
 70
     1
102
RTVSPropertyOp2
 70
     1
102
RTVSPropertyOp3
 70
     1
102
RTVSPropertyOp4
 70
     1
102
RTVSPropertyOp5
 70
     1
102
RTVSPropertyOp6
 70
     1
102
RTVSPropertyOp7
 70
     1
102
RTVSPropertyOp8
 70
     1
102
RTVSPropertyOp9
 70
     1
102
RTVSPropertyOp10
 70
     1
102
RTVSPropertyOp11
 70
     1
102
RTVSPropertyOp12
 70
     1
102
RTVSPropertyOp13
 70
     1
102
RTVSPropertyOp14
 70
     1
102
RTVSPropertyOp15
 70
     1
102
RTVSPropertyOp16
 70
     1
102
RTVSPropertyOp17
 70
     1
102
RTVSPropertyOp18
 70
     1
102
RTVSPropertyOp19
 70
     1
102
RTVSPropertyOp20
 70
     1
102
RTVSPropertyOp21
 70
     1
102
RTVSPropertyOp22
 70
     1
102
RTVSPropertyOp23
 70
     1
102
RTVSPropertyOp24
 70
     1
102
RTVSPropertyOp25
 70
     1
102
RTVSPropertyOp26
 70
     1
102
RTVSPropertyOp27
 70
     1
102
RTVSPropertyOp28
 70
     1
102
RTVSPropertyOp29
 70
     1
102
RTVSPropertyOp30
 70
     1
102
RTVSPropertyOp31
 70
     1
102
RTVSPropertyOp32
 70
     1
102
RTVSPropertyOp33
 70
     1
102
RTVSPropertyOp34
 70
     1
102
RTVSPropertyOp35
 70
     1
102
RTVSPropertyOp36
 70
     1
102
RTVSPropertyOp37
 70
     1
102
RTVSPropertyOp38
 70
     1
102
RTVSPropertyOp39
 70
     1
102
RTVSPropertyOp40
 70
     1
102
RTVSPropertyOp41
 70
     1
102
RTVSPropertyOp42
 70
     1
102
RTVSPropertyOp43
 70
     1
102
RTVSPropertyOp44
 70
     1
102
RTVSPropertyOp45
 70
     1
102
RTVSPropertyOp46
 70
     1
102
RTVSPropertyOp47
 70
     1
102
RTVSPropertyOp48
 70
     1
102
RTVSPropertyOp49
 70
     1
102
RTVSPropertyOp50
 70
     1
102
RTVSPropertyOp51
 70
     0
102
RTVSPropertyOp52
 70
     0
102
RTVSPropertyOp53
 70
     1
102
RTVSPropertyOp54
 70
     1
102
RTVSPropertyOp55
 70
     1
102
RTVSPropertyOp56
 70
     1
102
RTVSPropertyOp57
 70
     1
102
RTVSPost2010Prop28
280
     0
102
RTVSPost2010PropOp28
 70
     1
102
RTVSPost2010Prop29
280
     1
102
RTVSPost2010PropOp29
 70
     1
102
RTVSPost2010Prop30
280
     1
102
RTVSPost2010PropOp30
 70
     1
102
RTVSPost2010Prop31
280
     0
102
RTVSPost2010PropOp31
 70
     1
102
RTVSPost2010Prop32
280
     0
102
RTVSPost2010PropOp32
 70
     1
102
RTVSPost2010Prop33
280
     0
102
RTVSPost2010PropOp33
 70
     1
102
RTVSPost2010Prop34
280
     0
102
RTVSPost2010PropOp34
 70
     1
102
RTVSPost2010Prop35
280
     0
102
RTVSPost2010PropOp35
 70
     1
102
RTVSPost2010Prop36
280
     0
102
RTVSPost2010PropOp36
 70
     1
102
RTVSPost2010Prop37
 90
       50
102
RTVSPost2010PropOp37
 70
     1
102
RTVSPost2010Prop38
140
0.0
102
RTVSPost2010PropOp38
 70
     1
102
RTVSPost2010Prop39
140
1.0
102
RTVSPost2010PropOp39
 70
     1
102
RTVSPost2010Prop40
 90
        0
102
RTVSPost2010PropOp40
 70
     1
102
RTVSPost2010Prop41ColorIndex
 90
       18
102
RTVSPost2010Prop41ColorRGB
 90
        0
102
RTVSPost2010PropOp41
 70
     1
102
RTVSPost2010Prop42
 90
       50
102
RTVSPost2010PropOp42
 70
     1
102
RTVSPost2010Prop43
 90
        3
102
RTVSPost2010PropOp43
 70
     1
102
RTVSPost2010Prop44ColorIndex
 90
        5
102
RTVSPost2010Prop44ColorRGB
 90
      255
102
RTVSPost2010PropOp44
 70
     1
102
RTVSPost2010Prop45
280
     0
102
RTVSPost2010PropOp45
 70
     1
102
RTVSPost2010Prop46
 90
       50
102
RTVSPost2010PropOp46
 70
     1
102
RTVSPost2010Prop47
 90
       50
102
RTVSPost2010PropOp47
 70
     1
102
RTVSPost2010Prop48
 90
       50
102
RTVSPost2010PropOp48
 70
     1
102
RTVSPost2010Prop49
280
     0
102
RTVSPost2010PropOp49
 70
     1
102
RTVSPost2010Prop50
 90
       50
102
RTVSPost2010PropOp50
 70
     1
102
RTVSPost2010Prop51ColorIndex
 90
      256
102
RTVSPost2010Prop51ColorRGB
 90
-16777216
102
RTVSPost2010PropOp51
 70
     0
102
RTVSPost2010Prop52
140
1.0
102
RTVSPost2010PropOp52
 70
     0
102
RTVSPost2010Prop53
 90
        2
102
RTVSPost2010PropOp53
 70
     1
102
RTVSPost2010Prop54
  1
strokes_ogs.tif
102
RTVSPost2010PropOp54
 70
     1
102
RTVSPost2010Prop55
280
     0
102
RTVSPost2010PropOp55
 70
     1
102
RTVSPost2010Prop56
140
1.0
102
RTVSPost2010PropOp56
 70
     1
102
RTVSPost2010Prop57
140
1.0
102
RTVSPost2010PropOp57
 70
     1
  0
XRECORD
  5
AD
102
{ACAD_REACTORS
330
AC
102
}
330
AC
100
AcDbXrecord
280
     1
102
RTVSPropertyOp0
 70
     0
102
RTVSPropertyOp1
 70
     0
102
RTVSPropertyOp2
 70
     0
102
RTVSPropertyOp3
 70
     0
102
RTVSPropertyOp4
 70
     0
102
RTVSPropertyOp5
 70
     0
102
RTVSPropertyOp6
 70
     0
102
RTVSPropertyOp7
 70
     0
102
RTVSPropertyOp8
 70
     0
102
RTVSPropertyOp9
 70
     0
102
RTVSPropertyOp10
 70
     0
102
RTVSPropertyOp11
 70
     0
102
RTVSPropertyOp12
 70
     0
102
RTVSPropertyOp13
 70
     0
102
RTVSPropertyOp14
 70
     2
102
RTVSPropertyOp15
 70
     0
102
RTVSPropertyOp16
 70
     0
102
RTVSPropertyOp17
 70
     0
102
RTVSPropertyOp18
 70
     0
102
RTVSPropertyOp19
 70
     0
102
RTVSPropertyOp20
 70
     0
102
RTVSPropertyOp21
 70
     0
102
RTVSPropertyOp22
 70
     0
102
RTVSPropertyOp23
 70
     0
102
RTVSPropertyOp24
 70
     0
102
RTVSPropertyOp25
 70
     0
102
RTVSPropertyOp26
 70
     0
102
RTVSPropertyOp27
 70
     0
102
RTVSPropertyOp28
 70
     0
102
RTVSPropertyOp29
 70
     0
102
RTVSPropertyOp30
 70
     0
102
RTVSPropertyOp31
 70
     0
102
RTVSPropertyOp32
 70
     0
102
RTVSPropertyOp33
 70
     0
102
RTVSPropertyOp34
 70
     0
102
RTVSPropertyOp35
 70
     0
102
RTVSPropertyOp36
 70
     0
102
RTVSPropertyOp37
 70
     0
102
RTVSPropertyOp38
 70
     0
102
RTVSPropertyOp39
 70
     0
102
RTVSPropertyOp40
 70
     0
102
RTVSPropertyOp41
 70
     0
102
RTVSPropertyOp42
 70
     0
102
RTVSPropertyOp43
 70
     0
102
RTVSPropertyOp44
 70
     0
102
RTVSPropertyOp45
 70
     0
102
RTVSPropertyOp46
 70
     0
102
RTVSPropertyOp47
 70
     0
102
RTVSPropertyOp48
 70
     0
102
RTVSPropertyOp49
 70
     0
102
RTVSPropertyOp50
 70
     0
102
RTVSPropertyOp51
 70
     0
102
RTVSPropertyOp52
 70
     0
102
RTVSPropertyOp53
 70
     0
102
RTVSPropertyOp54
 70
     0
102
RTVSPropertyOp55
 70
     0
102
RTVSPropertyOp56
 70
     0
102
RTVSPropertyOp57
 70
     0
102
RTVSPost2010Prop28
280
     0
102
RTVSPost2010PropOp28
 70
     0
102
RTVSPost2010Prop29
280
     1
102
RTVSPost2010PropOp29
 70
     0
102
RTVSPost2010Prop30
280
     1
102
RTVSPost2010PropOp30
 70
     0
102
RTVSPost2010Prop31
280
     0
102
RTVSPost2010PropOp31
 70
     0
102
RTVSPost2010Prop32
280
     0
102
RTVSPost2010PropOp32
 70
     0
102
RTVSPost2010Prop33
280
     0
102
RTVSPost2010PropOp33
 70
     0
102
RTVSPost2010Prop34
280
     0
102
RTVSPost2010PropOp34
 70
     0
102
RTVSPost2010Prop35
280
     0
102
RTVSPost2010PropOp35
 70
     0
102
RTVSPost2010Prop36
280
     0
102
RTVSPost2010PropOp36
 70
     0
102
RTVSPost2010Prop37
 90
       50
102
RTVSPost2010PropOp37
 70
     0
102
RTVSPost2010Prop38
140
0.0
102
RTVSPost2010PropOp38
 70
     0
102
RTVSPost2010Prop39
140
1.0
102
RTVSPost2010PropOp39
 70
     0
102
RTVSPost2010Prop40
 90
        0
102
RTVSPost2010PropOp40
 70
     0
102
RTVSPost2010Prop41ColorIndex
 90
       18
102
RTVSPost2010Prop41ColorRGB
 90
        0
102
RTVSPost2010PropOp41
 70
     0
102
RTVSPost2010Prop42
 90
       50
102
RTVSPost2010PropOp42
 70
     0
102
RTVSPost2010Prop43
 90
        3
102
RTVSPost2010PropOp43
 70
     0
102
RTVSPost2010Prop44ColorIndex
 90
        5
102
RTVSPost2010Prop44ColorRGB
 90
      255
102
RTVSPost2010PropOp44
 70
     0
102
RTVSPost2010Prop45
280
     0
102
RTVSPost2010PropOp45
 70
     0
102
RTVSPost2010Prop46
 90
       50
102
RTVSPost2010PropOp46
 70
     0
102
RTVSPost2010Prop47
 90
       50
102
RTVSPost2010PropOp47
 70
     0
102
RTVSPost2010Prop48
 90
       50
102
RTVSPost2010PropOp48
 70
     0
102
RTVSPost2010Prop49
280
     0
102
RTVSPost2010PropOp49
 70
     0
102
RTVSPost2010Prop50
 90
       50
102
RTVSPost2010PropOp50
 70
     0
102
RTVSPost2010Prop51ColorIndex
 90
      256
102
RTVSPost2010Prop51ColorRGB
 90
-16777216
102
RTVSPost2010PropOp51
 70
     0
102
RTVSPost2010Prop52
140
1.0
102
RTVSPost2010PropOp52
 70
     0
102
RTVSPost2010Prop53
 90
        2
102
RTVSPost2010PropOp53
 70
     0
102
RTVSPost2010Prop54
  1
strokes_ogs.tif
102
RTVSPost2010PropOp54
 70
     0
102
RTVSPost2010Prop55
280
     0
102
RTVSPost2010PropOp55
 70
     0
102
RTVSPost2010Prop56
140
1.0
102
RTVSPost2010PropOp56
 70
     0
102
RTVSPost2010Prop57
140
1.0
102
RTVSPost2010PropOp57
 70
     0
  0
XRECORD
  5
9B
102
{ACAD_REACTORS
330
9A
102
}
330
9A
100
AcDbXrecord
280
     1
102
RTVSPropertyOp0
 70
     1
102
RTVSPropertyOp1
 70
     1
102
RTVSPropertyOp2
 70
     1
102
RTVSPropertyOp3
 70
     1
102
RTVSPropertyOp4
 70
     1
102
RTVSPropertyOp5
 70
     1
102
RTVSPropertyOp6
 70
     1
102
RTVSPropertyOp7
 70
     1
102
RTVSPropertyOp8
 70
     1
102
RTVSPropertyOp9
 70
     1
102
RTVSPropertyOp10
 70
     1
102
RTVSPropertyOp11
 70
     1
102
RTVSPropertyOp12
 70
     1
102
RTVSPropertyOp13
 70
     1
102
RTVSPropertyOp14
 70
     1
102
RTVSPropertyOp15
 70
     1
102
RTVSPropertyOp16
 70
     1
102
RTVSPropertyOp17
 70
     1
102
RTVSPropertyOp18
 70
     1
102
RTVSPropertyOp19
 70
     1
102
RTVSPropertyOp20
 70
     1
102
RTVSPropertyOp21
 70
     1
102
RTVSPropertyOp22
 70
     1
102
RTVSPropertyOp23
 70
     1
102
RTVSPropertyOp24
 70
     1
102
RTVSPropertyOp25
 70
     1
102
RTVSPropertyOp26
 70
     1
102
RTVSPropertyOp27
 70
     1
102
RTVSPropertyOp28
 70
     1
102
RTVSPropertyOp29
 70
     1
102
RTVSPropertyOp30
 70
     1
102
RTVSPropertyOp31
 70
     1
102
RTVSPropertyOp32
 70
     1
102
RTVSPropertyOp33
 70
     1
102
RTVSPropertyOp34
 70
     1
102
RTVSPropertyOp35
 70
     1
102
RTVSPropertyOp36
 70
     1
102
RTVSPropertyOp37
 70
     1
102
RTVSPropertyOp38
 70
     1
102
RTVSPropertyOp39
 70
     1
102
RTVSPropertyOp40
 70
     1
102
RTVSPropertyOp41
 70
     1
102
RTVSPropertyOp42
 70
     1
102
RTVSPropertyOp43
 70
     1
102
RTVSPropertyOp44
 70
     1
102
RTVSPropertyOp45
 70
     1
102
RTVSPropertyOp46
 70
     1
102
RTVSPropertyOp47
 70
     1
102
RTVSPropertyOp48
 70
     1
102
RTVSPropertyOp49
 70
     1
102
RTVSPropertyOp50
 70
     1
102
RTVSPropertyOp51
 70
     0
102
RTVSPropertyOp52
 70
     0
102
RTVSPropertyOp53
 70
     1
102
RTVSPropertyOp54
 70
     1
102
RTVSPropertyOp55
 70
     1
102
RTVSPropertyOp56
 70
     1
102
RTVSPropertyOp57
 70
     1
102
RTVSPost2010Prop28
280
     0
102
RTVSPost2010PropOp28
 70
     1
102
RTVSPost2010Prop29
280
     1
102
RTVSPost2010PropOp29
 70
     1
102
RTVSPost2010Prop30
280
     1
102
RTVSPost2010PropOp30
 70
     1
102
RTVSPost2010Prop31
280
     0
102
RTVSPost2010PropOp31
 70
     1
102
RTVSPost2010Prop32
280
     0
102
RTVSPost2010PropOp32
 70
     1
102
RTVSPost2010Prop33
280
     0
102
RTVSPost2010PropOp33
 70
     1
102
RTVSPost2010Prop34
280
     0
102
RTVSPost2010PropOp34
 70
     1
102
RTVSPost2010Prop35
280
     0
102
RTVSPost2010PropOp35
 70
     1
102
RTVSPost2010Prop36
280
     0
102
RTVSPost2010PropOp36
 70
     1
102
RTVSPost2010Prop37
 90
       50
102
RTVSPost2010PropOp37
 70
     1
102
RTVSPost2010Prop38
140
0.0
102
RTVSPost2010PropOp38
 70
     1
102
RTVSPost2010Prop39
140
1.0
102
RTVSPost2010PropOp39
 70
     1
102
RTVSPost2010Prop40
 90
        0
102
RTVSPost2010PropOp40
 70
     1
102
RTVSPost2010Prop41ColorIndex
 90
       18
102
RTVSPost2010Prop41ColorRGB
 90
        0
102
RTVSPost2010PropOp41
 70
     1
102
RTVSPost2010Prop42
 90
       50
102
RTVSPost2010PropOp42
 70
     1
102
RTVSPost2010Prop43
 90
        3
102
RTVSPost2010PropOp43
 70
     1
102
RTVSPost2010Prop44ColorIndex
 90
        5
102
RTVSPost2010Prop44ColorRGB
 90
      255
102
RTVSPost2010PropOp44
 70
     1
102
RTVSPost2010Prop45
280
     0
102
RTVSPost2010PropOp45
 70
     1
102
RTVSPost2010Prop46
 90
       50
102
RTVSPost2010PropOp46
 70
     1
102
RTVSPost2010Prop47
 90
       50
102
RTVSPost2010PropOp47
 70
     1
102
RTVSPost2010Prop48
 90
       50
102
RTVSPost2010PropOp48
 70
     1
102
RTVSPost2010Prop49
280
     0
102
RTVSPost2010PropOp49
 70
     1
102
RTVSPost2010Prop50
 90
       50
102
RTVSPost2010PropOp50
 70
     1
102
RTVSPost2010Prop51ColorIndex
 90
      256
102
RTVSPost2010Prop51ColorRGB
 90
-16777216
102
RTVSPost2010PropOp51
 70
     0
102
RTVSPost2010Prop52
140
1.0
102
RTVSPost2010PropOp52
 70
     0
102
RTVSPost2010Prop53
 90
        2
102
RTVSPost2010PropOp53
 70
     1
102
RTVSPost2010Prop54
  1
strokes_ogs.tif
102
RTVSPost2010PropOp54
 70
     1
102
RTVSPost2010Prop55
280
     0
102
RTVSPost2010PropOp55
 70
     1
102
RTVSPost2010Prop56
140
1.0
102
RTVSPost2010PropOp56
 70
     1
102
RTVSPost2010Prop57
140
1.0
102
RTVSPost2010PropOp57
 70
     1
  0
XRECORD
  5
B9
102
{ACAD_REACTORS
330
B8
102
}
330
B8
100
AcDbXrecord
280
     1
102
RTVSPropertyOp0
 70
     1
102
RTVSPropertyOp1
 70
     1
102
RTVSPropertyOp2
 70
     1
102
RTVSPropertyOp3
 70
     1
102
RTVSPropertyOp4
 70
     1
102
RTVSPropertyOp5
 70
     1
102
RTVSPropertyOp6
 70
     1
102
RTVSPropertyOp7
 70
     1
102
RTVSPropertyOp8
 70
     1
102
RTVSPropertyOp9
 70
     1
102
RTVSPropertyOp10
 70
     1
102
RTVSPropertyOp11
 70
     1
102
RTVSPropertyOp12
 70
     1
102
RTVSPropertyOp13
 70
     1
102
RTVSPropertyOp14
 70
     1
102
RTVSPropertyOp15
 70
     1
102
RTVSPropertyOp16
 70
     1
102
RTVSPropertyOp17
 70
     1
102
RTVSPropertyOp18
 70
     1
102
RTVSPropertyOp19
 70
     1
102
RTVSPropertyOp20
 70
     1
102
RTVSPropertyOp21
 70
     1
102
RTVSPropertyOp22
 70
     1
102
RTVSPropertyOp23
 70
     1
102
RTVSPropertyOp24
 70
     1
102
RTVSPropertyOp25
 70
     1
102
RTVSPropertyOp26
 70
     1
102
RTVSPropertyOp27
 70
     1
102
RTVSPropertyOp28
 70
     1
102
RTVSPropertyOp29
 70
     1
102
RTVSPropertyOp30
 70
     1
102
RTVSPropertyOp31
 70
     1
102
RTVSPropertyOp32
 70
     1
102
RTVSPropertyOp33
 70
     1
102
RTVSPropertyOp34
 70
     1
102
RTVSPropertyOp35
 70
     1
102
RTVSPropertyOp36
 70
     1
102
RTVSPropertyOp37
 70
     1
102
RTVSPropertyOp38
 70
     1
102
RTVSPropertyOp39
 70
     1
102
RTVSPropertyOp40
 70
     1
102
RTVSPropertyOp41
 70
     1
102
RTVSPropertyOp42
 70
     1
102
RTVSPropertyOp43
 70
     1
102
RTVSPropertyOp44
 70
     1
102
RTVSPropertyOp45
 70
     1
102
RTVSPropertyOp46
 70
     1
102
RTVSPropertyOp47
 70
     1
102
RTVSPropertyOp48
 70
     1
102
RTVSPropertyOp49
 70
     1
102
RTVSPropertyOp50
 70
     1
102
RTVSPropertyOp51
 70
     0
102
RTVSPropertyOp52
 70
     0
102
RTVSPropertyOp53
 70
     1
102
RTVSPropertyOp54
 70
     1
102
RTVSPropertyOp55
 70
     1
102
RTVSPropertyOp56
 70
     1
102
RTVSPropertyOp57
 70
     1
102
RTVSPost2010Prop28
280
     0
102
RTVSPost2010PropOp28
 70
     1
102
RTVSPost2010Prop29
280
     1
102
RTVSPost2010PropOp29
 70
     1
102
RTVSPost2010Prop30
280
     1
102
RTVSPost2010PropOp30
 70
     1
102
RTVSPost2010Prop31
280
     0
102
RTVSPost2010PropOp31
 70
     1
102
RTVSPost2010Prop32
280
     0
102
RTVSPost2010PropOp32
 70
     1
102
RTVSPost2010Prop33
280
     0
102
RTVSPost2010PropOp33
 70
     1
102
RTVSPost2010Prop34
280
     0
102
RTVSPost2010PropOp34
 70
     1
102
RTVSPost2010Prop35
280
     0
102
RTVSPost2010PropOp35
 70
     1
102
RTVSPost2010Prop36
280
     0
102
RTVSPost2010PropOp36
 70
     1
102
RTVSPost2010Prop37
 90
       50
102
RTVSPost2010PropOp37
 70
     1
102
RTVSPost2010Prop38
140
0.0
102
RTVSPost2010PropOp38
 70
     1
102
RTVSPost2010Prop39
140
1.0
102
RTVSPost2010PropOp39
 70
     1
102
RTVSPost2010Prop40
 90
        0
102
RTVSPost2010PropOp40
 70
     1
102
RTVSPost2010Prop41ColorIndex
 90
       18
102
RTVSPost2010Prop41ColorRGB
 90
        0
102
RTVSPost2010PropOp41
 70
     1
102
RTVSPost2010Prop42
 90
       50
102
RTVSPost2010PropOp42
 70
     1
102
RTVSPost2010Prop43
 90
        3
102
RTVSPost2010PropOp43
 70
     1
102
RTVSPost2010Prop44ColorIndex
 90
        5
102
RTVSPost2010Prop44ColorRGB
 90
      255
102
RTVSPost2010PropOp44
 70
     1
102
RTVSPost2010Prop45
280
     0
102
RTVSPost2010PropOp45
 70
     1
102
RTVSPost2010Prop46
 90
       50
102
RTVSPost2010PropOp46
 70
     1
102
RTVSPost2010Prop47
 90
       50
102
RTVSPost2010PropOp47
 70
     1
102
RTVSPost2010Prop48
 90
       50
102
RTVSPost2010PropOp48
 70
     1
102
RTVSPost2010Prop49
280
     0
102
RTVSPost2010PropOp49
 70
     1
102
RTVSPost2010Prop50
 90
       50
102
RTVSPost2010PropOp50
 70
     1
102
RTVSPost2010Prop51ColorIndex
 90
      256
102
RTVSPost2010Prop51ColorRGB
 90
-16777216
102
RTVSPost2010PropOp51
 70
     0
102
RTVSPost2010Prop52
140
1.0
102
RTVSPost2010PropOp52
 70
     0
102
RTVSPost2010Prop53
 90
        2
102
RTVSPost2010PropOp53
 70
     1
102
RTVSPost2010Prop54
  1
strokes_ogs.tif
102
RTVSPost2010PropOp54
 70
     1
102
RTVSPost2010Prop55
280
     0
102
RTVSPost2010PropOp55
 70
     1
102
RTVSPost2010Prop56
140
1.0
102
RTVSPost2010PropOp56
 70
     1
102
RTVSPost2010Prop57
140
1.0
102
RTVSPost2010PropOp57
 70
     1
  0
XRECORD
  5
B7
102
{ACAD_REACTORS
330
B6
102
}
330
B6
100
AcDbXrecord
280
     1
102
RTVSPropertyOp0
 70
     1
102
RTVSPropertyOp1
 70
     1
102
RTVSPropertyOp2
 70
     1
102
RTVSPropertyOp3
 70
     1
102
RTVSPropertyOp4
 70
     1
102
RTVSPropertyOp5
 70
     1
102
RTVSPropertyOp6
 70
     1
102
RTVSPropertyOp7
 70
     1
102
RTVSPropertyOp8
 70
     1
102
RTVSPropertyOp9
 70
     1
102
RTVSPropertyOp10
 70
     1
102
RTVSPropertyOp11
 70
     1
102
RTVSPropertyOp12
 70
     1
102
RTVSPropertyOp13
 70
     1
102
RTVSPropertyOp14
 70
     1
102
RTVSPropertyOp15
 70
     1
102
RTVSPropertyOp16
 70
     1
102
RTVSPropertyOp17
 70
     1
102
RTVSPropertyOp18
 70
     1
102
RTVSPropertyOp19
 70
     1
102
RTVSPropertyOp20
 70
     1
102
RTVSPropertyOp21
 70
     1
102
RTVSPropertyOp22
 70
     1
102
RTVSPropertyOp23
 70
     1
102
RTVSPropertyOp24
 70
     1
102
RTVSPropertyOp25
 70
     1
102
RTVSPropertyOp26
 70
     1
102
RTVSPropertyOp27
 70
     1
102
RTVSPropertyOp28
 70
     1
102
RTVSPropertyOp29
 70
     1
102
RTVSPropertyOp30
 70
     1
102
RTVSPropertyOp31
 70
     1
102
RTVSPropertyOp32
 70
     1
102
RTVSPropertyOp33
 70
     1
102
RTVSPropertyOp34
 70
     1
102
RTVSPropertyOp35
 70
     1
102
RTVSPropertyOp36
 70
     1
102
RTVSPropertyOp37
 70
     1
102
RTVSPropertyOp38
 70
     1
102
RTVSPropertyOp39
 70
     1
102
RTVSPropertyOp40
 70
     1
102
RTVSPropertyOp41
 70
     1
102
RTVSPropertyOp42
 70
     1
102
RTVSPropertyOp43
 70
     1
102
RTVSPropertyOp44
 70
     1
102
RTVSPropertyOp45
 70
     1
102
RTVSPropertyOp46
 70
     1
102
RTVSPropertyOp47
 70
     1
102
RTVSPropertyOp48
 70
     1
102
RTVSPropertyOp49
 70
     1
102
RTVSPropertyOp50
 70
     1
102
RTVSPropertyOp51
 70
     0
102
RTVSPropertyOp52
 70
     0
102
RTVSPropertyOp53
 70
     1
102
RTVSPropertyOp54
 70
     1
102
RTVSPropertyOp55
 70
     1
102
RTVSPropertyOp56
 70
     1
102
RTVSPropertyOp57
 70
     1
102
RTVSPost2010Prop28
280
     0
102
RTVSPost2010PropOp28
 70
     1
102
RTVSPost2010Prop29
280
     1
102
RTVSPost2010PropOp29
 70
     1
102
RTVSPost2010Prop30
280
     1
102
RTVSPost2010PropOp30
 70
     1
102
RTVSPost2010Prop31
280
     0
102
RTVSPost2010PropOp31
 70
     1
102
RTVSPost2010Prop32
280
     0
102
RTVSPost2010PropOp32
 70
     1
102
RTVSPost2010Prop33
280
     0
102
RTVSPost2010PropOp33
 70
     1
102
RTVSPost2010Prop34
280
     0
102
RTVSPost2010PropOp34
 70
     1
102
RTVSPost2010Prop35
280
     0
102
RTVSPost2010PropOp35
 70
     1
102
RTVSPost2010Prop36
280
     0
102
RTVSPost2010PropOp36
 70
     1
102
RTVSPost2010Prop37
 90
       50
102
RTVSPost2010PropOp37
 70
     1
102
RTVSPost2010Prop38
140
0.0
102
RTVSPost2010PropOp38
 70
     1
102
RTVSPost2010Prop39
140
1.0
102
RTVSPost2010PropOp39
 70
     1
102
RTVSPost2010Prop40
 90
        0
102
RTVSPost2010PropOp40
 70
     1
102
RTVSPost2010Prop41ColorIndex
 90
       18
102
RTVSPost2010Prop41ColorRGB
 90
        0
102
RTVSPost2010PropOp41
 70
     1
102
RTVSPost2010Prop42
 90
       50
102
RTVSPost2010PropOp42
 70
     1
102
RTVSPost2010Prop43
 90
        3
102
RTVSPost2010PropOp43
 70
     1
102
RTVSPost2010Prop44ColorIndex
 90
        5
102
RTVSPost2010Prop44ColorRGB
 90
      255
102
RTVSPost2010PropOp44
 70
     1
102
RTVSPost2010Prop45
280
     0
102
RTVSPost2010PropOp45
 70
     1
102
RTVSPost2010Prop46
 90
       50
102
RTVSPost2010PropOp46
 70
     1
102
RTVSPost2010Prop47
 90
       50
102
RTVSPost2010PropOp47
 70
     1
102
RTVSPost2010Prop48
 90
       50
102
RTVSPost2010PropOp48
 70
     1
102
RTVSPost2010Prop49
280
     0
102
RTVSPost2010PropOp49
 70
     1
102
RTVSPost2010Prop50
 90
       50
102
RTVSPost2010PropOp50
 70
     1
102
RTVSPost2010Prop51ColorIndex
 90
      256
102
RTVSPost2010Prop51ColorRGB
 90
-16777216
102
RTVSPost2010PropOp51
 70
     0
102
RTVSPost2010Prop52
140
1.0
102
RTVSPost2010PropOp52
 70
     0
102
RTVSPost2010Prop53
 90
        2
102
RTVSPost2010PropOp53
 70
     1
102
RTVSPost2010Prop54
  1
strokes_ogs.tif
102
RTVSPost2010PropOp54
 70
     1
102
RTVSPost2010Prop55
280
     0
102
RTVSPost2010PropOp55
 70
     1
102
RTVSPost2010Prop56
140
1.0
102
RTVSPost2010PropOp56
 70
     1
102
RTVSPost2010Prop57
140
1.0
102
RTVSPost2010PropOp57
 70
     1
  0
XRECORD
  5
B1
102
{ACAD_REACTORS
330
B0
102
}
330
B0
100
AcDbXrecord
280
     1
102
RTVSPropertyOp0
 70
     1
102
RTVSPropertyOp1
 70
     1
102
RTVSPropertyOp2
 70
     1
102
RTVSPropertyOp3
 70
     1
102
RTVSPropertyOp4
 70
     1
102
RTVSPropertyOp5
 70
     1
102
RTVSPropertyOp6
 70
     1
102
RTVSPropertyOp7
 70
     1
102
RTVSPropertyOp8
 70
     1
102
RTVSPropertyOp9
 70
     1
102
RTVSPropertyOp10
 70
     1
102
RTVSPropertyOp11
 70
     1
102
RTVSPropertyOp12
 70
     1
102
RTVSPropertyOp13
 70
     1
102
RTVSPropertyOp14
 70
     1
102
RTVSPropertyOp15
 70
     1
102
RTVSPropertyOp16
 70
     1
102
RTVSPropertyOp17
 70
     1
102
RTVSPropertyOp18
 70
     1
102
RTVSPropertyOp19
 70
     1
102
RTVSPropertyOp20
 70
     1
102
RTVSPropertyOp21
 70
     1
102
RTVSPropertyOp22
 70
     1
102
RTVSPropertyOp23
 70
     1
102
RTVSPropertyOp24
 70
     1
102
RTVSPropertyOp25
 70
     1
102
RTVSPropertyOp26
 70
     1
102
RTVSPropertyOp27
 70
     1
102
RTVSPropertyOp28
 70
     1
102
RTVSPropertyOp29
 70
     1
102
RTVSPropertyOp30
 70
     1
102
RTVSPropertyOp31
 70
     1
102
RTVSPropertyOp32
 70
     1
102
RTVSPropertyOp33
 70
     1
102
RTVSPropertyOp34
 70
     1
102
RTVSPropertyOp35
 70
     1
102
RTVSPropertyOp36
 70
     1
102
RTVSPropertyOp37
 70
     1
102
RTVSPropertyOp38
 70
     1
102
RTVSPropertyOp39
 70
     1
102
RTVSPropertyOp40
 70
     1
102
RTVSPropertyOp41
 70
     1
102
RTVSPropertyOp42
 70
     1
102
RTVSPropertyOp43
 70
     1
102
RTVSPropertyOp44
 70
     1
102
RTVSPropertyOp45
 70
     1
102
RTVSPropertyOp46
 70
     1
102
RTVSPropertyOp47
 70
     1
102
RTVSPropertyOp48
 70
     1
102
RTVSPropertyOp49
 70
     1
102
RTVSPropertyOp50
 70
     1
102
RTVSPropertyOp51
 70
     0
102
RTVSPropertyOp52
 70
     0
102
RTVSPropertyOp53
 70
     1
102
RTVSPropertyOp54
 70
     1
102
RTVSPropertyOp55
 70
     1
102
RTVSPropertyOp56
 70
     1
102
RTVSPropertyOp57
 70
     1
102
RTVSPost2010Prop28
280
     0
102
RTVSPost2010PropOp28
 70
     1
102
RTVSPost2010Prop29
280
     1
102
RTVSPost2010PropOp29
 70
     1
102
RTVSPost2010Prop30
280
     1
102
RTVSPost2010PropOp30
 70
     1
102
RTVSPost2010Prop31
280
     0
102
RTVSPost2010PropOp31
 70
     1
102
RTVSPost2010Prop32
280
     0
102
RTVSPost2010PropOp32
 70
     1
102
RTVSPost2010Prop33
280
     0
102
RTVSPost2010PropOp33
 70
     1
102
RTVSPost2010Prop34
280
     0
102
RTVSPost2010PropOp34
 70
     1
102
RTVSPost2010Prop35
280
     0
102
RTVSPost2010PropOp35
 70
     1
102
RTVSPost2010Prop36
280
     0
102
RTVSPost2010PropOp36
 70
     1
102
RTVSPost2010Prop37
 90
       50
102
RTVSPost2010PropOp37
 70
     1
102
RTVSPost2010Prop38
140
0.0
102
RTVSPost2010PropOp38
 70
     1
102
RTVSPost2010Prop39
140
1.0
102
RTVSPost2010PropOp39
 70
     1
102
RTVSPost2010Prop40
 90
        0
102
RTVSPost2010PropOp40
 70
     1
102
RTVSPost2010Prop41ColorIndex
 90
       18
102
RTVSPost2010Prop41ColorRGB
 90
        0
102
RTVSPost2010PropOp41
 70
     1
102
RTVSPost2010Prop42
 90
       50
102
RTVSPost2010PropOp42
 70
     1
102
RTVSPost2010Prop43
 90
        3
102
RTVSPost2010PropOp43
 70
     1
102
RTVSPost2010Prop44ColorIndex
 90
        5
102
RTVSPost2010Prop44ColorRGB
 90
      255
102
RTVSPost2010PropOp44
 70
     1
102
RTVSPost2010Prop45
280
     0
102
RTVSPost2010PropOp45
 70
     1
102
RTVSPost2010Prop46
 90
       50
102
RTVSPost2010PropOp46
 70
     1
102
RTVSPost2010Prop47
 90
       50
102
RTVSPost2010PropOp47
 70
     1
102
RTVSPost2010Prop48
 90
       50
102
RTVSPost2010PropOp48
 70
     1
102
RTVSPost2010Prop49
280
     0
102
RTVSPost2010PropOp49
 70
     1
102
RTVSPost2010Prop50
 90
       50
102
RTVSPost2010PropOp50
 70
     1
102
RTVSPost2010Prop51ColorIndex
 90
      256
102
RTVSPost2010Prop51ColorRGB
 90
-16777216
102
RTVSPost2010PropOp51
 70
     0
102
RTVSPost2010Prop52
140
1.0
102
RTVSPost2010PropOp52
 70
     0
102
RTVSPost2010Prop53
 90
        2
102
RTVSPost2010PropOp53
 70
     1
102
RTVSPost2010Prop54
  1
strokes_ogs.tif
102
RTVSPost2010PropOp54
 70
     1
102
RTVSPost2010Prop55
280
     0
102
RTVSPost2010PropOp55
 70
     1
102
RTVSPost2010Prop56
140
1.0
102
RTVSPost2010PropOp56
 70
     1
102
RTVSPost2010Prop57
140
1.0
102
RTVSPost2010PropOp57
 70
     1
  0
XRECORD
  5
B3
102
{ACAD_REACTORS
330
B2
102
}
330
B2
100
AcDbXrecord
280
     1
102
RTVSPropertyOp0
 70
     1
102
RTVSPropertyOp1
 70
     1
102
RTVSPropertyOp2
 70
     1
102
RTVSPropertyOp3
 70
     1
102
RTVSPropertyOp4
 70
     1
102
RTVSPropertyOp5
 70
     1
102
RTVSPropertyOp6
 70
     1
102
RTVSPropertyOp7
 70
     1
102
RTVSPropertyOp8
 70
     1
102
RTVSPropertyOp9
 70
     1
102
RTVSPropertyOp10
 70
     1
102
RTVSPropertyOp11
 70
     1
102
RTVSPropertyOp12
 70
     1
102
RTVSPropertyOp13
 70
     1
102
RTVSPropertyOp14
 70
     1
102
RTVSPropertyOp15
 70
     1
102
RTVSPropertyOp16
 70
     1
102
RTVSPropertyOp17
 70
     1
102
RTVSPropertyOp18
 70
     1
102
RTVSPropertyOp19
 70
     1
102
RTVSPropertyOp20
 70
     1
102
RTVSPropertyOp21
 70
     1
102
RTVSPropertyOp22
 70
     1
102
RTVSPropertyOp23
 70
     1
102
RTVSPropertyOp24
 70
     1
102
RTVSPropertyOp25
 70
     1
102
RTVSPropertyOp26
 70
     1
102
RTVSPropertyOp27
 70
     1
102
RTVSPropertyOp28
 70
     1
102
RTVSPropertyOp29
 70
     1
102
RTVSPropertyOp30
 70
     1
102
RTVSPropertyOp31
 70
     1
102
RTVSPropertyOp32
 70
     1
102
RTVSPropertyOp33
 70
     1
102
RTVSPropertyOp34
 70
     1
102
RTVSPropertyOp35
 70
     1
102
RTVSPropertyOp36
 70
     1
102
RTVSPropertyOp37
 70
     1
102
RTVSPropertyOp38
 70
     1
102
RTVSPropertyOp39
 70
     1
102
RTVSPropertyOp40
 70
     1
102
RTVSPropertyOp41
 70
     1
102
RTVSPropertyOp42
 70
     1
102
RTVSPropertyOp43
 70
     1
102
RTVSPropertyOp44
 70
     1
102
RTVSPropertyOp45
 70
     1
102
RTVSPropertyOp46
 70
     1
102
RTVSPropertyOp47
 70
     1
102
RTVSPropertyOp48
 70
     1
102
RTVSPropertyOp49
 70
     1
102
RTVSPropertyOp50
 70
     1
102
RTVSPropertyOp51
 70
     0
102
RTVSPropertyOp52
 70
     0
102
RTVSPropertyOp53
 70
     1
102
RTVSPropertyOp54
 70
     1
102
RTVSPropertyOp55
 70
     1
102
RTVSPropertyOp56
 70
     1
102
RTVSPropertyOp57
 70
     1
102
RTVSPost2010Prop28
280
     0
102
RTVSPost2010PropOp28
 70
     1
102
RTVSPost2010Prop29
280
     1
102
RTVSPost2010PropOp29
 70
     1
102
RTVSPost2010Prop30
280
     1
102
RTVSPost2010PropOp30
 70
     1
102
RTVSPost2010Prop31
280
     0
102
RTVSPost2010PropOp31
 70
     1
102
RTVSPost2010Prop32
280
     0
102
RTVSPost2010PropOp32
 70
     1
102
RTVSPost2010Prop33
280
     0
102
RTVSPost2010PropOp33
 70
     1
102
RTVSPost2010Prop34
280
     0
102
RTVSPost2010PropOp34
 70
     1
102
RTVSPost2010Prop35
280
     0
102
RTVSPost2010PropOp35
 70
     1
102
RTVSPost2010Prop36
280
     0
102
RTVSPost2010PropOp36
 70
     1
102
RTVSPost2010Prop37
 90
       50
102
RTVSPost2010PropOp37
 70
     1
102
RTVSPost2010Prop38
140
0.0
102
RTVSPost2010PropOp38
 70
     1
102
RTVSPost2010Prop39
140
1.0
102
RTVSPost2010PropOp39
 70
     1
102
RTVSPost2010Prop40
 90
        0
102
RTVSPost2010PropOp40
 70
     1
102
RTVSPost2010Prop41ColorIndex
 90
       18
102
RTVSPost2010Prop41ColorRGB
 90
        0
102
RTVSPost2010PropOp41
 70
     1
102
RTVSPost2010Prop42
 90
       50
102
RTVSPost2010PropOp42
 70
     1
102
RTVSPost2010Prop43
 90
        3
102
RTVSPost2010PropOp43
 70
     1
102
RTVSPost2010Prop44ColorIndex
 90
        5
102
RTVSPost2010Prop44ColorRGB
 90
      255
102
RTVSPost2010PropOp44
 70
     1
102
RTVSPost2010Prop45
280
     0
102
RTVSPost2010PropOp45
 70
     1
102
RTVSPost2010Prop46
 90
       50
102
RTVSPost2010PropOp46
 70
     1
102
RTVSPost2010Prop47
 90
       50
102
RTVSPost2010PropOp47
 70
     1
102
RTVSPost2010Prop48
 90
       50
102
RTVSPost2010PropOp48
 70
     1
102
RTVSPost2010Prop49
280
     0
102
RTVSPost2010PropOp49
 70
     1
102
RTVSPost2010Prop50
 90
       50
102
RTVSPost2010PropOp50
 70
     1
102
RTVSPost2010Prop51ColorIndex
 90
      256
102
RTVSPost2010Prop51ColorRGB
 90
-16777216
102
RTVSPost2010PropOp51
 70
     0
102
RTVSPost2010Prop52
140
1.0
102
RTVSPost2010PropOp52
 70
     0
102
RTVSPost2010Prop53
 90
        2
102
RTVSPost2010PropOp53
 70
     1
102
RTVSPost2010Prop54
  1
strokes_ogs.tif
102
RTVSPost2010PropOp54
 70
     1
102
RTVSPost2010Prop55
280
     0
102
RTVSPost2010PropOp55
 70
     1
102
RTVSPost2010Prop56
140
1.0
102
RTVSPost2010PropOp56
 70
     1
102
RTVSPost2010Prop57
140
1.0
102
RTVSPost2010PropOp57
 70
     1
  0
XRECORD
  5
A3
102
{ACAD_REACTORS
330
A2
102
}
330
A2
100
AcDbXrecord
280
     1
102
RTVSPropertyOp0
 70
     1
102
RTVSPropertyOp1
 70
     1
102
RTVSPropertyOp2
 70
     1
102
RTVSPropertyOp3
 70
     1
102
RTVSPropertyOp4
 70
     1
102
RTVSPropertyOp5
 70
     1
102
RTVSPropertyOp6
 70
     1
102
RTVSPropertyOp7
 70
     1
102
RTVSPropertyOp8
 70
     1
102
RTVSPropertyOp9
 70
     1
102
RTVSPropertyOp10
 70
     1
102
RTVSPropertyOp11
 70
     1
102
RTVSPropertyOp12
 70
     1
102
RTVSPropertyOp13
 70
     1
102
RTVSPropertyOp14
 70
     1
102
RTVSPropertyOp15
 70
     1
102
RTVSPropertyOp16
 70
     1
102
RTVSPropertyOp17
 70
     1
102
RTVSPropertyOp18
 70
     1
102
RTVSPropertyOp19
 70
     1
102
RTVSPropertyOp20
 70
     1
102
RTVSPropertyOp21
 70
     1
102
RTVSPropertyOp22
 70
     1
102
RTVSPropertyOp23
 70
     1
102
RTVSPropertyOp24
 70
     1
102
RTVSPropertyOp25
 70
     1
102
RTVSPropertyOp26
 70
     1
102
RTVSPropertyOp27
 70
     1
102
RTVSPropertyOp28
 70
     1
102
RTVSPropertyOp29
 70
     1
102
RTVSPropertyOp30
 70
     1
102
RTVSPropertyOp31
 70
     1
102
RTVSPropertyOp32
 70
     1
102
RTVSPropertyOp33
 70
     1
102
RTVSPropertyOp34
 70
     1
102
RTVSPropertyOp35
 70
     1
102
RTVSPropertyOp36
 70
     1
102
RTVSPropertyOp37
 70
     1
102
RTVSPropertyOp38
 70
     1
102
RTVSPropertyOp39
 70
     1
102
RTVSPropertyOp40
 70
     1
102
RTVSPropertyOp41
 70
     1
102
RTVSPropertyOp42
 70
     1
102
RTVSPropertyOp43
 70
     1
102
RTVSPropertyOp44
 70
     1
102
RTVSPropertyOp45
 70
     1
102
RTVSPropertyOp46
 70
     1
102
RTVSPropertyOp47
 70
     1
102
RTVSPropertyOp48
 70
     1
102
RTVSPropertyOp49
 70
     1
102
RTVSPropertyOp50
 70
     1
102
RTVSPropertyOp51
 70
     0
102
RTVSPropertyOp52
 70
     0
102
RTVSPropertyOp53
 70
     1
102
RTVSPropertyOp54
 70
     1
102
RTVSPropertyOp55
 70
     1
102
RTVSPropertyOp56
 70
     1
102
RTVSPropertyOp57
 70
     1
102
RTVSPost2010Prop28
280
     0
102
RTVSPost2010PropOp28
 70
     1
102
RTVSPost2010Prop29
280
     1
102
RTVSPost2010PropOp29
 70
     1
102
RTVSPost2010Prop30
280
     1
102
RTVSPost2010PropOp30
 70
     1
102
RTVSPost2010Prop31
280
     0
102
RTVSPost2010PropOp31
 70
     1
102
RTVSPost2010Prop32
280
     0
102
RTVSPost2010PropOp32
 70
     1
102
RTVSPost2010Prop33
280
     0
102
RTVSPost2010PropOp33
 70
     1
102
RTVSPost2010Prop34
280
     0
102
RTVSPost2010PropOp34
 70
     1
102
RTVSPost2010Prop35
280
     0
102
RTVSPost2010PropOp35
 70
     1
102
RTVSPost2010Prop36
280
     0
102
RTVSPost2010PropOp36
 70
     1
102
RTVSPost2010Prop37
 90
       50
102
RTVSPost2010PropOp37
 70
     1
102
RTVSPost2010Prop38
140
0.0
102
RTVSPost2010PropOp38
 70
     1
102
RTVSPost2010Prop39
140
1.0
102
RTVSPost2010PropOp39
 70
     1
102
RTVSPost2010Prop40
 90
        0
102
RTVSPost2010PropOp40
 70
     1
102
RTVSPost2010Prop41ColorIndex
 90
       18
102
RTVSPost2010Prop41ColorRGB
 90
        0
102
RTVSPost2010PropOp41
 70
     1
102
RTVSPost2010Prop42
 90
       50
102
RTVSPost2010PropOp42
 70
     1
102
RTVSPost2010Prop43
 90
        3
102
RTVSPost2010PropOp43
 70
     1
102
RTVSPost2010Prop44ColorIndex
 90
        5
102
RTVSPost2010Prop44ColorRGB
 90
      255
102
RTVSPost2010PropOp44
 70
     1
102
RTVSPost2010Prop45
280
     0
102
RTVSPost2010PropOp45
 70
     1
102
RTVSPost2010Prop46
 90
       50
102
RTVSPost2010PropOp46
 70
     1
102
RTVSPost2010Prop47
 90
       50
102
RTVSPost2010PropOp47
 70
     1
102
RTVSPost2010Prop48
 90
       50
102
RTVSPost2010PropOp48
 70
     1
102
RTVSPost2010Prop49
280
     0
102
RTVSPost2010PropOp49
 70
     1
102
RTVSPost2010Prop50
 90
       50
102
RTVSPost2010PropOp50
 70
     1
102
RTVSPost2010Prop51ColorIndex
 90
      256
102
RTVSPost2010Prop51ColorRGB
 90
-16777216
102
RTVSPost2010PropOp51
 70
     0
102
RTVSPost2010Prop52
140
1.0
102
RTVSPost2010PropOp52
 70
     0
102
RTVSPost2010Prop53
 90
        2
102
RTVSPost2010PropOp53
 70
     1
102
RTVSPost2010Prop54
  1
strokes_ogs.tif
102
RTVSPost2010PropOp54
 70
     1
102
RTVSPost2010Prop55
280
     0
102
RTVSPost2010PropOp55
 70
     1
102
RTVSPost2010Prop56
140
1.0
102
RTVSPost2010PropOp56
 70
     1
102
RTVSPost2010Prop57
140
1.0
102
RTVSPost2010PropOp57
 70
     1
  0
XRECORD
  5
95
102
{ACAD_REACTORS
330
94
102
}
330
94
100
AcDbXrecord
280
     1
102
RTVSPropertyOp0
 70
     1
102
RTVSPropertyOp1
 70
     1
102
RTVSPropertyOp2
 70
     1
102
RTVSPropertyOp3
 70
     1
102
RTVSPropertyOp4
 70
     1
102
RTVSPropertyOp5
 70
     1
102
RTVSPropertyOp6
 70
     1
102
RTVSPropertyOp7
 70
     1
102
RTVSPropertyOp8
 70
     1
102
RTVSPropertyOp9
 70
     1
102
RTVSPropertyOp10
 70
     1
102
RTVSPropertyOp11
 70
     1
102
RTVSPropertyOp12
 70
     1
102
RTVSPropertyOp13
 70
     1
102
RTVSPropertyOp14
 70
     1
102
RTVSPropertyOp15
 70
     1
102
RTVSPropertyOp16
 70
     1
102
RTVSPropertyOp17
 70
     1
102
RTVSPropertyOp18
 70
     1
102
RTVSPropertyOp19
 70
     1
102
RTVSPropertyOp20
 70
     1
102
RTVSPropertyOp21
 70
     1
102
RTVSPropertyOp22
 70
     1
102
RTVSPropertyOp23
 70
     1
102
RTVSPropertyOp24
 70
     1
102
RTVSPropertyOp25
 70
     1
102
RTVSPropertyOp26
 70
     1
102
RTVSPropertyOp27
 70
     1
102
RTVSPropertyOp28
 70
     1
102
RTVSPropertyOp29
 70
     1
102
RTVSPropertyOp30
 70
     1
102
RTVSPropertyOp31
 70
     1
102
RTVSPropertyOp32
 70
     1
102
RTVSPropertyOp33
 70
     1
102
RTVSPropertyOp34
 70
     1
102
RTVSPropertyOp35
 70
     1
102
RTVSPropertyOp36
 70
     1
102
RTVSPropertyOp37
 70
     1
102
RTVSPropertyOp38
 70
     1
102
RTVSPropertyOp39
 70
     1
102
RTVSPropertyOp40
 70
     1
102
RTVSPropertyOp41
 70
     1
102
RTVSPropertyOp42
 70
     1
102
RTVSPropertyOp43
 70
     1
102
RTVSPropertyOp44
 70
     1
102
RTVSPropertyOp45
 70
     1
102
RTVSPropertyOp46
 70
     1
102
RTVSPropertyOp47
 70
     1
102
RTVSPropertyOp48
 70
     1
102
RTVSPropertyOp49
 70
     1
102
RTVSPropertyOp50
 70
     1
102
RTVSPropertyOp51
 70
     0
102
RTVSPropertyOp52
 70
     0
102
RTVSPropertyOp53
 70
     1
102
RTVSPropertyOp54
 70
     1
102
RTVSPropertyOp55
 70
     1
102
RTVSPropertyOp56
 70
     1
102
RTVSPropertyOp57
 70
     1
102
RTVSPost2010Prop28
280
     0
102
RTVSPost2010PropOp28
 70
     1
102
RTVSPost2010Prop29
280
     1
102
RTVSPost2010PropOp29
 70
     1
102
RTVSPost2010Prop30
280
     1
102
RTVSPost2010PropOp30
 70
     1
102
RTVSPost2010Prop31
280
     0
102
RTVSPost2010PropOp31
 70
     1
102
RTVSPost2010Prop32
280
     0
102
RTVSPost2010PropOp32
 70
     1
102
RTVSPost2010Prop33
280
     0
102
RTVSPost2010PropOp33
 70
     1
102
RTVSPost2010Prop34
280
     0
102
RTVSPost2010PropOp34
 70
     1
102
RTVSPost2010Prop35
280
     0
102
RTVSPost2010PropOp35
 70
     1
102
RTVSPost2010Prop36
280
     0
102
RTVSPost2010PropOp36
 70
     1
102
RTVSPost2010Prop37
 90
       50
102
RTVSPost2010PropOp37
 70
     1
102
RTVSPost2010Prop38
140
0.0
102
RTVSPost2010PropOp38
 70
     1
102
RTVSPost2010Prop39
140
1.0
102
RTVSPost2010PropOp39
 70
     1
102
RTVSPost2010Prop40
 90
        0
102
RTVSPost2010PropOp40
 70
     1
102
RTVSPost2010Prop41ColorIndex
 90
       18
102
RTVSPost2010Prop41ColorRGB
 90
        0
102
RTVSPost2010PropOp41
 70
     1
102
RTVSPost2010Prop42
 90
       50
102
RTVSPost2010PropOp42
 70
     1
102
RTVSPost2010Prop43
 90
        3
102
RTVSPost2010PropOp43
 70
     1
102
RTVSPost2010Prop44ColorIndex
 90
        5
102
RTVSPost2010Prop44ColorRGB
 90
      255
102
RTVSPost2010PropOp44
 70
     1
102
RTVSPost2010Prop45
280
     0
102
RTVSPost2010PropOp45
 70
     1
102
RTVSPost2010Prop46
 90
       50
102
RTVSPost2010PropOp46
 70
     1
102
RTVSPost2010Prop47
 90
       50
102
RTVSPost2010PropOp47
 70
     1
102
RTVSPost2010Prop48
 90
       50
102
RTVSPost2010PropOp48
 70
     1
102
RTVSPost2010Prop49
280
     0
102
RTVSPost2010PropOp49
 70
     1
102
RTVSPost2010Prop50
 90
       50
102
RTVSPost2010PropOp50
 70
     1
102
RTVSPost2010Prop51ColorIndex
 90
      256
102
RTVSPost2010Prop51ColorRGB
 90
-16777216
102
RTVSPost2010PropOp51
 70
     0
102
RTVSPost2010Prop52
140
1.0
102
RTVSPost2010PropOp52
 70
     0
102
RTVSPost2010Prop53
 90
        2
102
RTVSPost2010PropOp53
 70
     1
102
RTVSPost2010Prop54
  1
strokes_ogs.tif
102
RTVSPost2010PropOp54
 70
     1
102
RTVSPost2010Prop55
280
     0
102
RTVSPost2010PropOp55
 70
     1
102
RTVSPost2010Prop56
140
1.0
102
RTVSPost2010PropOp56
 70
     1
102
RTVSPost2010Prop57
140
1.0
102
RTVSPost2010PropOp57
 70
     1
  0
XRECORD
  5
B5
102
{ACAD_REACTORS
330
B4
102
}
330
B4
100
AcDbXrecord
280
     1
102
RTVSPropertyOp0
 70
     1
102
RTVSPropertyOp1
 70
     1
102
RTVSPropertyOp2
 70
     1
102
RTVSPropertyOp3
 70
     1
102
RTVSPropertyOp4
 70
     1
102
RTVSPropertyOp5
 70
     1
102
RTVSPropertyOp6
 70
     1
102
RTVSPropertyOp7
 70
     1
102
RTVSPropertyOp8
 70
     1
102
RTVSPropertyOp9
 70
     1
102
RTVSPropertyOp10
 70
     1
102
RTVSPropertyOp11
 70
     1
102
RTVSPropertyOp12
 70
     1
102
RTVSPropertyOp13
 70
     1
102
RTVSPropertyOp14
 70
     1
102
RTVSPropertyOp15
 70
     1
102
RTVSPropertyOp16
 70
     1
102
RTVSPropertyOp17
 70
     1
102
RTVSPropertyOp18
 70
     1
102
RTVSPropertyOp19
 70
     1
102
RTVSPropertyOp20
 70
     1
102
RTVSPropertyOp21
 70
     1
102
RTVSPropertyOp22
 70
     1
102
RTVSPropertyOp23
 70
     1
102
RTVSPropertyOp24
 70
     1
102
RTVSPropertyOp25
 70
     1
102
RTVSPropertyOp26
 70
     1
102
RTVSPropertyOp27
 70
     1
102
RTVSPropertyOp28
 70
     1
102
RTVSPropertyOp29
 70
     1
102
RTVSPropertyOp30
 70
     1
102
RTVSPropertyOp31
 70
     1
102
RTVSPropertyOp32
 70
     1
102
RTVSPropertyOp33
 70
     1
102
RTVSPropertyOp34
 70
     1
102
RTVSPropertyOp35
 70
     1
102
RTVSPropertyOp36
 70
     1
102
RTVSPropertyOp37
 70
     1
102
RTVSPropertyOp38
 70
     1
102
RTVSPropertyOp39
 70
     1
102
RTVSPropertyOp40
 70
     1
102
RTVSPropertyOp41
 70
     1
102
RTVSPropertyOp42
 70
     1
102
RTVSPropertyOp43
 70
     1
102
RTVSPropertyOp44
 70
     1
102
RTVSPropertyOp45
 70
     1
102
RTVSPropertyOp46
 70
     1
102
RTVSPropertyOp47
 70
     1
102
RTVSPropertyOp48
 70
     1
102
RTVSPropertyOp49
 70
     1
102
RTVSPropertyOp50
 70
     1
102
RTVSPropertyOp51
 70
     0
102
RTVSPropertyOp52
 70
     0
102
RTVSPropertyOp53
 70
     1
102
RTVSPropertyOp54
 70
     1
102
RTVSPropertyOp55
 70
     1
102
RTVSPropertyOp56
 70
     1
102
RTVSPropertyOp57
 70
     1
102
RTVSPost2010Prop28
280
     0
102
RTVSPost2010PropOp28
 70
     1
102
RTVSPost2010Prop29
280
     1
102
RTVSPost2010PropOp29
 70
     1
102
RTVSPost2010Prop30
280
     1
102
RTVSPost2010PropOp30
 70
     1
102
RTVSPost2010Prop31
280
     0
102
RTVSPost2010PropOp31
 70
     1
102
RTVSPost2010Prop32
280
     0
102
RTVSPost2010PropOp32
 70
     1
102
RTVSPost2010Prop33
280
     0
102
RTVSPost2010PropOp33
 70
     1
102
RTVSPost2010Prop34
280
     0
102
RTVSPost2010PropOp34
 70
     1
102
RTVSPost2010Prop35
280
     0
102
RTVSPost2010PropOp35
 70
     1
102
RTVSPost2010Prop36
280
     0
102
RTVSPost2010PropOp36
 70
     1
102
RTVSPost2010Prop37
 90
       50
102
RTVSPost2010PropOp37
 70
     1
102
RTVSPost2010Prop38
140
0.0
102
RTVSPost2010PropOp38
 70
     1
102
RTVSPost2010Prop39
140
1.0
102
RTVSPost2010PropOp39
 70
     1
102
RTVSPost2010Prop40
 90
        0
102
RTVSPost2010PropOp40
 70
     1
102
RTVSPost2010Prop41ColorIndex
 90
       18
102
RTVSPost2010Prop41ColorRGB
 90
        0
102
RTVSPost2010PropOp41
 70
     1
102
RTVSPost2010Prop42
 90
       50
102
RTVSPost2010PropOp42
 70
     1
102
RTVSPost2010Prop43
 90
        3
102
RTVSPost2010PropOp43
 70
     1
102
RTVSPost2010Prop44ColorIndex
 90
        5
102
RTVSPost2010Prop44ColorRGB
 90
      255
102
RTVSPost2010PropOp44
 70
     1
102
RTVSPost2010Prop45
280
     0
102
RTVSPost2010PropOp45
 70
     1
102
RTVSPost2010Prop46
 90
       50
102
RTVSPost2010PropOp46
 70
     1
102
RTVSPost2010Prop47
 90
       50
102
RTVSPost2010PropOp47
 70
     1
102
RTVSPost2010Prop48
 90
       50
102
RTVSPost2010PropOp48
 70
     1
102
RTVSPost2010Prop49
280
     0
102
RTVSPost2010PropOp49
 70
     1
102
RTVSPost2010Prop50
 90
       50
102
RTVSPost2010PropOp50
 70
     1
102
RTVSPost2010Prop51ColorIndex
 90
      256
102
RTVSPost2010Prop51ColorRGB
 90
-16777216
102
RTVSPost2010PropOp51
 70
     0
102
RTVSPost2010Prop52
140
1.0
102
RTVSPost2010PropOp52
 70
     0
102
RTVSPost2010Prop53
 90
        2
102
RTVSPost2010PropOp53
 70
     1
102
RTVSPost2010Prop54
  1
strokes_ogs.tif
102
RTVSPost2010PropOp54
 70
     1
102
RTVSPost2010Prop55
280
     0
102
RTVSPost2010PropOp55
 70
     1
102
RTVSPost2010Prop56
140
1.0
102
RTVSPost2010PropOp56
 70
     1
102
RTVSPost2010Prop57
140
1.0
102
RTVSPost2010PropOp57
 70
     1
  0
ENDSEC
  0
EOF
