  0
SECTION
  2
HEADER
  9
$ACADVER
  1
AC1009
  9
$DWGCODEPAGE
  3
ansi_1252
  9
$INSBASE
 10
0.0
 20
0.0
 30
0.0
  9
$EXTMIN
 10
25.656
 20
22.167
 30
0.0
  9
$EXTMAX
 10
1182.792
 20
2411.729833193583
 30
0.0
  9
$LIMMIN
 10
0.0
 20
0.0
  9
$LIMMAX
 10
12.0
 20
9.0
  9
$ORTHOMODE
 70
     0
  9
$REGENMODE
 70
     1
  9
$FILLMODE
 70
     1
  9
$QTEXTMODE
 70
     0
  9
$MIRRTEXT
 70
     1
  9
$DRAGMODE
 70
     2
  9
$LTSCALE
 40
1.0
  9
$OSMODE
 70
    37
  9
$ATTMODE
 70
     1
  9
$TEXTSIZE
 40
0.2
  9
$TRACEWID
 40
0.05
  9
$TEXTSTYLE
  7
STANDARD
  9
$CLAYER
  8
0
  9
$CELTYPE
  6
BYLAYER
  9
$CECOLOR
 62
   256
  9
$DIMSCALE
 40
1.0
  9
$DIMASZ
 40
0.18
  9
$DIMEXO
 40
0.0625
  9
$DIMDLI
 40
0.38
  9
$DIMRND
 40
0.0
  9
$DIMDLE
 40
0.0
  9
$DIMEXE
 40
0.18
  9
$DIMTP
 40
0.0
  9
$DIMTM
 40
0.0
  9
$DIMTXT
 40
0.18
  9
$DIMCEN
 40
0.09
  9
$DIMTSZ
 40
0.0
  9
$DIMTOL
 70
     0
  9
$DIMLIM
 70
     0
  9
$DIMTIH
 70
     1
  9
$DIMTOH
 70
     1
  9
$DIMSE1
 70
     0
  9
$DIMSE2
 70
     0
  9
$DIMTAD
 70
     0
  9
$DIMZIN
 70
     0
  9
$DIMBLK
  1

  9
$DIMASO
 70
     1
  9
$DIMSHO
 70
     1
  9
$DIMPOST
  1

  9
$DIMAPOST
  1

  9
$DIMALT
 70
     0
  9
$DIMALTD
 70
     2
  9
$DIMALTF
 40
25.4
  9
$DIMLFAC
 40
1.0
  9
$DIMTOFL
 70
     0
  9
$DIMTVP
 40
0.0
  9
$DIMTIX
 70
     0
  9
$DIMSOXD
 70
     0
  9
$DIMSAH
 70
     0
  9
$DIMBLK1
  1

  9
$DIMBLK2
  1

  9
$DIMSTYLE
  2
STANDARD
  9
$DIMCLRD
 70
     0
  9
$DIMCLRE
 70
     0
  9
$DIMCLRT
 70
     0
  9
$DIMTFAC
 40
1.0
  9
$DIMGAP
 40
0.09
  9
$LUNITS
 70
     2
  9
$LUPREC
 70
     4
  9
$SKETCHINC
 40
0.1
  9
$FILLETRAD
 40
0.5
  9
$AUNITS
 70
     0
  9
$AUPREC
 70
     0
  9
$MENU
  1
.
  9
$ELEVATION
 40
0.0
  9
$PELEVATION
 40
0.0
  9
$THICKNESS
 40
0.0
  9
$LIMCHECK
 70
     0
  9
$CHAMFERA
 40
0.0
  9
$CHAMFERB
 40
0.0
  9
$SKPOLY
 70
     0
  9
$TDCREATE
 40
2454910.5
  9
$TDUPDATE
 40
2459077.996527558
  9
$TDINDWG
 40
0.0000000116
  9
$TDUSRTIMER
 40
0.0000000116
  9
$USRTIMER
 70
     1
  9
$ANGBASE
 50
0.0
  9
$ANGDIR
 70
     0
  9
$PDMODE
 70
     0
  9
$PDSIZE
 40
0.0
  9
$PLINEWID
 40
0.0
  9
$COORDS
 70
     1
  9
$SPLFRAME
 70
     0
  9
$SPLINETYPE
 70
     6
  9
$SPLINESEGS
 70
     8
  9
$ATTDIA
 70
     0
  9
$ATTREQ
 70
     1
  9
$HANDLING
 70
     1
  9
$HANDSEED
  5
20F
  9
$SURFTAB1
 70
     6
  9
$SURFTAB2
 70
     6
  9
$SURFTYPE
 70
     6
  9
$SURFU
 70
     6
  9
$SURFV
 70
     6
  9
$UCSNAME
  2

  9
$UCSORG
 10
0.0
 20
0.0
 30
0.0
  9
$UCSXDIR
 10
1.0
 20
0.0
 30
0.0
  9
$UCSYDIR
 10
0.0
 20
1.0
 30
0.0
  9
$PUCSNAME
  2

  9
$PUCSORG
 10
0.0
 20
0.0
 30
0.0
  9
$PUCSXDIR
 10
1.0
 20
0.0
 30
0.0
  9
$PUCSYDIR
 10
0.0
 20
1.0
 30
0.0
  9
$USERI1
 70
     0
  9
$USERI2
 70
     0
  9
$USERI3
 70
     0
  9
$USERI4
 70
     0
  9
$USERI5
 70
     0
  9
$USERR1
 40
0.0
  9
$USERR2
 40
0.0
  9
$USERR3
 40
0.0
  9
$USERR4
 40
0.0
  9
$USERR5
 40
0.0
  9
$WORLDVIEW
 70
     1
  9
$SHADEDGE
 70
     3
  9
$SHADEDIF
 70
    70
  9
$TILEMODE
 70
     1
  9
$MAXACTVP
 70
    64
  9
$PLIMCHECK
 70
     0
  9
$PEXTMIN
 10
1.000000000000000E+20
 20
1.000000000000000E+20
 30
1.000000000000000E+20
  9
$PEXTMAX
 10
-1.000000000000000E+20
 20
-1.000000000000000E+20
 30
-1.000000000000000E+20
  9
$PLIMMIN
 10
0.0
 20
0.0
  9
$PLIMMAX
 10
12.0
 20
9.0
  9
$UNITMODE
 70
     0
  9
$VISRETAIN
 70
     1
  9
$PLINEGEN
 70
     0
  9
$PSLTSCALE
 70
     1
  0
ENDSEC
  0
SECTION
  2
TABLES
  0
TABLE
  2
VPORT
 70
     1
  0
VPORT
  2
*ACTIVE
 70
     0
 10
0.0
 20
0.0
 11
1.0
 21
1.0
 12
10.42990654205607
 22
4.5
 13
0.0
 23
0.0
 14
0.5
 24
0.5
 15
0.5
 25
0.5
 16
0.0
 26
0.0
 36
1.0
 17
0.0
 27
0.0
 37
0.0
 40
9.0
 41
1.972972972850329
 42
50.0
 43
0.0
 44
0.0
 50
0.0
 51
0.0
 71
     0
 72
   100
 73
     1
 74
     3
 75
     0
 76
     0
 77
     0
 78
     0
  0
ENDTAB
  0
TABLE
  2
LTYPE
 70
     2
  0
LTYPE
  2
CONTINUOUS
 70
     0
  3
Solid line
 72
    65
 73
     0
 40
0.0
  0
LTYPE
  2
CONTINUOUS2
 70
     0
  3
Solid Line
 72
    65
 73
     0
 40
0.0
  0
ENDTAB
  0
TABLE
  2
LAYER
 70
     1
  0
LAYER
  2
0
 70
     0
 62
     7
  6
CONTINUOUS
  0
ENDTAB
  0
TABLE
  2
STYLE
 70
     1
  0
STYLE
  2
STANDARD
 70
     0
 40
0.0
 41
1.0
 50
0.0
 71
     0
 42
0.2
  3
txt
  4

  0
ENDTAB
  0
TABLE
  2
VIEW
 70
     0
  0
ENDTAB
  0
TABLE
  2
UCS
 70
     0
  0
ENDTAB
  0
TABLE
  2
APPID
 70
     1
  0
APPID
  2
ACAD
 70
     0
  0
ENDTAB
  0
TABLE
  2
DIMSTYLE
 70
     1
  0
DIMSTYLE
  2
STANDARD
 70
     0
  3

  4

  5

  6

  7

 40
1.0
 41
0.18
 42
0.0625
 43
0.38
 44
0.18
 45
0.0
 46
0.0
 47
0.0
 48
0.0
140
0.18
141
0.09
142
0.0
143
25.4
144
1.0
145
0.0
146
1.0
147
0.09
 71
     0
 72
     0
 73
     1
 74
     1
 75
     0
 76
     0
 77
     0
 78
     0
170
     0
171
     2
172
     0
173
     0
174
     0
175
     0
176
     0
177
     0
178
     0
  0
ENDTAB
  0
ENDSEC
  0
SECTION
  2
BLOCKS
  0
BLOCK
  8
0
  2
$MODEL_SPACE
 70
     0
 10
0.0
 20
0.0
 30
0.0
  3
$MODEL_SPACE
  1

  0
ENDBLK
  5
21
  8
0
  0
BLOCK
 67
     1
  8
0
  2
$PAPER_SPACE
 70
     0
 10
0.0
 20
0.0
 30
0.0
  3
$PAPER_SPACE
  1

  0
ENDBLK
  5
1D
 67
     1
  8
0
  0
ENDSEC
  0
SECTION
  2
ENTITIES
  0
POLYLINE
  5
6F
  8
0
 66
     1
 10
0.0
 20
0.0
 30
0.0
 70
     1
  0
VERTEX
  5
93
  8
0
 10
405.2774334785736
 20
2093.790907920015
 30
0.0
  0
VERTEX
  5
94
  8
0
 10
357.8569816546797
 20
2093.790908043113
 30
0.0
  0
VERTEX
  5
95
  8
0
 10
357.8569816546797
 20
2275.790904049602
 30
0.0
 42
-0.3333333333333332
  0
VERTEX
  5
96
  8
0
 10
357.8569816546797
 20
1375.790904049602
 30
0.0
  0
VERTEX
  5
97
  8
0
 10
357.8569816546795
 20
1557.790900056091
 30
0.0
  0
VERTEX
  5
98
  8
0
 10
405.2774334785736
 20
1557.790900179188
 30
0.0
 42
0.4142135623731005
  0
VERTEX
  5
99
  8
0
 10
409.5200741656927
 20
1557.790900201214
 30
0.0
 42
0.4142135623730954
  0
VERTEX
  5
9A
  8
0
 10
409.5200741491729
 20
1562.033540882827
 30
0.0
  0
VERTEX
  5
9B
  8
0
 10
409.5200741546794
 20
1571.548259503082
 30
0.0
 42
1.0
  0
VERTEX
  5
9C
  8
0
 10
405.2774334730669
 20
1575.790900195708
 30
0.0
  0
VERTEX
  5
9D
  8
0
 10
357.8569816546795
 20
1575.790900324311
 30
0.0
  0
VERTEX
  5
9E
  8
0
 10
357.8569816546797
 20
1807.790904049602
 30
0.0
  0
VERTEX
  5
9F
  8
0
 10
428.6143409675602
 20
1807.790904049602
 30
0.0
 42
0.4142135623730956
  0
VERTEX
  5
A0
  8
0
 10
432.8569816546795
 20
1807.790904049602
 30
0.0
 42
0.4142135623730932
  0
VERTEX
  5
A1
  8
0
 10
432.8569816546795
 20
1812.033544736721
 30
0.0
  0
VERTEX
  5
A2
  8
0
 10
432.8569816546795
 20
1821.548263362482
 30
0.0
 42
0.4142135623730954
  0
VERTEX
  5
A3
  8
0
 10
432.8569816546795
 20
1825.790904049602
 30
0.0
 42
0.414213562373096
  0
VERTEX
  5
A4
  8
0
 10
428.6143409675602
 20
1825.790904049602
 30
0.0
  0
VERTEX
  5
A5
  8
0
 10
357.8569816546797
 20
1825.790904049602
 30
0.0
  0
VERTEX
  5
A6
  8
0
 10
357.8569816546797
 20
2075.790907774892
 30
0.0
  0
VERTEX
  5
A7
  8
0
 10
405.2774334785736
 20
2075.790907897989
 30
0.0
 42
0.9999999894632943
  0
VERTEX
  5
A8
  8
0
 10
409.5200741715249
 20
2080.033548579276
 30
0.0
  0
VERTEX
  5
A9
  8
0
 10
409.5200741546797
 20
2089.548267221883
 30
0.0
 42
0.9999999999999917
  0
SEQEND
  5
1F2
  8
0
  0
POLYLINE
  5
70
  8
0
 66
     1
 10
0.0
 20
0.0
 30
0.0
 70
     1
  0
VERTEX
  5
AA
  8
0
 10
151.8022355301334
 20
1168.955971770619
 30
0.0
  0
VERTEX
  5
AB
  8
0
 10
102.0895631619667
 20
1168.955971715333
 30
0.0
  0
VERTEX
  5
AC
  8
0
 10
102.0895631619667
 20
1330.955964567132
 30
0.0
 42
-0.3415384615384678
  0
VERTEX
  5
AD
  8
0
 10
102.0895631619665
 20
30.95596456713213
 30
0.0
  0
VERTEX
  5
AE
  8
0
 10
102.0895631619665
 20
192.9559572953654
 30
0.0
  0
VERTEX
  5
AF
  8
0
 10
151.8022354853927
 20
192.9559574189307
 30
0.0
 42
0.9999999975144289
  0
VERTEX
  5
B0
  8
0
 10
156.0448761619665
 20
197.1985981165956
 30
0.0
  0
VERTEX
  5
B1
  8
0
 10
156.0448761619665
 20
206.7133167423567
 30
0.0
 42
0.9999999975144038
  0
VERTEX
  5
B2
  8
0
 10
151.8022354853926
 20
210.9559574400215
 30
0.0
  0
VERTEX
  5
B3
  8
0
 10
102.0895631619664
 20
210.9559575635863
 30
0.0
  0
VERTEX
  5
B4
  8
0
 10
102.0895631619665
 20
412.9559605736208
 30
0.0
  0
VERTEX
  5
B5
  8
0
 10
192.8226395640433
 20
412.95596248118
 30
0.0
 42
0.9999999789762897
  0
VERTEX
  5
B6
  8
0
 10
197.0652801619665
 20
417.1986032574954
 30
0.0
  0
VERTEX
  5
B7
  8
0
 10
197.0652801619665
 20
426.7133218832574
 30
0.0
 42
0.9999999789761554
  0
VERTEX
  5
B8
  8
0
 10
192.8226395640438
 20
430.9559626595733
 30
0.0
  0
VERTEX
  5
B9
  8
0
 10
102.0895631619664
 20
430.955964567132
 30
0.0
  0
VERTEX
  5
BA
  8
0
 10
102.0895631619665
 20
662.955964567132
 30
0.0
  0
VERTEX
  5
BB
  8
0
 10
209.3469224748472
 20
662.955964567132
 30
0.0
 42
0.4142135623730981
  0
VERTEX
  5
BC
  8
0
 10
213.5895631619665
 20
662.9559645671319
 30
0.0
 42
0.4142135623730958
  0
VERTEX
  5
BD
  8
0
 10
213.5895631619665
 20
667.1986052542512
 30
0.0
  0
VERTEX
  5
BE
  8
0
 10
213.5895631619665
 20
676.7133238800127
 30
0.0
 42
0.4142135623731014
  0
VERTEX
  5
BF
  8
0
 10
213.5895631619665
 20
680.955964567132
 30
0.0
 42
0.4142135623731
  0
VERTEX
  5
C0
  8
0
 10
209.3469224748472
 20
680.955964567132
 30
0.0
  0
VERTEX
  5
C1
  8
0
 10
102.0895631619665
 20
680.955964567132
 30
0.0
  0
VERTEX
  5
C2
  8
0
 10
102.0895631619666
 20
930.9559685606431
 30
0.0
  0
VERTEX
  5
C3
  8
0
 10
192.822639564044
 20
930.9559661854578
 30
0.0
 42
0.9999998350974444
  0
VERTEX
  5
C4
  8
0
 10
197.0652801939267
 20
935.1986069298136
 30
0.0
  0
VERTEX
  5
C5
  8
0
 10
197.0652801718228
 20
944.7133259758208
 30
0.0
 42
0.9999998874563586
  0
VERTEX
  5
C6
  8
0
 10
192.8226399424734
 20
948.9559671207098
 30
0.0
  0
VERTEX
  5
C7
  8
0
 10
102.0895631619666
 20
948.9559666530838
 30
0.0
  0
VERTEX
  5
C8
  8
0
 10
102.0895631619666
 20
1150.955971838899
 30
0.0
  0
VERTEX
  5
C9
  8
0
 10
151.8022354853928
 20
1150.955971704788
 30
0.0
 42
0.4142135624790244
  0
VERTEX
  5
CA
  8
0
 10
156.0448761732792
 20
1150.955971726646
 30
0.0
 42
0.4142135624790217
  0
VERTEX
  5
CB
  8
0
 10
156.0448761498869
 20
1155.198612414532
 30
0.0
  0
VERTEX
  5
CC
  8
0
 10
156.0448761582414
 20
1164.713331024489
 30
0.0
 42
0.9999999878470456
  0
SEQEND
  5
1F3
  8
0
  0
POLYLINE
  5
71
  8
0
 66
     1
 10
0.0
 20
0.0
 30
0.0
 70
     1
  0
VERTEX
  5
CD
  8
0
 10
525.8600296119386
 20
312.8839686906706
 30
0.0
  0
VERTEX
  5
CE
  8
0
 10
596.6173889324049
 20
312.8839685641463
 30
0.0
  0
VERTEX
  5
CF
  8
0
 10
596.6173889324051
 20
50.88397583591314
 30
0.0
 42
-0.3333333333333335
  0
VERTEX
  5
D0
  8
0
 10
596.617388932405
 20
1550.883975835913
 30
0.0
  0
VERTEX
  5
D1
  8
0
 10
596.6173889324048
 20
1288.883982839459
 30
0.0
  0
VERTEX
  5
D2
  8
0
 10
525.860029056937
 20
1288.883982410983
 30
0.0
 42
0.4142136006878423
  0
VERTEX
  5
D3
  8
0
 10
521.6173880923179
 20
1288.883983243482
 30
0.0
 42
0.4142136006878339
  0
VERTEX
  5
D4
  8
0
 10
521.617387814818
 20
1284.641342278863
 30
0.0
  0
VERTEX
  5
D5
  8
0
 10
521.617387814818
 20
1275.126623653102
 30
0.0
 42
0.4142136367806096
  0
VERTEX
  5
D6
  8
0
 10
521.617388353725
 20
1270.883982427076
 30
0.0
 42
0.4142136367806172
  0
VERTEX
  5
D7
  8
0
 10
525.8600295797507
 20
1270.883984043797
 30
0.0
  0
VERTEX
  5
D8
  8
0
 10
596.6173889324048
 20
1270.883982965983
 30
0.0
  0
VERTEX
  5
D9
  8
0
 10
596.617388932405
 20
1068.883979561203
 30
0.0
  0
VERTEX
  5
DA
  8
0
 10
489.8951711143968
 20
1068.883979706813
 30
0.0
 42
0.9999999918771239
  0
VERTEX
  5
DB
  8
0
 10
485.6525304363242
 20
1064.641339010647
 30
0.0
  0
VERTEX
  5
DC
  8
0
 10
485.6525304336137
 20
1055.126620378514
 30
0.0
 42
0.9999999939486912
  0
VERTEX
  5
DD
  8
0
 10
489.8951710926423
 20
1050.883979663304
 30
0.0
  0
VERTEX
  5
DE
  8
0
 10
596.617388932405
 20
1050.883979690186
 30
0.0
  0
VERTEX
  5
DF
  8
0
 10
596.617388932405
 20
818.8839758359129
 30
0.0
  0
VERTEX
  5
E0
  8
0
 10
475.8600296195244
 20
818.8839758359129
 30
0.0
 42
0.4142135623730964
  0
VERTEX
  5
E1
  8
0
 10
471.6173889324051
 20
818.8839758359129
 30
0.0
 42
0.4142135623730961
  0
VERTEX
  5
E2
  8
0
 10
471.6173889324052
 20
814.6413351487937
 30
0.0
  0
VERTEX
  5
E3
  8
0
 10
471.6173889324052
 20
805.1266165230322
 30
0.0
 42
0.414213562373091
  0
VERTEX
  5
E4
  8
0
 10
471.6173889324051
 20
800.8839758359129
 30
0.0
 42
0.4142135623730946
  0
VERTEX
  5
E5
  8
0
 10
475.8600296195244
 20
800.8839758359129
 30
0.0
  0
VERTEX
  5
E6
  8
0
 10
596.617388932405
 20
800.883975835913
 30
0.0
  0
VERTEX
  5
E7
  8
0
 10
596.617388932405
 20
550.8839721106227
 30
0.0
  0
VERTEX
  5
E8
  8
0
 10
489.8951711143968
 20
550.8839719816399
 30
0.0
 42
0.9999999987914356
  0
VERTEX
  5
E9
  8
0
 10
485.6525304324051
 20
546.641331289393
 30
0.0
  0
VERTEX
  5
EA
  8
0
 10
485.6525304324051
 20
537.1266126636315
 30
0.0
 42
0.999999998791429
  0
VERTEX
  5
EB
  8
0
 10
489.8951711143969
 20
532.8839719713847
 30
0.0
  0
VERTEX
  5
EC
  8
0
 10
596.617388932405
 20
532.8839718424017
 30
0.0
  0
VERTEX
  5
ED
  8
0
 10
596.617388932405
 20
330.8839688323672
 30
0.0
  0
VERTEX
  5
EE
  8
0
 10
525.860029611938
 20
330.8839687058434
 30
0.0
 42
0.9999999982118699
  0
VERTEX
  5
EF
  8
0
 10
521.6173889324051
 20
326.6413280111376
 30
0.0
  0
VERTEX
  5
F0
  8
0
 10
521.6173889324051
 20
317.1266093853759
 30
0.0
 42
0.9999999982119938
  0
SEQEND
  5
1F4
  8
0
  0
POLYLINE
  5
72
  8
0
 66
     1
 10
0.0
 20
0.0
 30
0.0
 70
     1
  0
VERTEX
  5
F1
  8
0
 10
276.7380643796016
 20
1273.729825990095
 30
0.0
  0
VERTEX
  5
F2
  8
0
 10
326.4507367477683
 20
1273.729826045382
 30
0.0
  0
VERTEX
  5
F3
  8
0
 10
326.4507367477681
 20
1111.729833193583
 30
0.0
 42
-0.341538461538468
  0
VERTEX
  5
F4
  8
0
 10
326.4507367477684
 20
2411.729833193583
 30
0.0
  0
VERTEX
  5
F5
  8
0
 10
326.4507367477684
 20
2249.729840465349
 30
0.0
  0
VERTEX
  5
F6
  8
0
 10
276.7380644243422
 20
2249.729840341784
 30
0.0
 42
0.999999997514409
  0
VERTEX
  5
F7
  8
0
 10
272.4954237477683
 20
2245.487199644119
 30
0.0
  0
VERTEX
  5
F8
  8
0
 10
272.4954237477684
 20
2235.972481018358
 30
0.0
 42
0.9999999975144238
  0
VERTEX
  5
F9
  8
0
 10
276.7380644243423
 20
2231.729840320693
 30
0.0
  0
VERTEX
  5
FA
  8
0
 10
326.4507367477684
 20
2231.729840197128
 30
0.0
  0
VERTEX
  5
FB
  8
0
 10
326.4507367477684
 20
2029.729837187094
 30
0.0
  0
VERTEX
  5
FC
  8
0
 10
235.7176603456916
 20
2029.729835279535
 30
0.0
 42
0.9999999789762897
  0
VERTEX
  5
FD
  8
0
 10
231.4750197477684
 20
2025.487194503219
 30
0.0
  0
VERTEX
  5
FE
  8
0
 10
231.4750197477684
 20
2015.972475877457
 30
0.0
 42
0.9999999789761554
  0
VERTEX
  5
FF
  8
0
 10
235.7176603456911
 20
2011.729835101141
 30
0.0
  0
VERTEX
  5
100
  8
0
 10
326.4507367477684
 20
2011.729833193583
 30
0.0
  0
VERTEX
  5
101
  8
0
 10
326.4507367477684
 20
1779.729833193583
 30
0.0
  0
VERTEX
  5
102
  8
0
 10
219.1933774348877
 20
1779.729833193582
 30
0.0
 42
0.4142135623730981
  0
VERTEX
  5
103
  8
0
 10
214.9507367477684
 20
1779.729833193583
 30
0.0
 42
0.4142135623730958
  0
VERTEX
  5
104
  8
0
 10
214.9507367477684
 20
1775.487192506463
 30
0.0
  0
VERTEX
  5
105
  8
0
 10
214.9507367477684
 20
1765.972473880702
 30
0.0
 42
0.4142135623731014
  0
VERTEX
  5
106
  8
0
 10
214.9507367477684
 20
1761.729833193582
 30
0.0
 42
0.4142135623731
  0
VERTEX
  5
107
  8
0
 10
219.1933774348877
 20
1761.729833193582
 30
0.0
  0
VERTEX
  5
108
  8
0
 10
326.4507367477684
 20
1761.729833193583
 30
0.0
  0
VERTEX
  5
109
  8
0
 10
326.4507367477684
 20
1511.729829200071
 30
0.0
  0
VERTEX
  5
10A
  8
0
 10
235.717660345691
 20
1511.729831575257
 30
0.0
 42
0.9999998350974444
  0
VERTEX
  5
10B
  8
0
 10
231.4750197158082
 20
1507.487190830901
 30
0.0
  0
VERTEX
  5
10C
  8
0
 10
231.4750197379121
 20
1497.972471784894
 30
0.0
 42
0.9999998874563586
  0
VERTEX
  5
10D
  8
0
 10
235.7176599672616
 20
1493.729830640005
 30
0.0
  0
VERTEX
  5
10E
  8
0
 10
326.4507367477684
 20
1493.729831107631
 30
0.0
  0
VERTEX
  5
10F
  8
0
 10
326.4507367477684
 20
1291.729825921816
 30
0.0
  0
VERTEX
  5
110
  8
0
 10
276.7380644243422
 20
1291.729826055927
 30
0.0
 42
0.4142135624790152
  0
VERTEX
  5
111
  8
0
 10
272.4954237364558
 20
1291.729826034069
 30
0.0
 42
0.414213562479015
  0
VERTEX
  5
112
  8
0
 10
272.4954237598481
 20
1287.487185346182
 30
0.0
  0
VERTEX
  5
113
  8
0
 10
272.4954237514936
 20
1277.972466736226
 30
0.0
 42
0.9999999878470557
  0
SEQEND
  5
1F5
  8
0
  0
POLYLINE
  5
73
  8
0
 66
     1
 10
0.0
 20
0.0
 30
0.0
 70
     1
  0
VERTEX
  5
114
  8
0
 10
792.5209201785002
 20
1540.980169085696
 30
0.0
 42
0.4142135623730928
  0
VERTEX
  5
115
  8
0
 10
796.7635608656198
 20
1540.980169085696
 30
0.0
 42
0.4142135623731031
  0
VERTEX
  5
116
  8
0
 10
796.7635608656198
 20
1545.222809772816
 30
0.0
  0
VERTEX
  5
117
  8
0
 10
796.7635608656198
 20
1554.737528398577
 30
0.0
 42
0.4142135623730976
  0
VERTEX
  5
118
  8
0
 10
796.7635608656198
 20
1558.980169085696
 30
0.0
 42
0.4142135623731016
  0
VERTEX
  5
119
  8
0
 10
792.5209201785002
 20
1558.980169085696
 30
0.0
  0
VERTEX
  5
11A
  8
0
 10
741.5867810434894
 20
1558.980169085696
 30
0.0
 42
-0.0821431659975442
  0
VERTEX
  5
11B
  8
0
 10
698.7475628096728
 20
1799.980172945098
 30
0.0
  0
VERTEX
  5
11C
  8
0
 10
769.4509201784132
 20
1799.980172945098
 30
0.0
 42
0.9999999999999978
  0
VERTEX
  5
11D
  8
0
 10
773.6935608655327
 20
1804.222813632217
 30
0.0
  0
VERTEX
  5
11E
  8
0
 10
773.6935608655327
 20
1813.737532257978
 30
0.0
 42
0.4142135623730931
  0
VERTEX
  5
11F
  8
0
 10
773.6935608655327
 20
1817.980172945098
 30
0.0
 42
0.4142135623730956
  0
VERTEX
  5
120
  8
0
 10
769.4509201784136
 20
1817.980172945098
 30
0.0
  0
VERTEX
  5
121
  8
0
 10
698.7475628096728
 20
1817.980172945098
 30
0.0
 42
-0.0821431659975441
  0
VERTEX
  5
122
  8
0
 10
741.5867810434894
 20
2058.980176804499
 30
0.0
  0
VERTEX
  5
123
  8
0
 10
792.5209201785007
 20
2058.980176804499
 30
0.0
 42
0.9999999999999949
  0
VERTEX
  5
124
  8
0
 10
796.7635608656198
 20
2063.222817491618
 30
0.0
  0
VERTEX
  5
125
  8
0
 10
796.7635608656198
 20
2072.737536117379
 30
0.0
 42
1.0
  0
VERTEX
  5
126
  8
0
 10
792.5209201785007
 20
2076.980176804499
 30
0.0
  0
VERTEX
  5
127
  8
0
 10
748.2108716209228
 20
2076.980176804499
 30
0.0
 42
-0.0696347136598391
  0
VERTEX
  5
128
  8
0
 10
848.6935608655332
 20
2258.980172945097
 30
0.0
  0
VERTEX
  5
129
  8
0
 10
848.6935608655327
 20
1358.980172945098
 30
0.0
 42
-0.0696347136598402
  0
VERTEX
  5
12A
  8
0
 10
748.2108716209224
 20
1540.980169085696
 30
0.0
  0
SEQEND
  5
1F6
  8
0
  0
POLYLINE
  5
74
  8
0
 66
     1
 10
0.0
 20
0.0
 30
0.0
 70
     1
  0
VERTEX
  5
12B
  8
0
 10
1056.701428910682
 20
219.8868887932139
 30
0.0
 42
0.4142135623730894
  0
VERTEX
  5
12C
  8
0
 10
1060.944069597802
 20
219.8868887932139
 30
0.0
 42
0.4142135623731054
  0
VERTEX
  5
12D
  8
0
 10
1060.944069597802
 20
224.1295294803332
 30
0.0
  0
VERTEX
  5
12E
  8
0
 10
1060.944069597802
 20
233.6442481060943
 30
0.0
 42
0.9999999999999984
  0
VERTEX
  5
12F
  8
0
 10
1056.701428910682
 20
237.8868887932139
 30
0.0
  0
VERTEX
  5
130
  8
0
 10
1002.497144478189
 20
237.8868887932134
 30
0.0
 42
-0.0508473184512637
  0
VERTEX
  5
131
  8
0
 10
927.2519590327071
 20
439.8868885696965
 30
0.0
  0
VERTEX
  5
132
  8
0
 10
1015.656928909426
 20
439.8868885696965
 30
0.0
 42
0.9999999999999933
  0
VERTEX
  5
133
  8
0
 10
1019.899569596545
 20
444.129529256816
 30
0.0
  0
VERTEX
  5
134
  8
0
 10
1019.899569596545
 20
453.6442478825774
 30
0.0
 42
0.4142135623730976
  0
VERTEX
  5
135
  8
0
 10
1019.899569596545
 20
457.8868885696965
 30
0.0
 42
0.414213562373109
  0
VERTEX
  5
136
  8
0
 10
1015.656928909426
 20
457.8868885696965
 30
0.0
  0
VERTEX
  5
137
  8
0
 10
922.7278810283652
 20
457.8868885696965
 30
0.0
 42
-0.0573210687501339
  0
VERTEX
  5
138
  8
0
 10
892.9376851802004
 20
698.8868924290967
 30
0.0
  0
VERTEX
  5
139
  8
0
 10
999.656928909426
 20
698.8868924290967
 30
0.0
 42
0.9999999999999305
  0
VERTEX
  5
13A
  8
0
 10
1003.899569596545
 20
703.1295331162163
 30
0.0
  0
VERTEX
  5
13B
  8
0
 10
1003.899569596545
 20
712.6442517419777
 30
0.0
 42
0.4142135623730976
  0
VERTEX
  5
13C
  8
0
 10
1003.899569596545
 20
716.8868924290967
 30
0.0
 42
0.4142135623730958
  0
VERTEX
  5
13D
  8
0
 10
999.6569289094256
 20
716.8868924290967
 30
0.0
  0
VERTEX
  5
13E
  8
0
 10
892.9376851802
 20
716.8868924290972
 30
0.0
 42
-0.0573210687501339
  0
VERTEX
  5
13F
  8
0
 10
922.7278810283648
 20
957.8868962884974
 30
0.0
  0
VERTEX
  5
140
  8
0
 10
1015.656928909426
 20
957.8868962884974
 30
0.0
 42
0.414213562373097
  0
VERTEX
  5
141
  8
0
 10
1019.899569596545
 20
957.8868962884974
 30
0.0
 42
0.4142135623730875
  0
VERTEX
  5
142
  8
0
 10
1019.899569596545
 20
962.1295369756169
 30
0.0
  0
VERTEX
  5
143
  8
0
 10
1019.899569596545
 20
971.6442556013783
 30
0.0
 42
0.9999999999999967
  0
VERTEX
  5
144
  8
0
 10
1015.656928909426
 20
975.8868962884974
 30
0.0
  0
VERTEX
  5
145
  8
0
 10
927.2519590327071
 20
975.8868962884978
 30
0.0
 42
-0.050847318451264
  0
VERTEX
  5
146
  8
0
 10
1002.497144478188
 20
1177.88689606498
 30
0.0
  0
VERTEX
  5
147
  8
0
 10
1056.701428910682
 20
1177.88689606498
 30
0.0
 42
0.4142135623730894
  0
VERTEX
  5
148
  8
0
 10
1060.944069597801
 20
1177.88689606498
 30
0.0
 42
0.4142135623731054
  0
VERTEX
  5
149
  8
0
 10
1060.944069597801
 20
1182.1295367521
 30
0.0
  0
VERTEX
  5
14A
  8
0
 10
1060.944069597801
 20
1191.644255377861
 30
0.0
 42
0.9999999999999998
  0
VERTEX
  5
14B
  8
0
 10
1056.701428910682
 20
1195.88689606498
 30
0.0
  0
VERTEX
  5
14C
  8
0
 10
1011.587923161213
 20
1195.886896064981
 30
0.0
 42
-0.0452986178585649
  0
VERTEX
  5
14D
  8
0
 10
1114.899569596545
 20
1357.886892429097
 30
0.0
  0
VERTEX
  5
14E
  8
0
 10
1114.899569596545
 20
57.88689242909721
 30
0.0
 42
-0.0452986178585642
  0
VERTEX
  5
14F
  8
0
 10
1011.587923161213
 20
219.8868887932136
 30
0.0
  0
SEQEND
  5
1F7
  8
0
  0
POLYLINE
  5
75
  8
0
 66
     1
 10
0.0
 20
0.0
 30
0.0
 70
     1
  0
VERTEX
  5
150
  8
0
 10
704.8909186948184
 20
1287.870184321998
 30
0.0
 42
0.9999999596012952
  0
VERTEX
  5
151
  8
0
 10
700.6482781790963
 20
1283.627543463482
 30
0.0
  0
VERTEX
  5
152
  8
0
 10
700.6482781790965
 20
1274.112828473603
 30
0.0
 42
0.4142135623731025
  0
VERTEX
  5
153
  8
0
 10
700.6482781790963
 20
1269.870187786484
 30
0.0
 42
0.4142135623731132
  0
VERTEX
  5
154
  8
0
 10
704.8909188662157
 20
1269.870187786484
 30
0.0
  0
VERTEX
  5
155
  8
0
 10
783.9228555493634
 20
1269.870187786483
 30
0.0
 42
-0.0423748935009374
  0
VERTEX
  5
156
  8
0
 10
846.5807089904885
 20
1067.870183018112
 30
0.0
  0
VERTEX
  5
157
  8
0
 10
740.8909206742738
 20
1067.870183018112
 30
0.0
 42
0.4142135623730822
  0
VERTEX
  5
158
  8
0
 10
736.6482799871545
 20
1067.870183018112
 30
0.0
 42
0.4142135623731037
  0
VERTEX
  5
159
  8
0
 10
736.6482799871545
 20
1063.627542330993
 30
0.0
  0
VERTEX
  5
15A
  8
0
 10
736.6482799871545
 20
1054.112823705232
 30
0.0
 42
0.9999999999999933
  0
VERTEX
  5
15B
  8
0
 10
740.8909206742738
 20
1049.870183018112
 30
0.0
  0
VERTEX
  5
15C
  8
0
 10
850.3931498018536
 20
1049.870183018112
 30
0.0
 42
-0.048577621322129
  0
VERTEX
  5
15D
  8
0
 10
875.6158777591819
 20
808.8701841506008
 30
0.0
  0
VERTEX
  5
15E
  8
0
 10
754.8909188662159
 20
808.870184150601
 30
0.0
 42
0.9999999999999974
  0
VERTEX
  5
15F
  8
0
 10
750.6482781790967
 20
804.6275434634816
 30
0.0
  0
VERTEX
  5
160
  8
0
 10
750.6482781790967
 20
795.1128248377202
 30
0.0
 42
0.9999999999999969
  0
VERTEX
  5
161
  8
0
 10
754.8909188662159
 20
790.870184150601
 30
0.0
  0
VERTEX
  5
162
  8
0
 10
875.6158777591809
 20
790.8701841506006
 30
0.0
 42
-0.0485776213221316
  0
VERTEX
  5
163
  8
0
 10
850.3931498018538
 20
549.8701852830891
 30
0.0
  0
VERTEX
  5
164
  8
0
 10
740.890920674274
 20
549.8701852830891
 30
0.0
 42
1.0
  0
VERTEX
  5
165
  8
0
 10
736.6482799871548
 20
545.6275445959698
 30
0.0
  0
VERTEX
  5
166
  8
0
 10
736.6482799871548
 20
536.1128259702084
 30
0.0
 42
0.4142135623730959
  0
VERTEX
  5
167
  8
0
 10
736.6482799871548
 20
531.8701852830891
 30
0.0
 42
0.4142135623730652
  0
VERTEX
  5
168
  8
0
 10
740.890920674274
 20
531.8701852830891
 30
0.0
  0
VERTEX
  5
169
  8
0
 10
846.5807089904877
 20
531.8701852830904
 30
0.0
 42
-0.0423748935009399
  0
VERTEX
  5
16A
  8
0
 10
783.9228555493632
 20
329.8701805147174
 30
0.0
  0
VERTEX
  5
16B
  8
0
 10
704.890918866216
 20
329.8701805147174
 30
0.0
 42
0.4142135623730739
  0
VERTEX
  5
16C
  8
0
 10
700.6482781790966
 20
329.8701805147174
 30
0.0
 42
0.4142135623730981
  0
VERTEX
  5
16D
  8
0
 10
700.6482781790967
 20
325.6275398275981
 30
0.0
  0
VERTEX
  5
16E
  8
0
 10
700.6482781790967
 20
316.1128212018367
 30
0.0
 42
0.4142135623730981
  0
VERTEX
  5
16F
  8
0
 10
700.6482781790967
 20
311.8701805147174
 30
0.0
 42
0.4142140643834663
  0
VERTEX
  5
170
  8
0
 10
704.8909225020931
 20
311.8701841506007
 30
0.0
  0
VERTEX
  5
171
  8
0
 10
776.4549504794472
 20
311.8701810881108
 30
0.0
 42
-0.0606830919871755
  0
VERTEX
  5
172
  8
0
 10
625.6482781790966
 20
49.87018415060084
 30
0.0
  0
VERTEX
  5
173
  8
0
 10
625.6482781790969
 20
1549.8701841506
 30
0.0
 42
-0.0606830919871755
  0
VERTEX
  5
174
  8
0
 10
776.4549504794481
 20
1287.870187213092
 30
0.0
  0
SEQEND
  5
1F8
  8
0
  0
POLYLINE
  5
76
  8
0
 66
     1
 10
0.0
 20
0.0
 30
0.0
 70
     1
  0
VERTEX
  5
175
  8
0
 10
956.60754328691
 20
2215.768198283819
 30
0.0
 42
0.4142135623731083
  0
VERTEX
  5
176
  8
0
 10
952.3649025997906
 20
2215.768198283819
 30
0.0
 42
0.4142135623730931
  0
VERTEX
  5
177
  8
0
 10
952.3649025997906
 20
2211.5255575967
 30
0.0
  0
VERTEX
  5
178
  8
0
 10
952.3649025997906
 20
2202.010838970939
 30
0.0
 42
0.4142135623730981
  0
VERTEX
  5
179
  8
0
 10
952.3649025997905
 20
2197.768198283819
 30
0.0
 42
0.4142135623731034
  0
VERTEX
  5
17A
  8
0
 10
956.60754328691
 20
2197.768198283819
 30
0.0
  0
VERTEX
  5
17B
  8
0
 10
1010.811827719404
 20
2197.768198283819
 30
0.0
 42
-0.0508473184512622
  0
VERTEX
  5
17C
  8
0
 10
1086.057013164885
 20
1995.768198507337
 30
0.0
  0
VERTEX
  5
17D
  8
0
 10
997.6520432881659
 20
1995.768198507337
 30
0.0
 42
0.4142135623730864
  0
VERTEX
  5
17E
  8
0
 10
993.4094026010467
 20
1995.768198507337
 30
0.0
 42
0.414213562373087
  0
VERTEX
  5
17F
  8
0
 10
993.4094026010467
 20
1991.525557820217
 30
0.0
  0
VERTEX
  5
180
  8
0
 10
993.4094026010467
 20
1982.010839194456
 30
0.0
 42
1.0
  0
VERTEX
  5
181
  8
0
 10
997.6520432881659
 20
1977.768198507337
 30
0.0
  0
VERTEX
  5
182
  8
0
 10
1090.581091169228
 20
1977.768198507337
 30
0.0
 42
-0.0573210687501351
  0
VERTEX
  5
183
  8
0
 10
1120.371287017392
 20
1736.768194647936
 30
0.0
  0
VERTEX
  5
184
  8
0
 10
1013.652043288166
 20
1736.768194647936
 30
0.0
 42
0.9999999999999305
  0
VERTEX
  5
185
  8
0
 10
1009.409402601047
 20
1732.525553960817
 30
0.0
  0
VERTEX
  5
186
  8
0
 10
1009.409402601047
 20
1723.010835335056
 30
0.0
 42
0.4142135623730976
  0
VERTEX
  5
187
  8
0
 10
1009.409402601047
 20
1718.768194647936
 30
0.0
 42
0.4142135623730961
  0
VERTEX
  5
188
  8
0
 10
1013.652043288166
 20
1718.768194647936
 30
0.0
  0
VERTEX
  5
189
  8
0
 10
1120.371287017393
 20
1718.768194647936
 30
0.0
 42
-0.0573210687501348
  0
VERTEX
  5
18A
  8
0
 10
1090.581091169227
 20
1477.768190788536
 30
0.0
  0
VERTEX
  5
18B
  8
0
 10
997.6520432881662
 20
1477.768190788536
 30
0.0
 42
1.0
  0
VERTEX
  5
18C
  8
0
 10
993.409402601047
 20
1473.525550101416
 30
0.0
  0
VERTEX
  5
18D
  8
0
 10
993.409402601047
 20
1464.010831475655
 30
0.0
 42
0.4142135623730948
  0
VERTEX
  5
18E
  8
0
 10
993.4094026010468
 20
1459.768190788536
 30
0.0
 42
0.4142135623731076
  0
VERTEX
  5
18F
  8
0
 10
997.6520432881663
 20
1459.768190788536
 30
0.0
  0
VERTEX
  5
190
  8
0
 10
1086.057013164886
 20
1459.768190788536
 30
0.0
 42
-0.050847318451264
  0
VERTEX
  5
191
  8
0
 10
1010.811827719403
 20
1257.768191012053
 30
0.0
  0
VERTEX
  5
192
  8
0
 10
956.6075432869104
 20
1257.768191012053
 30
0.0
 42
0.4142135623730815
  0
VERTEX
  5
193
  8
0
 10
952.3649025997911
 20
1257.768191012053
 30
0.0
 42
0.4142135623730965
  0
VERTEX
  5
194
  8
0
 10
952.3649025997911
 20
1253.525550324933
 30
0.0
  0
VERTEX
  5
195
  8
0
 10
952.3649025997911
 20
1244.010831699172
 30
0.0
 42
0.4142135623730981
  0
VERTEX
  5
196
  8
0
 10
952.364902599791
 20
1239.768191012053
 30
0.0
 42
0.4142135623731028
  0
VERTEX
  5
197
  8
0
 10
956.6075432869104
 20
1239.768191012053
 30
0.0
  0
VERTEX
  5
198
  8
0
 10
1001.72104903638
 20
1239.768191012053
 30
0.0
 42
-0.0452986178585648
  0
VERTEX
  5
199
  8
0
 10
898.409402601047
 20
1077.768194647936
 30
0.0
  0
VERTEX
  5
19A
  8
0
 10
898.4094026010471
 20
2377.768194647936
 30
0.0
 42
-0.0452986178585633
  0
VERTEX
  5
19B
  8
0
 10
1001.721049036379
 20
2215.768198283819
 30
0.0
  0
SEQEND
  5
1F9
  8
0
  0
POLYLINE
  5
77
  8
0
 66
     1
 10
0.0
 20
0.0
 30
0.0
 70
     1
  0
VERTEX
  5
19C
  8
0
 10
49.275
 20
2389.19
 30
0.0
 42
0.4142135623730951
  0
VERTEX
  5
19D
  8
0
 10
46.275
 20
2386.19
 30
0.0
 42
0.4142135623730951
  0
VERTEX
  5
19E
  8
0
 10
49.275
 20
2383.19
 30
0.0
 42
0.4142135623730951
  0
VERTEX
  5
19F
  8
0
 10
52.275
 20
2386.19
 30
0.0
 42
0.4142135623730951
  0
SEQEND
  5
1FA
  8
0
  0
POLYLINE
  5
78
  8
0
 66
     1
 10
0.0
 20
0.0
 30
0.0
 70
     1
  0
VERTEX
  5
1A0
  8
0
 10
1155.209
 20
2383.529
 30
0.0
 42
0.4142135623730951
  0
VERTEX
  5
1A1
  8
0
 10
1152.209
 20
2380.529
 30
0.0
 42
0.4142135623730951
  0
VERTEX
  5
1A2
  8
0
 10
1155.209
 20
2377.529
 30
0.0
 42
0.4142135623730951
  0
VERTEX
  5
1A3
  8
0
 10
1158.209
 20
2380.529
 30
0.0
 42
0.4142135623730951
  0
SEQEND
  5
1FB
  8
0
  0
POLYLINE
  5
79
  8
0
 66
     1
 10
0.0
 20
0.0
 30
0.0
 70
     1
  0
VERTEX
  5
1A4
  8
0
 10
28.656
 20
28.167
 30
0.0
 42
0.4142135623730951
  0
VERTEX
  5
1A5
  8
0
 10
25.656
 20
25.167
 30
0.0
 42
0.4142135623730951
  0
VERTEX
  5
1A6
  8
0
 10
28.656
 20
22.167
 30
0.0
 42
0.4142135623730951
  0
VERTEX
  5
1A7
  8
0
 10
31.656
 20
25.167
 30
0.0
 42
0.4142135623730951
  0
SEQEND
  5
1FC
  8
0
  0
POLYLINE
  5
7A
  8
0
 66
     1
 10
0.0
 20
0.0
 30
0.0
 70
     1
  0
VERTEX
  5
1A8
  8
0
 10
1179.792
 20
44.127
 30
0.0
 42
0.4142135623730951
  0
VERTEX
  5
1A9
  8
0
 10
1176.792
 20
41.127
 30
0.0
 42
0.4142135623730951
  0
VERTEX
  5
1AA
  8
0
 10
1179.792
 20
38.127
 30
0.0
 42
0.4142135623730951
  0
VERTEX
  5
1AB
  8
0
 10
1182.792
 20
41.127
 30
0.0
 42
0.4142135623730951
  0
SEQEND
  5
1FD
  8
0
  0
POLYLINE
  5
7B
  8
0
 66
     1
 10
0.0
 20
0.0
 30
0.0
 70
     1
  0
VERTEX
  5
1AC
  8
0
 10
886.934
 20
353.066
 30
0.0
 42
0.4142135623730951
  0
VERTEX
  5
1AD
  8
0
 10
883.934
 20
350.066
 30
0.0
 42
0.4142135623730951
  0
VERTEX
  5
1AE
  8
0
 10
886.934
 20
347.066
 30
0.0
 42
0.4142135623730951
  0
VERTEX
  5
1AF
  8
0
 10
889.934
 20
350.066
 30
0.0
 42
0.4142135623730951
  0
SEQEND
  5
1FE
  8
0
  0
POLYLINE
  5
7C
  8
0
 66
     1
 10
0.0
 20
0.0
 30
0.0
 70
     1
  0
VERTEX
  5
1B0
  8
0
 10
337.934
 20
312.074
 30
0.0
 42
0.4142135623730951
  0
VERTEX
  5
1B1
  8
0
 10
334.934
 20
309.074
 30
0.0
 42
0.4142135623730951
  0
VERTEX
  5
1B2
  8
0
 10
337.934
 20
306.074
 30
0.0
 42
0.4142135623730951
  0
VERTEX
  5
1B3
  8
0
 10
340.934
 20
309.074
 30
0.0
 42
0.4142135623730951
  0
SEQEND
  5
1FF
  8
0
  0
POLYLINE
  5
7D
  8
0
 66
     1
 10
0.0
 20
0.0
 30
0.0
 70
     1
  0
VERTEX
  5
1B4
  8
0
 10
308.972
 20
1080.895
 30
0.0
 42
0.4142135623730951
  0
VERTEX
  5
1B5
  8
0
 10
305.972
 20
1077.895
 30
0.0
 42
0.4142135623730951
  0
VERTEX
  5
1B6
  8
0
 10
308.972
 20
1074.895
 30
0.0
 42
0.4142135623730951
  0
VERTEX
  5
1B7
  8
0
 10
311.972
 20
1077.895
 30
0.0
 42
0.4142135623730951
  0
SEQEND
  5
200
  8
0
  0
POLYLINE
  5
7E
  8
0
 66
     1
 10
0.0
 20
0.0
 30
0.0
 70
     1
  0
VERTEX
  5
1B8
  8
0
 10
46.316
 20
343.391
 30
0.0
 42
0.4142135623730951
  0
VERTEX
  5
1B9
  8
0
 10
43.316
 20
340.391
 30
0.0
 42
0.4142135623730951
  0
VERTEX
  5
1BA
  8
0
 10
46.316
 20
337.391
 30
0.0
 42
0.4142135623730951
  0
VERTEX
  5
1BB
  8
0
 10
49.316
 20
340.391
 30
0.0
 42
0.4142135623730951
  0
SEQEND
  5
201
  8
0
  0
POLYLINE
  5
7F
  8
0
 66
     1
 10
0.0
 20
0.0
 30
0.0
 70
     1
  0
VERTEX
  5
1BC
  8
0
 10
42.656
 20
791.741
 30
0.0
 42
0.4142135623730951
  0
VERTEX
  5
1BD
  8
0
 10
39.656
 20
788.741
 30
0.0
 42
0.4142135623730951
  0
VERTEX
  5
1BE
  8
0
 10
42.656
 20
785.741
 30
0.0
 42
0.4142135623730951
  0
VERTEX
  5
1BF
  8
0
 10
45.656
 20
788.741
 30
0.0
 42
0.4142135623730951
  0
SEQEND
  5
202
  8
0
  0
POLYLINE
  5
80
  8
0
 66
     1
 10
0.0
 20
0.0
 30
0.0
 70
     1
  0
VERTEX
  5
1C0
  8
0
 10
44.486
 20
1289.501
 30
0.0
 42
0.4142135623730951
  0
VERTEX
  5
1C1
  8
0
 10
41.486
 20
1286.501
 30
0.0
 42
0.4142135623730951
  0
VERTEX
  5
1C2
  8
0
 10
44.486
 20
1283.501
 30
0.0
 42
0.4142135623730951
  0
VERTEX
  5
1C3
  8
0
 10
47.486
 20
1286.501
 30
0.0
 42
0.4142135623730951
  0
SEQEND
  5
203
  8
0
  0
POLYLINE
  5
81
  8
0
 66
     1
 10
0.0
 20
0.0
 30
0.0
 70
     1
  0
VERTEX
  5
1C4
  8
0
 10
124.914
 20
1391.622
 30
0.0
 42
0.4142135623730951
  0
VERTEX
  5
1C5
  8
0
 10
121.914
 20
1388.622
 30
0.0
 42
0.4142135623730951
  0
VERTEX
  5
1C6
  8
0
 10
124.914
 20
1385.622
 30
0.0
 42
0.4142135623730951
  0
VERTEX
  5
1C7
  8
0
 10
127.914
 20
1388.622
 30
0.0
 42
0.4142135623730951
  0
SEQEND
  5
204
  8
0
  0
POLYLINE
  5
82
  8
0
 66
     1
 10
0.0
 20
0.0
 30
0.0
 70
     1
  0
VERTEX
  5
1C8
  8
0
 10
40.002
 20
1767.87
 30
0.0
 42
0.4142135623730951
  0
VERTEX
  5
1C9
  8
0
 10
37.002
 20
1764.87
 30
0.0
 42
0.4142135623730951
  0
VERTEX
  5
1CA
  8
0
 10
40.002
 20
1761.87
 30
0.0
 42
0.4142135623730951
  0
VERTEX
  5
1CB
  8
0
 10
43.002
 20
1764.87
 30
0.0
 42
0.4142135623730951
  0
SEQEND
  5
205
  8
0
  0
POLYLINE
  5
83
  8
0
 66
     1
 10
0.0
 20
0.0
 30
0.0
 70
     1
  0
VERTEX
  5
1CC
  8
0
 10
58.622
 20
2197.513
 30
0.0
 42
0.4142135623730951
  0
VERTEX
  5
1CD
  8
0
 10
55.622
 20
2194.513
 30
0.0
 42
0.4142135623730951
  0
VERTEX
  5
1CE
  8
0
 10
58.622
 20
2191.513
 30
0.0
 42
0.4142135623730951
  0
VERTEX
  5
1CF
  8
0
 10
61.622
 20
2194.513
 30
0.0
 42
0.4142135623730951
  0
SEQEND
  5
206
  8
0
  0
POLYLINE
  5
84
  8
0
 66
     1
 10
0.0
 20
0.0
 30
0.0
 70
     1
  0
VERTEX
  5
1D0
  8
0
 10
430.112
 20
2375.023
 30
0.0
 42
0.4142135623730951
  0
VERTEX
  5
1D1
  8
0
 10
427.112
 20
2372.023
 30
0.0
 42
0.4142135623730951
  0
VERTEX
  5
1D2
  8
0
 10
430.112
 20
2369.023
 30
0.0
 42
0.4142135623730951
  0
VERTEX
  5
1D3
  8
0
 10
433.112
 20
2372.023
 30
0.0
 42
0.4142135623730951
  0
SEQEND
  5
207
  8
0
  0
POLYLINE
  5
85
  8
0
 66
     1
 10
0.0
 20
0.0
 30
0.0
 70
     1
  0
VERTEX
  5
1D4
  8
0
 10
786.962
 20
2380.513
 30
0.0
 42
0.4142135623730951
  0
VERTEX
  5
1D5
  8
0
 10
783.962
 20
2377.513
 30
0.0
 42
0.4142135623730951
  0
VERTEX
  5
1D6
  8
0
 10
786.962
 20
2374.513
 30
0.0
 42
0.4142135623730951
  0
VERTEX
  5
1D7
  8
0
 10
789.962
 20
2377.513
 30
0.0
 42
0.4142135623730951
  0
SEQEND
  5
208
  8
0
  0
POLYLINE
  5
86
  8
0
 66
     1
 10
0.0
 20
0.0
 30
0.0
 70
     1
  0
VERTEX
  5
1D8
  8
0
 10
611.282
 20
2206.663
 30
0.0
 42
0.4142135623730951
  0
VERTEX
  5
1D9
  8
0
 10
608.282
 20
2203.663
 30
0.0
 42
0.4142135623730951
  0
VERTEX
  5
1DA
  8
0
 10
611.282
 20
2200.663
 30
0.0
 42
0.4142135623730951
  0
VERTEX
  5
1DB
  8
0
 10
614.282
 20
2203.663
 30
0.0
 42
0.4142135623730951
  0
SEQEND
  5
209
  8
0
  0
POLYLINE
  5
87
  8
0
 66
     1
 10
0.0
 20
0.0
 30
0.0
 70
     1
  0
VERTEX
  5
1DC
  8
0
 10
603.962
 20
1952.293
 30
0.0
 42
0.4142135623730951
  0
VERTEX
  5
1DD
  8
0
 10
600.962
 20
1949.293
 30
0.0
 42
0.4142135623730951
  0
VERTEX
  5
1DE
  8
0
 10
603.962
 20
1946.293
 30
0.0
 42
0.4142135623730951
  0
VERTEX
  5
1DF
  8
0
 10
606.962
 20
1949.293
 30
0.0
 42
0.4142135623730951
  0
SEQEND
  5
20A
  8
0
  0
POLYLINE
  5
88
  8
0
 66
     1
 10
0.0
 20
0.0
 30
0.0
 70
     1
  0
VERTEX
  5
1E0
  8
0
 10
609.452
 20
1723.543
 30
0.0
 42
0.4142135623730951
  0
VERTEX
  5
1E1
  8
0
 10
606.452
 20
1720.543
 30
0.0
 42
0.4142135623730951
  0
VERTEX
  5
1E2
  8
0
 10
609.452
 20
1717.543
 30
0.0
 42
0.4142135623730951
  0
VERTEX
  5
1E3
  8
0
 10
612.452
 20
1720.543
 30
0.0
 42
0.4142135623730951
  0
SEQEND
  5
20B
  8
0
  0
POLYLINE
  5
89
  8
0
 66
     1
 10
0.0
 20
0.0
 30
0.0
 70
     1
  0
VERTEX
  5
1E4
  8
0
 10
842.411
 20
1308.018
 30
0.0
 42
0.4142135623730951
  0
VERTEX
  5
1E5
  8
0
 10
839.411
 20
1305.018
 30
0.0
 42
0.4142135623730951
  0
VERTEX
  5
1E6
  8
0
 10
842.411
 20
1302.018
 30
0.0
 42
0.4142135623730951
  0
VERTEX
  5
1E7
  8
0
 10
845.411
 20
1305.018
 30
0.0
 42
0.4142135623730951
  0
SEQEND
  5
20C
  8
0
  0
POLYLINE
  5
8A
  8
0
 66
     1
 10
0.0
 20
0.0
 30
0.0
 70
     1
  0
VERTEX
  5
1E8
  8
0
 10
1168.301
 20
494.505
 30
0.0
 42
0.4142135623730951
  0
VERTEX
  5
1E9
  8
0
 10
1165.301
 20
491.505
 30
0.0
 42
0.4142135623730951
  0
VERTEX
  5
1EA
  8
0
 10
1168.301
 20
488.505
 30
0.0
 42
0.4142135623730951
  0
VERTEX
  5
1EB
  8
0
 10
1171.301
 20
491.505
 30
0.0
 42
0.4142135623730951
  0
SEQEND
  5
20D
  8
0
  0
POLYLINE
  5
8B
  8
0
 66
     1
 10
0.0
 20
0.0
 30
0.0
 70
     1
  0
VERTEX
  5
1EC
  8
0
 10
1171.161
 20
1641.114
 30
0.0
 42
0.4142135623730951
  0
VERTEX
  5
1ED
  8
0
 10
1168.161
 20
1638.114
 30
0.0
 42
0.4142135623730951
  0
VERTEX
  5
1EE
  8
0
 10
1171.161
 20
1635.114
 30
0.0
 42
0.4142135623730951
  0
VERTEX
  5
1EF
  8
0
 10
1174.161
 20
1638.114
 30
0.0
 42
0.4142135623730951
  0
SEQEND
  5
20E
  8
0
  0
ENDSEC
  0
EOF
