0
SECTION
2
HEADER
9
$INSUNITS
70
4
9
$ACADVER
1
AC1014
9
$HANDSEED
5
FFFF
0
ENDSEC
0
SECTION
2
TABLES
0
TABLE
2
VPORT
5
8
100
AcDbSymbolTable
0
ENDTAB
0
TABLE
2
LTYPE
5
5
100
AcDbSymbolTable
0
LTYPE
5
14
100
AcDbSymbolTableRecord
100
AcDbLinetypeTableRecord
2
BYBLOCK
70
0
0
LTYPE
5
15
100
AcDbSymbolTableRecord
100
AcDbLinetypeTableRecord
2
BYLAYER
70
0
0
ENDTAB
0
TABLE
2
LAYER
5
2
100
AcDbSymbolTable
70
2
0
LAYER
5
50
100
AcDbSymbolTableRecord
100
AcDbLayerTableRecord
2
0
70
0
6
CONTINUOUS
0
ENDTAB
0
TABLE
2
STYLE
5
3
100
AcDbSymbolTable
70
1
0
STYLE
5
11
100
AcDbSymbolTableRecord
100
AcDbTextStyleTableRecord
2
STANDARD
70
0
0
ENDTAB
0
TABLE
2
VIEW
5
6
100
AcDbSymbolTable
70
0
0
ENDTAB
0
TABLE
2
UCS
5
7
100
AcDbSymbolTable
70
0
0
ENDTAB
0
TABLE
2
APPID
5
9
100
AcDbSymbolTable
70
2
0
APPID
5
12
100
AcDbSymbolTableRecord
100
AcDbRegAppTableRecord
2
ACAD
70
0
0
ENDTAB
0
TABLE
2
DIMSTYLE
5
A
100
AcDbSymbolTable
70
1
0
ENDTAB
0
TABLE
2
BLOCK_RECORD
5
1
100
AcDbSymbolTable
70
1
0
BLOCK_RECORD
5
1F
100
AcDbSymbolTableRecord
100
AcDbBlockTableRecord
2
*MODEL_SPACE
0
BLOCK_RECORD
5
1B
100
AcDbSymbolTableRecord
100
AcDbBlockTableRecord
2
*PAPER_SPACE
0
ENDTAB
0
ENDSEC
0
SECTION
2
BLOCKS
0
BLOCK
5
20
100
AcDbEntity
100
AcDbBlockBegin
2
*MODEL_SPACE
0
ENDBLK
5
21
100
AcDbEntity
100
AcDbBlockEnd
0
BLOCK
5
1C
100
AcDbEntity
100
AcDbBlockBegin
2
*PAPER_SPACE
0
ENDBLK
5
1D
100
AcDbEntity
100
AcDbBlockEnd
0
ENDSEC
0
SECTION
2
ENTITIES
0
LINE
5
100
100
AcDbEntity
8
0
100
AcDbLine
10
118.6882704745736
20
-118.55021227835529
30
0
11
-131.31172952543056
21
131.15898772164405
31
0
0
LINE
5
101
100
AcDbEntity
8
0
100
AcDbLine
10
-118.72797299545655
20
-131.2028618334559
30
0
11
118.68827047456945
21
131.15898772164411
31
0
0
LINE
5
102
100
AcDbEntity
8
0
100
AcDbLine
10
38.54287047456944
20
131.15898772164414
30
0
11
38.542870474569469
21
134.65898772164414
31
0
0
LINE
5
103
100
AcDbEntity
8
0
100
AcDbLine
10
38.542870474569469
20
134.65898772164414
30
0
11
68.688270474569407
21
134.65898772164414
31
0
0
LINE
5
104
100
AcDbEntity
8
0
100
AcDbLine
10
68.688270474569407
20
134.65898772164414
30
0
11
68.68827047456945
21
131.15898772164419
31
0
0
LINE
5
105
100
AcDbEntity
8
0
100
AcDbLine
10
-51.166329525430562
20
131.15898772164411
30
0
11
-51.166329525430562
21
134.65898772164411
31
0
0
LINE
5
106
100
AcDbEntity
8
0
100
AcDbLine
10
-51.166329525430562
20
134.65898772164411
30
0
11
-81.31172952543055
21
134.65898772164411
31
0
0
LINE
5
107
100
AcDbEntity
8
0
100
AcDbLine
10
-81.31172952543055
20
134.65898772164411
30
0
11
-81.311729525430536
21
131.15898772164408
31
0
0
LINE
5
108
100
AcDbEntity
8
0
100
AcDbLine
10
-51.166329525430115
20
-118.55021227835543
30
0
11
-51.166329525428978
21
-122.05021227835724
31
0
0
LINE
5
109
100
AcDbEntity
8
0
100
AcDbLine
10
-51.166329525428978
20
-122.05021227835724
30
0
11
-81.311729525428987
21
-122.05021227835724
31
0
0
LINE
5
110
100
AcDbEntity
8
0
100
AcDbLine
10
-81.311729525428987
20
-122.05021227835724
30
0
11
-81.311729525430081
21
-118.55021227835543
31
0
0
LINE
5
111
100
AcDbEntity
8
0
100
AcDbLine
10
38.542870474573604
20
-118.55021227835537
30
0
11
38.542870474574798
21
-122.05021227835718
31
0
0
LINE
5
112
100
AcDbEntity
8
0
100
AcDbLine
10
38.542870474574798
20
-122.05021227835718
30
0
11
68.688270474574807
21
-122.05021227835718
31
0
0
LINE
5
113
100
AcDbEntity
8
0
100
AcDbLine
10
68.688270474574807
20
-122.05021227835718
30
0
11
68.688270474573599
21
-118.55021227835533
31
0
0
LINE
5
114
100
AcDbEntity
8
0
100
AcDbLine
10
-81.311729525430081
20
-118.55021227835543
30
0
11
-131.31172952543008
21
-118.55021227835547
31
0
0
LINE
5
115
100
AcDbEntity
8
0
100
AcDbLine
10
118.6882704745736
20
-118.55021227835529
30
0
11
68.688270474573599
21
-118.55021227835533
31
0
0
LINE
5
116
100
AcDbEntity
8
0
100
AcDbLine
10
38.542870474573604
20
-118.55021227835537
30
0
11
-51.166329525430115
21
-118.55021227835543
31
0
0
LINE
5
117
100
AcDbEntity
8
0
100
AcDbLine
10
118.68827047457276
20
-68.550212278355275
30
0
11
118.6882704745736
21
-118.55021227835529
31
0
0
LINE
5
118
100
AcDbEntity
8
0
100
AcDbLine
10
118.68827047456945
20
131.15898772164411
30
0
11
118.68827047457029
21
81.158987721644124
31
0
0
LINE
5
119
100
AcDbEntity
8
0
100
AcDbLine
10
118.68827047457076
20
51.158987721644706
30
0
11
118.68827047457224
21
-38.550212278355282
31
0
0
LINE
5
120
100
AcDbEntity
8
0
100
AcDbLine
10
68.68827047456945
20
131.15898772164419
30
0
11
118.68827047456945
21
131.15898772164411
31
0
0
LINE
5
121
100
AcDbEntity
8
0
100
AcDbLine
10
-131.31172952543056
20
131.15898772164405
30
0
11
-81.311729525430536
21
131.15898772164408
31
0
0
LINE
5
122
100
AcDbEntity
8
0
100
AcDbLine
10
-51.166329525430562
20
131.15898772164411
30
0
11
38.54287047456944
21
131.15898772164414
31
0
0
LINE
5
123
100
AcDbEntity
8
0
100
AcDbLine
10
-131.31172952543045
20
81.158987721644024
30
0
11
-131.31172952543056
21
131.15898772164405
31
0
0
LINE
5
124
100
AcDbEntity
8
0
100
AcDbLine
10
-131.31172952543008
20
-118.55021227835547
30
0
11
-131.31172952543017
21
-68.550212278355446
31
0
0
LINE
5
125
100
AcDbEntity
8
0
100
AcDbLine
10
-131.31172952543022
20
-38.550212278355488
30
0
11
-131.31172952543037
21
51.158987721644522
31
0
0
LINE
5
126
100
AcDbEntity
8
0
100
AcDbLine
10
118.68827047457029
20
81.158987721644124
30
0
11
115.18827047457026
21
81.158987721644905
31
0
0
LINE
5
127
100
AcDbEntity
8
0
100
AcDbLine
10
115.18827047457026
20
81.158987721644905
30
0
11
115.18827047456944
21
51.158987721644905
31
0
0
LINE
5
128
100
AcDbEntity
8
0
100
AcDbLine
10
115.18827047456944
20
51.158987721644905
30
0
11
118.68827047457076
21
51.158987721644706
31
0
0
LINE
5
129
100
AcDbEntity
8
0
100
AcDbLine
10
118.68827047457276
20
-68.550212278355275
30
0
11
115.18827047457091
21
-68.550212278355232
31
0
0
LINE
5
130
100
AcDbEntity
8
0
100
AcDbLine
10
115.18827047457091
20
-68.550212278355232
30
0
11
115.18827047457091
21
-38.550212278355225
31
0
0
LINE
5
131
100
AcDbEntity
8
0
100
AcDbLine
10
115.18827047457091
20
-38.550212278355225
30
0
11
118.68827047457224
21
-38.550212278355282
31
0
0
LINE
5
132
100
AcDbEntity
8
0
100
AcDbLine
10
-131.31172952543037
20
51.158987721644522
30
0
11
-127.81172952542848
21
51.158987721641566
31
0
0
LINE
5
133
100
AcDbEntity
8
0
100
AcDbLine
10
-127.81172952542848
20
51.158987721641566
30
0
11
-127.81172952542848
21
81.15898772164158
31
0
0
LINE
5
134
100
AcDbEntity
8
0
100
AcDbLine
10
-127.81172952542848
20
81.15898772164158
30
0
11
-131.31172952543045
21
81.158987721644024
31
0
0
LINE
5
135
100
AcDbEntity
8
0
100
AcDbLine
10
-131.31172952543017
20
-68.550212278355446
30
0
11
-127.81172952542832
21
-68.550212278355431
31
0
0
LINE
5
136
100
AcDbEntity
8
0
100
AcDbLine
10
-127.81172952542832
20
-68.550212278355431
30
0
11
-127.81172952542833
21
-38.550212278355431
31
0
0
LINE
5
137
100
AcDbEntity
8
0
100
AcDbLine
10
-127.81172952542833
20
-38.550212278355431
30
0
11
-131.31172952543022
21
-38.550212278355488
31
0
0
LWPOLYLINE
5
138
100
AcDbEntity
8
0
100
AcDbPolyline
90
4
70
1
43
0.0
10
15.188270474571258
20
-8.8410122783542171
10
18.688270474571258
20
-8.8410122783542189
10
18.688270474571258
20
21.15898772164579
10
15.188270474571258
20
21.158987721645779
0
LINE
5
139
100
AcDbEntity
8
0
100
AcDbLine
10
18.688270474571258
20
21.15898772164579
30
0
11
19.147171698248471
21
21.158987721645772
31
0
0
ENDSEC
0
SECTION
2
OBJECTS
0
DICTIONARY
5
C
100
AcDbDictionary
3
ACAD_GROUP
350
D
3
ACAD_MLINESTYLE
350
17
0
DICTIONARY
5
D
100
AcDbDictionary
0
DICTIONARY
5
1A
330
C
100
AcDbDictionary
0
DICTIONARY
5
17
100
AcDbDictionary
0
ENDSEC
0
EOF
