0
SECTION
2
HEADER
9
$INSUNITS
70
4
9
$ACADVER
1
AC1014
9
$HANDSEED
5
FFFF
0
ENDSEC
0
SECTION
2
TABLES
0
TABLE
2
VPORT
5
8
100
AcDbSymbolTable
0
ENDTAB
0
TABLE
2
LTYPE
5
5
100
AcDbSymbolTable
0
LTYPE
5
14
100
AcDbSymbolTableRecord
100
AcDbLinetypeTableRecord
2
BYBLOCK
70
0
0
LTYPE
5
15
100
AcDbSymbolTableRecord
100
AcDbLinetypeTableRecord
2
BYLAYER
70
0
0
ENDTAB
0
TABLE
2
LAYER
5
2
100
AcDbSymbolTable
70
2
0
LAYER
5
50
100
AcDbSymbolTableRecord
100
AcDbLayerTableRecord
2
0
70
0
6
CONTINUOUS
0
ENDTAB
0
TABLE
2
STYLE
5
3
100
AcDbSymbolTable
70
1
0
STYLE
5
11
100
AcDbSymbolTableRecord
100
AcDbTextStyleTableRecord
2
STANDARD
70
0
0
ENDTAB
0
TABLE
2
VIEW
5
6
100
AcDbSymbolTable
70
0
0
ENDTAB
0
TABLE
2
UCS
5
7
100
AcDbSymbolTable
70
0
0
ENDTAB
0
TABLE
2
APPID
5
9
100
AcDbSymbolTable
70
2
0
APPID
5
12
100
AcDbSymbolTableRecord
100
AcDbRegAppTableRecord
2
ACAD
70
0
0
ENDTAB
0
TABLE
2
DIMSTYLE
5
A
100
AcDbSymbolTable
70
1
0
ENDTAB
0
TABLE
2
BLOCK_RECORD
5
1
100
AcDbSymbolTable
70
1
0
BLOCK_RECORD
5
1F
100
AcDbSymbolTableRecord
100
AcDbBlockTableRecord
2
*MODEL_SPACE
0
BLOCK_RECORD
5
1B
100
AcDbSymbolTableRecord
100
AcDbBlockTableRecord
2
*PAPER_SPACE
0
ENDTAB
0
ENDSEC
0
SECTION
2
BLOCKS
0
BLOCK
5
20
100
AcDbEntity
100
AcDbBlockBegin
2
*MODEL_SPACE
0
ENDBLK
5
21
100
AcDbEntity
100
AcDbBlockEnd
0
BLOCK
5
1C
100
AcDbEntity
100
AcDbBlockBegin
2
*PAPER_SPACE
0
ENDBLK
5
1D
100
AcDbEntity
100
AcDbBlockEnd
0
ENDSEC
0
SECTION
2
ENTITIES
0
LINE
5
100
100
AcDbEntity
8
0
100
AcDbLine
10
125.16599999999998
20
-52.040396529370021
30
-11.014578241100097
11
128.666
21
-52.040396529370021
31
-11.014578241100107
0
LINE
5
101
100
AcDbEntity
8
0
100
AcDbLine
10
128.666
20
-52.040396529370021
30
-11.014578241100107
11
128.666
21
-82.185796529370023
31
-11.014578241100102
0
LINE
5
102
100
AcDbEntity
8
0
100
AcDbLine
10
128.666
20
-82.185796529370023
30
-11.014578241100102
11
125.16599999999998
21
-82.185796529370023
31
-11.014578241100102
0
LINE
5
103
100
AcDbEntity
8
0
100
AcDbLine
10
125.16599999999998
20
-221.89499652937008
30
-11.014578241100121
11
128.66599999999997
21
-221.89499652937008
31
-11.014578241100068
0
LINE
5
104
100
AcDbEntity
8
0
100
AcDbLine
10
128.66599999999997
20
-221.89499652937008
30
-11.014578241100068
11
128.66599999999997
21
-252.0403965293701
31
-11.014578241100059
0
LINE
5
105
100
AcDbEntity
8
0
100
AcDbLine
10
128.66599999999997
20
-252.0403965293701
30
-11.014578241100059
11
125.16599999999997
21
-252.0403965293701
31
-11.014578241100123
0
LINE
5
106
100
AcDbEntity
8
0
100
AcDbLine
10
125.16599999999998
20
-5.5384432034480557
30
-11.014578241100095
11
125.16599999999998
21
-52.040396529370021
31
-11.014578241100097
0
LINE
5
107
100
AcDbEntity
8
0
100
AcDbLine
10
125.16599999999998
20
-82.185796529370023
30
-11.014578241100102
11
125.16599999999998
21
-221.89499652937008
31
-11.014578241100121
0
LINE
5
108
100
AcDbEntity
8
0
100
AcDbLine
10
125.16599999999997
20
-252.0403965293701
30
-11.014578241100123
11
125.16599999999995
21
-302.04190094851998
31
-11.01457824110013
0
LINE
5
109
100
AcDbEntity
8
0
100
AcDbLine
10
-124.83400000000006
20
-52.040396529370092
30
-11.014578241100143
11
-128.33400000000006
21
-52.040396529370092
31
-11.014578241100146
0
LINE
5
110
100
AcDbEntity
8
0
100
AcDbLine
10
-128.33400000000006
20
-52.040396529370092
30
-11.014578241100146
11
-128.33400000000006
21
-82.18579652937008
31
-11.014578241100148
0
LINE
5
111
100
AcDbEntity
8
0
100
AcDbLine
10
-128.33400000000006
20
-82.18579652937008
30
-11.014578241100148
11
-124.83400000000005
21
-82.18579652937008
31
-11.01457824110015
0
LINE
5
112
100
AcDbEntity
8
0
100
AcDbLine
10
-124.83400000000005
20
-221.89499652937008
30
-11.01457824110013
11
-128.33400000000006
21
-221.89499652937008
31
-11.014578241100137
0
LINE
5
113
100
AcDbEntity
8
0
100
AcDbLine
10
-128.33400000000006
20
-221.89499652937008
30
-11.014578241100137
11
-128.33400000000006
21
-252.0403965293701
31
-11.014578241100139
0
LINE
5
114
100
AcDbEntity
8
0
100
AcDbLine
10
-128.33400000000006
20
-252.0403965293701
30
-11.014578241100139
11
-124.83400000000005
21
-252.0403965293701
31
-11.01457824110013
0
LINE
5
115
100
AcDbEntity
8
0
100
AcDbLine
10
-124.83400000000006
20
-52.040396529370092
30
-11.014578241100143
11
-124.83400000000006
21
-5.541901050200071
31
-11.014578241100143
0
LINE
5
116
100
AcDbEntity
8
0
100
AcDbLine
10
-124.83400000000005
20
-302.04190094852004
30
-11.014578241100129
11
-124.83400000000005
21
-252.0403965293701
31
-11.01457824110013
0
LINE
5
117
100
AcDbEntity
8
0
100
AcDbLine
10
-124.83400000000005
20
-221.89499652937008
30
-11.01457824110013
11
-124.83400000000005
21
-82.18579652937008
31
-11.01457824110015
0
LINE
5
118
100
AcDbEntity
8
0
100
AcDbLine
10
-44.834000000000046
20
-302.04190094852004
30
-11.014578241100125
11
-44.834000000000046
21
-298.54190094852004
31
-11.014578241100125
0
LINE
5
119
100
AcDbEntity
8
0
100
AcDbLine
10
-44.834000000000046
20
-298.54190094852004
30
-11.014578241100125
11
-74.834000000000046
21
-298.54190094852004
31
-11.014578241100129
0
LINE
5
120
100
AcDbEntity
8
0
100
AcDbLine
10
-74.834000000000046
20
-298.54190094852004
30
-11.014578241100129
11
-74.834000000000046
21
-302.04190094852004
31
-11.01457824110013
0
LINE
5
121
100
AcDbEntity
8
0
100
AcDbLine
10
75.165999999999954
20
-302.04190094852004
30
-11.01457824110013
11
75.165999999999954
21
-298.54190094851998
31
-11.01457824110013
0
LINE
5
122
100
AcDbEntity
8
0
100
AcDbLine
10
75.165999999999954
20
-298.54190094851998
30
-11.01457824110013
11
45.165999999999954
21
-298.54190094851998
31
-11.014578241100132
0
LINE
5
123
100
AcDbEntity
8
0
100
AcDbLine
10
45.165999999999954
20
-298.54190094851998
30
-11.014578241100132
11
45.165999999999954
21
-302.04190094851998
31
-11.01457824110013
0
LINE
5
124
100
AcDbEntity
8
0
100
AcDbLine
10
-74.834000000000046
20
-302.04190094852004
30
-11.01457824110013
11
-124.83400000000005
21
-302.04190094852004
31
-11.014578241100129
0
LINE
5
125
100
AcDbEntity
8
0
100
AcDbLine
10
125.16599999999995
20
-302.04190094851998
30
-11.01457824110013
11
75.165999999999954
21
-302.04190094852004
31
-11.01457824110013
0
LINE
5
126
100
AcDbEntity
8
0
100
AcDbLine
10
45.165999999999954
20
-302.04190094851998
30
-11.01457824110013
11
-44.834000000000046
21
-302.04190094852004
31
-11.014578241100125
0
LINE
5
127
100
AcDbEntity
8
0
100
AcDbLine
10
75.166000137179012
20
-5.5384432034480469
30
-11.010874471995463
11
125.16599999999998
21
-5.5384432034480557
31
-11.014578241100095
0
LINE
5
128
100
AcDbEntity
8
0
100
AcDbLine
10
45.020600137179009
20
-5.5384432034480486
30
-11.010874471995461
11
45.020600137179009
21
-2.3792646325426863
31
-11.010874471995461
0
LINE
5
129
100
AcDbEntity
8
0
100
AcDbLine
10
45.020600137179009
20
-2.3792646325426863
30
-11.010874471995461
11
75.166000137179012
21
-2.3792646325426841
31
-11.010874471995463
0
LINE
5
130
100
AcDbEntity
8
0
100
AcDbLine
10
75.166000137179012
20
-2.3792646325426841
30
-11.010874471995463
11
75.166000137179012
21
-5.5384432034480469
31
-11.010874471995463
0
LINE
5
131
100
AcDbEntity
8
0
100
AcDbLine
10
-124.83400000000006
20
-5.541901050200071
30
-11.014578241100143
11
-74.834000610079215
21
-5.5419010502000265
31
-11.02238899816156
0
LINE
5
132
100
AcDbEntity
8
0
100
AcDbLine
10
-44.68860061007922
20
-5.2010796211053929
30
-11.022388998161558
11
-44.68860061007922
21
-2.0419010502000292
31
-11.022388998161558
0
LINE
5
133
100
AcDbEntity
8
0
100
AcDbLine
10
-44.68860061007922
20
-2.0419010502000292
30
-11.022388998161558
11
-74.834000610079215
21
-2.041901050200027
31
-11.02238899816156
0
LINE
5
134
100
AcDbEntity
8
0
100
AcDbLine
10
-74.834000610079215
20
-2.041901050200027
30
-11.02238899816156
11
-74.834000610079215
21
-5.5419010502000265
31
-11.02238899816156
0
LINE
5
135
100
AcDbEntity
8
0
100
AcDbLine
10
45.020600137179009
20
-5.5384432034480486
30
-11.010874471995461
11
-44.68860061007922
21
-5.2010796211053929
31
-11.022388998161558
0
CIRCLE
5
136
100
AcDbEntity
8
0
100
AcDbCircle
10
13.16599999999994
20
-291.04039652937001
30
-11.01457824110005
40
1.7500000000000002
210
0
220
0
230
1
0
CIRCLE
5
137
100
AcDbEntity
8
0
100
AcDbCircle
10
13.16599999999994
20
-266.24039652937006
30
-11.014578241100057
40
1.7500000000000002
210
0
220
0
230
1
0
CIRCLE
5
138
100
AcDbEntity
8
0
100
AcDbCircle
10
-11.634000000000064
20
-266.24039652937006
30
-11.014578241100057
40
1.7500000000000002
210
0
220
0
230
1
0
CIRCLE
5
139
100
AcDbEntity
8
0
100
AcDbCircle
10
-11.634000000000064
20
-291.04039652937001
30
-11.01457824110005
40
1.7500000000000002
210
0
220
0
230
1
0
CIRCLE
5
140
100
AcDbEntity
8
0
100
AcDbCircle
10
10.806000683404239
20
-182.72258312542615
30
0
40
1.7500000000000002
210
0
220
0
230
1
0
CIRCLE
5
141
100
AcDbEntity
8
0
100
AcDbCircle
10
10.806000683404239
20
-169.32258312542615
30
0
40
1.7500000000000002
210
0
220
0
230
1
0
CIRCLE
5
142
100
AcDbEntity
8
0
100
AcDbCircle
10
-10.993999316595762
20
-169.32258312542615
30
0
40
1.7500000000000002
210
0
220
0
230
1
0
CIRCLE
5
143
100
AcDbEntity
8
0
100
AcDbCircle
10
-10.993999316595762
20
-182.72258312542615
30
0
40
1.7500000000000002
210
0
220
0
230
1
0
ENDSEC
0
SECTION
2
OBJECTS
0
DICTIONARY
5
C
100
AcDbDictionary
3
ACAD_GROUP
350
D
3
ACAD_MLINESTYLE
350
17
0
DICTIONARY
5
D
100
AcDbDictionary
0
DICTIONARY
5
1A
330
C
100
AcDbDictionary
0
DICTIONARY
5
17
100
AcDbDictionary
0
ENDSEC
0
EOF
