  0
SECTION
  2
HEADER
  9
$ACADVER
  1
AC1009
  9
$INSBASE
 10
0.0
 20
0.0
 30
0.0
  9
$EXTMIN
 10
0.0
 20
0.0
 30
0.0
  9
$EXTMAX
 10
0.0
 20
0.0
 30
0.0
  0
ENDSEC
  0
SECTION
  2
TABLES
  0
TABLE
  2
VPORT
 70
0
  0
ENDTAB
  0
TABLE
  2
LTYPE
 70
1
  0
LTYPE
  2
CONTINUOUS
 70
0
  3
Solid line
 72
65
 73
0
 40
0.0
  0
ENDTAB
  0
TABLE
  2
LAYER
 70
1
  0
LAYER
  2
0
 70
64
 62
7
  6
continuous
  0
ENDTAB
  0
TABLE
  2
STYLE
 70
1
  0
STYLE
  2
STANDARD
 70
0
 40
0
 41
1.0
 50
0.0
 71
0
 42
1
 3
ARIAL.TTF
 4

  0
ENDTAB
  0
TABLE
  2
VIEW
 70
0
  0
ENDTAB
  0
ENDSEC
  0
SECTION
  2
BLOCKS
  0
BLOCK
  8
0
  2
SKETCH
 70
0
 10
0.0
 20
0.0
 30
0.0
  3
SKETCH
  0
POLYLINE
  8
0
 62
7
 70
1
 66
1
 10
0.0
 20
0.0
 30
0.0
  0
VERTEX
  8
0
 10
-0.2444856648748548
 20
30.014772096004556
 30
0.0
  0
VERTEX
  8
0
 10
29.755514335125145
 20
30.014772096004556
 30
0.0
  0
VERTEX
  8
0
 10
29.755514335125145
 20
50.014772096004556
 30
0.0
  0
VERTEX
  8
0
 10
-0.2444856648748548
 20
50.014772096004556
 30
0.0
  0
SEQEND
  8
0
  0
POLYLINE
  8
0
 62
7
 70
1
 66
1
 10
0.0
 20
0.0
 30
0.0
  0
VERTEX
  8
0
 10
50.178821562044575
 20
49.73200461908458
 30
0.0
  0
VERTEX
  8
0
 10
80.17882156204458
 20
49.73200461908458
 30
0.0
  0
VERTEX
  8
0
 10
80.17882156204458
 20
29.732004619084577
 30
0.0
  0
VERTEX
  8
0
 10
50.178821562044575
 20
29.732004619084577
 30
0.0
  0
SEQEND
  8
0
  0
POLYLINE
  8
0
 62
7
 70
1
 66
1
 10
0.0
 20
0.0
 30
0.0
  0
VERTEX
  8
0
 10
99.97985800000001
 20
49.8123233846154
 30
0.0
  0
VERTEX
  8
0
 10
129.979858
 20
49.8123233846154
 30
0.0
  0
VERTEX
  8
0
 10
129.979858
 20
29.812323384615397
 30
0.0
  0
VERTEX
  8
0
 10
99.97985800000001
 20
29.812323384615397
 30
0.0
  0
SEQEND
  8
0
  0
POLYLINE
  8
0
 62
7
 70
1
 66
1
 10
0.0
 20
0.0
 30
0.0
  0
VERTEX
  8
0
 10
0.2696794820876961
 20
80.02675029348346
 30
0.0
  0
VERTEX
  8
0
 10
30.269679482087696
 20
80.02675029348346
 30
0.0
  0
VERTEX
  8
0
 10
30.269679482087696
 20
60.02675029348346
 30
0.0
  0
VERTEX
  8
0
 10
0.26967948208769604
 20
60.02675029348346
 30
0.0
  0
SEQEND
  8
0
  0
POLYLINE
  8
0
 62
7
 70
1
 66
1
 10
0.0
 20
0.0
 30
0.0
  0
VERTEX
  8
0
 10
50.240827850328756
 20
79.76957529382409
 30
0.0
  0
VERTEX
  8
0
 10
80.24082785032876
 20
79.76957529382409
 30
0.0
  0
VERTEX
  8
0
 10
80.24082785032876
 20
59.76957529382409
 30
0.0
  0
VERTEX
  8
0
 10
50.240827850328756
 20
59.76957529382409
 30
0.0
  0
SEQEND
  8
0
  0
POLYLINE
  8
0
 62
7
 70
1
 66
1
 10
0.0
 20
0.0
 30
0.0
  0
VERTEX
  8
0
 10
100.27152371432561
 20
79.8530849448083
 30
0.0
  0
VERTEX
  8
0
 10
130.2715237143256
 20
79.8530849448083
 30
0.0
  0
VERTEX
  8
0
 10
130.2715237143256
 20
59.8530849448083
 30
0.0
  0
VERTEX
  8
0
 10
100.27152371432561
 20
59.8530849448083
 30
0.0
  0
SEQEND
  8
0
  0
POLYLINE
  8
0
 62
7
 70
1
 66
1
 10
0.0
 20
0.0
 30
0.0
  0
VERTEX
  8
0
 10
79.87023731886785
 20
20.213586418053634
 30
0.0
  0
VERTEX
  8
0
 10
49.87023731886785
 20
20.213586418053634
 30
0.0
  0
VERTEX
  8
0
 10
49.87023731886785
 20
0.21358641805363376
 30
0.0
  0
VERTEX
  8
0
 10
79.87023731886785
 20
0.21358641805363376
 30
0.0
  0
SEQEND
  8
0
  0
POLYLINE
  8
0
 62
7
 70
1
 66
1
 10
0.0
 20
0.0
 30
0.0
  0
VERTEX
  8
0
 10
-0.1735916086943945
 20
20.398735201897885
 30
0.0
  0
VERTEX
  8
0
 10
29.826408391305606
 20
20.398735201897885
 30
0.0
  0
VERTEX
  8
0
 10
29.826408391305606
 20
0.39873520189788536
 30
0.0
  0
VERTEX
  8
0
 10
-0.1735916086943945
 20
0.39873520189788536
 30
0.0
  0
SEQEND
  8
0
  0
POLYLINE
  8
0
 62
7
 70
1
 66
1
 10
0.0
 20
0.0
 30
0.0
  0
VERTEX
  8
0
 10
99.91859338374694
 20
19.949670008622043
 30
0.0
  0
VERTEX
  8
0
 10
129.91859338374695
 20
19.949670008622043
 30
0.0
  0
VERTEX
  8
0
 10
129.91859338374695
 20
-0.05032999137795713
 30
0.0
  0
VERTEX
  8
0
 10
99.91859338374694
 20
-0.05032999137795713
 30
0.0
  0
SEQEND
  8
0
  0
ENDBLK
  0
ENDSEC
  0
SECTION
  2
ENTITIES
  0
INSERT
  2
SKETCH
  8
0
 62
7
 10
0.0
 20
0.0
 30
0.0
  0
ENDSEC
  0
EOF
