  0
SECTION
  2
HEADER
  9
$ACADVER
  1
AC1014
  9
$HANDSEED
  5
FFFF
  9
$MEASUREMENT
 70
     1
  0
ENDSEC
  0
SECTION
  2
TABLES
  0
TABLE
  2
VPORT
  5
8
330
0
100
AcDbSymbolTable
 70
     4
  0
VPORT
  5
2E
330
8
100
AcDbSymbolTableRecord
100
AcDbViewportTableRecord
  2
*ACTIVE
 70
     0
 10
0.0
 20
0.0
 11
1.0
 21
1.0
 12
210.0
 22
148.5
 13
0.0
 23
0.0
 14
10.0
 24
10.0
 15
10.0
 25
10.0
 16
0.0
 26
0.0
 36
1.0
 17
0.0
 27
0.0
 37
0.0
 40
341.0
 41
1.24
 42
50.0
 43
0.0
 44
0.0
 50
0.0
 51
0.0
 71
     0
 72
   100
 73
     1
 74
     3
 75
     0
 76
     0
 77
     0
 78
     0
  0
ENDTAB
  0
TABLE
  2
LTYPE
  5
5
330
0
100
AcDbSymbolTable
 70
     1
  0
LTYPE
  5
14
330
5
100
AcDbSymbolTableRecord
100
AcDbLinetypeTableRecord
  2
BYBLOCK
 70
     0
  3

 72
    65
 73
     0
 40
0.0
  0
LTYPE
  5
15
330
5
100
AcDbSymbolTableRecord
100
AcDbLinetypeTableRecord
  2
BYLAYER
 70
     0
  3

 72
    65
 73
     0
 40
0.0
  0
LTYPE
  5
16
330
5
100
AcDbSymbolTableRecord
100
AcDbLinetypeTableRecord
  2
CONTINUOUS
 70
     0
  3
Solid line
 72
    65
 73
     0
 40
0.0
  0
ENDTAB
  0
TABLE
  2
LAYER
  5
2
100
AcDbSymbolTable
 70
1
  0
LAYER
  5
50
100
AcDbSymbolTableRecord
100
AcDbLayerTableRecord
  2
0
 70
0
  6
CONTINUOUS
  0
ENDTAB
  0
TABLE
  2
STYLE
  5
3
330
0
100
AcDbSymbolTable
 70
     1
  0
STYLE
  5
11
330
3
100
AcDbSymbolTableRecord
100
AcDbTextStyleTableRecord
  2
STANDARD
 70
     0
 40
0.0
 41
1.0
 50
0.0
 71
     0
 42
2.5
  3
txt
  4

  0
ENDTAB
  0
TABLE
  2
VIEW
  5
6
330
0
100
AcDbSymbolTable
 70
     0
  0
ENDTAB
  0
TABLE
  2
UCS
  5
7
330
0
100
AcDbSymbolTable
 70
     0
  0
ENDTAB
  0
TABLE
  2
APPID
  5
9
330
0
100
AcDbSymbolTable
 70
     2
  0
APPID
  5
12
330
9
100
AcDbSymbolTableRecord
100
AcDbRegAppTableRecord
  2
ACAD
 70
     0
  0
ENDTAB
  0
TABLE
  2
DIMSTYLE
  5
A
330
0
100
AcDbSymbolTable
 70
     1
  0
DIMSTYLE
105
27
330
A
100
AcDbSymbolTableRecord
100
AcDbDimStyleTableRecord
  2
ISO-25
 70
     0
  3

  4

  5

  6

  7

 40
1.0
 41
2.5
 42
0.625
 43
3.75
 44
1.25
 45
0.0
 46
0.0
 47
0.0
 48
0.0
140
2.5
141
2.5
142
0.0
143
0.03937007874016
144
1.0
145
0.0
146
1.0
147
0.625
 71
     0
 72
     0
 73
     0
 74
     0
 75
     0
 76
     0
 77
     1
 78
     8
170
     0
171
     3
172
     1
173
     0
174
     0
175
     0
176
     0
177
     0
178
     0
270
     2
271
     2
272
     2
273
     2
274
     3
340
11
275
     0
280
     0
281
     0
282
     0
283
     0
284
     8
285
     0
286
     0
287
     3
288
     0
  0
ENDTAB
  0
TABLE
  2
BLOCK_RECORD
  5
1
330
0
100
AcDbSymbolTable
 70
     1
  0
BLOCK_RECORD
  5
1F
330
1
100
AcDbSymbolTableRecord
100
AcDbBlockTableRecord
  2
*MODEL_SPACE
  0
BLOCK_RECORD
  5
1B
330
1
100
AcDbSymbolTableRecord
100
AcDbBlockTableRecord
  2
*PAPER_SPACE
  0
ENDTAB
  0
ENDSEC
  0
SECTION
  2
BLOCKS
  0
BLOCK
  5
20
330
1F
100
AcDbEntity
  8
0
100
AcDbBlockBegin
  2
*MODEL_SPACE
 70
     0
 10
0.0
 20
0.0
 30
0.0
  3
*MODEL_SPACE
  1

  0
ENDBLK
  5
21
330
1F
100
AcDbEntity
  8
0
100
AcDbBlockEnd
  0
BLOCK
  5
1C
330
1B
100
AcDbEntity
 67
     1
  8
0
100
AcDbBlockBegin
  2
*PAPER_SPACE
  1

  0
ENDBLK
  5
1D
330
1B
100
AcDbEntity
 67
     1
  8
0
100
AcDbBlockEnd
  0
ENDSEC
  0
SECTION
  2
ENTITIES
  0
SPLINE
  5
100
100
AcDbEntity
  8
0
 62
7
100
AcDbSpline
 70
8
 71
3
 72
8
 73
4
 74
0
 40
0
 40
0
 40
0
 40
0
 40
1
 40
1
 40
1
 40
1
 10
57.679698
 20
65.997415
 30
0.0
 10
58.298823
 20
66.234217
 30
0.0
 10
58.902866
 20
66.516792
 30
0.0
 10
59.482833
 20
66.859163
 30
0.0
  0
SPLINE
  5
101
100
AcDbEntity
  8
0
 62
7
100
AcDbSpline
 70
8
 71
3
 72
8
 73
4
 74
0
 40
0
 40
0
 40
0
 40
0
 40
1
 40
1
 40
1
 40
1
 10
59.482833
 20
66.859163
 30
0.0
 10
67.707935
 20
71.708181
 30
0.0
 10
68.572594
 20
85.484507
 30
0.0
 10
61.412439
 20
97.627030
 30
0.0
  0
SPLINE
  5
102
100
AcDbEntity
  8
0
 62
7
100
AcDbSpline
 70
8
 71
3
 72
8
 73
4
 74
0
 40
0
 40
0
 40
0
 40
0
 40
1
 40
1
 40
1
 40
1
 10
61.412439
 20
97.627030
 30
0.0
 10
54.253079
 20
109.770083
 30
0.0
 10
41.781414
 20
115.682197
 30
0.0
 10
33.556576
 20
110.832914
 30
0.0
  0
SPLINE
  5
103
100
AcDbEntity
  8
0
 62
7
100
AcDbSpline
 70
8
 71
3
 72
8
 73
4
 74
0
 40
0
 40
0
 40
0
 40
0
 40
1
 40
1
 40
1
 40
1
 10
33.556576
 20
110.832914
 30
0.0
 10
25.331474
 20
105.983366
 30
0.0
 10
24.467080
 20
92.207834
 30
0.0
 10
31.625911
 20
80.065046
 30
0.0
  0
SPLINE
  5
104
100
AcDbEntity
  8
0
 62
7
100
AcDbSpline
 70
8
 71
3
 72
8
 73
4
 74
0
 40
0
 40
0
 40
0
 40
0
 40
1
 40
1
 40
1
 40
1
 10
31.625911
 20
80.065046
 30
0.0
 10
32.781082
 20
78.106336
 30
0.0
 10
34.075424
 20
76.312725
 30
0.0
 10
35.466868
 20
74.697444
 30
0.0
  0
LWPOLYLINE
  5
105
100
AcDbEntity
  8
0
 62
7
100
AcDbPolyline
 90
2
 70
0
 10
57.679698
 20
48.745787
 30
0.0
 10
57.679698
 20
65.997415
 30
0.0
  0
SPLINE
  5
106
100
AcDbEntity
  8
0
 62
7
100
AcDbSpline
 70
8
 71
3
 72
8
 73
4
 74
0
 40
0
 40
0
 40
0
 40
0
 40
1
 40
1
 40
1
 40
1
 10
11.525515
 20
139.669058
 30
0.0
 10
5.865019
 20
129.355864
 30
0.0
 10
2.645833
 20
117.512585
 30
0.0
 10
2.645833
 20
104.917889
 30
0.0
  0
SPLINE
  5
107
100
AcDbEntity
  8
0
 62
7
100
AcDbSpline
 70
8
 71
3
 72
8
 73
4
 74
0
 40
0
 40
0
 40
0
 40
0
 40
1
 40
1
 40
1
 40
1
 10
2.645833
 20
104.917889
 30
0.0
 10
2.645833
 20
65.784954
 30
0.0
 10
33.697070
 20
33.925680
 30
0.0
 10
72.517002
 20
32.639805
 30
0.0
  0
LWPOLYLINE
  5
108
100
AcDbEntity
  8
0
 62
7
100
AcDbPolyline
 90
5
 70
0
 10
35.466868
 20
74.697444
 30
0.0
 10
35.466868
 20
61.881292
 30
0.0
 10
17.739255
 20
72.026475
 30
0.0
 10
17.739255
 20
135.567223
 30
0.0
 10
11.525515
 20
139.669058
 30
0.0
  0
LWPOLYLINE
  5
109
100
AcDbEntity
  8
0
 62
7
100
AcDbPolyline
 90
3
 70
0
 10
72.517002
 20
32.639805
 30
0.0
 10
72.523617
 20
40.095235
 30
0.0
 10
57.679698
 20
48.745787
 30
0.0
  0
SPLINE
  5
10a
100
AcDbEntity
  8
0
 62
7
100
AcDbSpline
 70
8
 71
3
 72
8
 73
4
 74
0
 40
0
 40
0
 40
0
 40
0
 40
1
 40
1
 40
1
 40
1
 10
47.925568
 20
143.291734
 30
0.0
 10
47.712049
 20
141.511352
 30
0.0
 10
47.705170
 20
139.551319
 30
0.0
 10
47.712049
 20
138.877425
 30
0.0
  0
SPLINE
  5
10b
100
AcDbEntity
  8
0
 62
7
100
AcDbSpline
 70
8
 71
3
 72
8
 73
4
 74
0
 40
0
 40
0
 40
0
 40
0
 40
1
 40
1
 40
1
 40
1
 10
47.712049
 20
138.877425
 30
0.0
 10
47.811268
 20
129.329935
 30
0.0
 10
60.741456
 20
122.071885
 30
0.0
 10
74.837133
 20
122.217935
 30
0.0
  0
SPLINE
  5
10c
100
AcDbEntity
  8
0
 62
7
100
AcDbSpline
 70
8
 71
3
 72
8
 73
4
 74
0
 40
0
 40
0
 40
0
 40
0
 40
1
 40
1
 40
1
 40
1
 10
74.837133
 20
122.217935
 30
0.0
 10
88.932811
 20
122.363985
 30
0.0
 10
98.972161
 20
130.903412
 30
0.0
 10
98.900988
 20
139.304727
 30
0.0
  0
SPLINE
  5
10d
100
AcDbEntity
  8
0
 62
7
100
AcDbSpline
 70
8
 71
3
 72
8
 73
4
 74
0
 40
0
 40
0
 40
0
 40
0
 40
1
 40
1
 40
1
 40
1
 10
98.900988
 20
139.304727
 30
0.0
 10
98.820555
 20
148.851952
 30
0.0
 10
89.639513
 20
156.326960
 30
0.0
 10
75.549127
 20
156.747118
 30
0.0
  0
SPLINE
  5
10e
100
AcDbEntity
  8
0
 62
7
100
AcDbSpline
 70
8
 71
3
 72
8
 73
4
 74
0
 40
0
 40
0
 40
0
 40
0
 40
1
 40
1
 40
1
 40
1
 10
75.549127
 20
156.747118
 30
0.0
 10
70.778954
 20
156.889464
 30
0.0
 10
66.180760
 20
155.936964
 30
0.0
 10
64.086848
 20
155.536914
 30
0.0
  0
LWPOLYLINE
  5
10f
100
AcDbEntity
  8
0
 62
7
100
AcDbPolyline
 90
2
 70
0
 10
37.090351
 20
149.713171
 30
0.0
 10
47.925568
 20
143.291734
 30
0.0
  0
SPLINE
  5
110
100
AcDbEntity
  8
0
 62
7
100
AcDbSpline
 70
8
 71
3
 72
8
 73
4
 74
0
 40
0
 40
0
 40
0
 40
0
 40
1
 40
1
 40
1
 40
1
 10
136.740904
 20
142.597467
 30
0.0
 10
130.627706
 20
152.648988
 30
0.0
 10
121.970010
 20
161.347693
 30
0.0
 10
111.054889
 20
167.632077
 30
0.0
  0
SPLINE
  5
111
100
AcDbEntity
  8
0
 62
7
100
AcDbSpline
 70
8
 71
3
 72
8
 73
4
 74
0
 40
0
 40
0
 40
0
 40
0
 40
1
 40
1
 40
1
 40
1
 10
111.054889
 20
167.632077
 30
0.0
 10
77.141125
 20
187.157534
 30
0.0
 10
34.037589
 20
176.143723
 30
0.0
 10
13.554605
 20
143.142773
 30
0.0
  0
LWPOLYLINE
  5
112
100
AcDbEntity
  8
0
 62
7
100
AcDbPolyline
 90
5
 70
0
 10
64.086848
 20
155.536914
 30
0.0
 10
56.184272
 20
160.592043
 30
0.0
 10
74.979479
 20
171.315871
 30
0.0
 10
130.386406
 20
139.109465
 30
0.0
 10
136.740904
 20
142.597467
 30
0.0
  0
LWPOLYLINE
  5
113
100
AcDbEntity
  8
0
 62
7
100
AcDbPolyline
 90
3
 70
0
 10
13.554605
 20
143.142773
 30
0.0
 10
19.857244
 20
139.162911
 30
0.0
 10
37.090351
 20
149.713171
 30
0.0
  0
SPLINE
  5
114
100
AcDbEntity
  8
0
 62
7
100
AcDbSpline
 70
8
 71
3
 72
8
 73
4
 74
0
 40
0
 40
0
 40
0
 40
0
 40
1
 40
1
 40
1
 40
1
 10
120.473526
 20
108.548501
 30
0.0
 10
120.046489
 20
108.619939
 30
0.0
 10
117.431083
 20
111.067864
 30
0.0
 10
116.842649
 20
111.396476
 30
0.0
  0
SPLINE
  5
115
100
AcDbEntity
  8
0
 62
7
100
AcDbSpline
 70
8
 71
3
 72
8
 73
4
 74
0
 40
0
 40
0
 40
0
 40
0
 40
1
 40
1
 40
1
 40
1
 10
116.842649
 20
111.396476
 30
0.0
 10
108.501395
 20
116.043354
 30
0.0
 10
96.221553
 20
109.899199
 30
0.0
 10
89.361171
 20
97.584961
 30
0.0
  0
SPLINE
  5
116
100
AcDbEntity
  8
0
 62
7
100
AcDbSpline
 70
8
 71
3
 72
8
 73
4
 74
0
 40
0
 40
0
 40
0
 40
0
 40
1
 40
1
 40
1
 40
1
 10
89.361171
 20
97.584961
 30
0.0
 10
82.500525
 20
85.271253
 30
0.0
 10
83.085519
 20
71.191979
 30
0.0
 10
91.426244
 20
66.544044
 30
0.0
  0
SPLINE
  5
117
100
AcDbEntity
  8
0
 62
7
100
AcDbSpline
 70
8
 71
3
 72
8
 73
4
 74
0
 40
0
 40
0
 40
0
 40
0
 40
1
 40
1
 40
1
 40
1
 10
91.426244
 20
66.544044
 30
0.0
 10
99.767763
 20
61.897431
 30
0.0
 10
112.188099
 20
67.472467
 30
0.0
 10
119.049539
 20
79.786175
 30
0.0
  0
SPLINE
  5
118
100
AcDbEntity
  8
0
 62
7
100
AcDbSpline
 70
8
 71
3
 72
8
 73
4
 74
0
 40
0
 40
0
 40
0
 40
0
 40
1
 40
1
 40
1
 40
1
 10
119.049539
 20
79.786175
 30
0.0
 10
120.156026
 20
81.772667
 30
0.0
 10
121.633724
 20
86.384355
 30
0.0
 10
122.324552
 20
88.400744
 30
0.0
  0
LWPOLYLINE
  5
119
100
AcDbEntity
  8
0
 62
7
100
AcDbPolyline
 90
2
 70
0
 10
132.255952
 20
114.707208
 30
0.0
 10
120.473526
 20
108.548501
 30
0.0
  0
SPLINE
  5
11a
100
AcDbEntity
  8
0
 62
7
100
AcDbSpline
 70
8
 71
3
 72
8
 73
4
 74
0
 40
0
 40
0
 40
0
 40
0
 40
1
 40
1
 40
1
 40
1
 10
77.071011
 20
32.628693
 30
0.0
 10
88.831211
 20
32.954924
 30
0.0
 10
100.677930
 20
36.161939
 30
0.0
 10
111.546485
 20
42.525697
 30
0.0
  0
SPLINE
  5
11b
100
AcDbEntity
  8
0
 62
7
100
AcDbSpline
 70
8
 71
3
 72
8
 73
4
 74
0
 40
0
 40
0
 40
0
 40
0
 40
1
 40
1
 40
1
 40
1
 10
111.546485
 20
42.525697
 30
0.0
 10
145.315256
 20
62.299598
 30
0.0
 10
157.117525
 20
105.193585
 30
0.0
 10
138.611773
 20
139.342298
 30
0.0
  0
LWPOLYLINE
  5
11c
100
AcDbEntity
  8
0
 62
7
100
AcDbPolyline
 90
5
 70
0
 10
122.324552
 20
88.400744
 30
0.0
 10
132.362314
 20
94.203586
 30
0.0
 10
132.302783
 20
72.170938
 30
0.0
 10
77.044288
 20
39.899708
 30
0.0
 10
77.071011
 20
32.628693
 30
0.0
  0
LWPOLYLINE
  5
11d
100
AcDbEntity
  8
0
 62
7
100
AcDbPolyline
 90
3
 70
0
 10
138.611773
 20
139.342298
 30
0.0
 10
132.255952
 20
135.852179
 30
0.0
 10
132.255952
 20
114.707208
 30
0.0
  0
LWPOLYLINE
  5
11e
100
AcDbEntity
  8
0
 62
7
100
AcDbPolyline
 90
10
 70
1
 10
13.803842
 20
26.070455
 30
0.0
 10
27.975455
 20
26.070455
 30
0.0
 10
27.975455
 20
21.770976
 30
0.0
 10
19.066669
 20
21.770976
 30
0.0
 10
19.066669
 20
16.473753
 30
0.0
 10
27.390726
 20
16.473753
 30
0.0
 10
27.390726
 20
12.208669
 30
0.0
 10
19.066669
 20
12.208669
 30
0.0
 10
19.066669
 20
2.887133
 30
0.0
 10
13.803842
 20
2.887133
 30
0.0
  0
LWPOLYLINE
  5
11f
100
AcDbEntity
  8
0
 62
7
100
AcDbPolyline
 90
8
 70
1
 10
35.026601
 20
8.837877
 30
0.0
 10
33.375601
 20
2.887133
 30
0.0
 10
27.940795
 20
2.887133
 30
0.0
 10
35.026601
 20
26.070720
 30
0.0
 10
41.906032
 20
26.070720
 30
0.0
 10
49.095026
 20
2.887133
 30
0.0
 10
43.453845
 20
2.887133
 30
0.0
 10
41.665262
 20
8.837877
 30
0.0
  0
SPLINE
  5
120
100
AcDbEntity
  8
0
 62
7
100
AcDbSpline
 70
8
 71
3
 72
8
 73
4
 74
0
 40
0
 40
0
 40
0
 40
0
 40
1
 40
1
 40
1
 40
1
 10
39.463928
 20
17.677871
 30
0.0
 10
39.051178
 20
19.053705
 30
0.0
 10
38.638428
 20
20.773496
 30
0.0
 10
38.294470
 20
22.149330
 30
0.0
  0
LWPOLYLINE
  5
121
100
AcDbEntity
  8
0
 62
7
100
AcDbPolyline
 90
2
 70
0
 10
40.908553
 20
12.759002
 30
0.0
 10
39.463928
 20
17.677871
 30
0.0
  0
SPLINE
  5
122
100
AcDbEntity
  8
0
 62
7
100
AcDbSpline
 70
8
 71
3
 72
8
 73
4
 74
0
 40
0
 40
0
 40
0
 40
0
 40
1
 40
1
 40
1
 40
1
 10
38.225678
 20
22.149330
 30
0.0
 10
37.881720
 20
20.773496
 30
0.0
 10
37.537762
 20
19.019309
 30
0.0
 10
37.159407
 20
17.677871
 30
0.0
  0
LWPOLYLINE
  5
123
100
AcDbEntity
  8
0
 62
7
100
AcDbPolyline
 90
2
 70
0
 10
38.294470
 20
22.149330
 30
0.0
 10
38.225678
 20
22.149330
 30
0.0
  0
SPLINE
  5
124
100
AcDbEntity
  8
0
 62
7
100
AcDbSpline
 70
8
 71
3
 72
8
 73
4
 74
0
 40
0
 40
0
 40
0
 40
0
 40
1
 40
1
 40
1
 40
1
 10
52.189329
 20
25.760892
 30
0.0
 10
53.565162
 20
26.036059
 30
0.0
 10
56.351489
 20
26.242434
 30
0.0
 10
58.965573
 20
26.242434
 30
0.0
  0
SPLINE
  5
125
100
AcDbEntity
  8
0
 62
7
100
AcDbSpline
 70
8
 71
3
 72
8
 73
4
 74
0
 40
0
 40
0
 40
0
 40
0
 40
1
 40
1
 40
1
 40
1
 10
58.965573
 20
26.242434
 30
0.0
 10
62.164385
 20
26.242434
 30
0.0
 10
64.124948
 20
25.932872
 30
0.0
 10
65.810608
 20
24.935392
 30
0.0
  0
SPLINE
  5
126
100
AcDbEntity
  8
0
 62
7
100
AcDbSpline
 70
8
 71
3
 72
8
 73
4
 74
0
 40
0
 40
0
 40
0
 40
0
 40
1
 40
1
 40
1
 40
1
 10
65.810608
 20
24.935392
 30
0.0
 10
67.427212
 20
24.075497
 30
0.0
 10
68.596671
 20
22.493288
 30
0.0
 10
68.596671
 20
20.395142
 30
0.0
  0
SPLINE
  5
127
100
AcDbEntity
  8
0
 62
7
100
AcDbSpline
 70
8
 71
3
 72
8
 73
4
 74
0
 40
0
 40
0
 40
0
 40
0
 40
1
 40
1
 40
1
 40
1
 10
68.596671
 20
20.395142
 30
0.0
 10
68.596671
 20
18.331128
 30
0.0
 10
67.392817
 20
16.404961
 30
0.0
 10
64.778469
 20
15.441878
 30
0.0
  0
LWPOLYLINE
  5
128
100
AcDbEntity
  8
0
 62
7
100
AcDbPolyline
 90
3
 70
0
 10
37.159407
 20
17.677871
 30
0.0
 10
35.783574
 20
12.759002
 30
0.0
 10
40.908553
 20
12.759002
 30
0.0
  0
SPLINE
  5
129
100
AcDbEntity
  8
0
 62
7
100
AcDbSpline
 70
8
 71
3
 72
8
 73
4
 74
0
 40
0
 40
0
 40
0
 40
0
 40
1
 40
1
 40
1
 40
1
 10
64.778469
 20
15.372821
 30
0.0
 10
67.426948
 20
14.650773
 30
0.0
 10
69.387775
 20
12.655550
 30
0.0
 10
69.387775
 20
9.663113
 30
0.0
  0
SPLINE
  5
12a
100
AcDbEntity
  8
0
 62
7
100
AcDbSpline
 70
8
 71
3
 72
8
 73
4
 74
0
 40
0
 40
0
 40
0
 40
0
 40
1
 40
1
 40
1
 40
1
 10
69.387775
 20
9.663113
 30
0.0
 10
69.387775
 20
7.564702
 30
0.0
 10
68.424427
 20
5.913702
 30
0.0
 10
66.979802
 20
4.744244
 30
0.0
  0
SPLINE
  5
12b
100
AcDbEntity
  8
0
 62
7
100
AcDbSpline
 70
8
 71
3
 72
8
 73
4
 74
0
 40
0
 40
0
 40
0
 40
0
 40
1
 40
1
 40
1
 40
1
 10
66.979802
 20
4.744244
 30
0.0
 10
65.294406
 20
3.402806
 30
0.0
 10
62.473683
 20
2.645833
 30
0.0
 10
57.864641
 20
2.645833
 30
0.0
  0
SPLINE
  5
12c
100
AcDbEntity
  8
0
 62
7
100
AcDbSpline
 70
8
 71
3
 72
8
 73
4
 74
0
 40
0
 40
0
 40
0
 40
0
 40
1
 40
1
 40
1
 40
1
 10
57.864641
 20
2.645833
 30
0.0
 10
55.284954
 20
2.645833
 30
0.0
 10
53.358522
 20
2.817813
 30
0.0
 10
52.189064
 20
2.989792
 30
0.0
  0
LWPOLYLINE
  5
12d
100
AcDbEntity
  8
0
 62
7
100
AcDbPolyline
 90
2
 70
0
 10
64.778469
 20
15.441878
 30
0.0
 10
64.778469
 20
15.372821
 30
0.0
  0
LWPOLYLINE
  5
12e
100
AcDbEntity
  8
0
 62
7
100
AcDbPolyline
 90
3
 70
0
 10
52.189064
 20
2.989792
 30
0.0
 10
52.189064
 20
25.760892
 30
0.0
 10
52.189329
 20
25.760892
 30
0.0
  0
SPLINE
  5
12f
100
AcDbEntity
  8
0
 62
7
100
AcDbSpline
 70
8
 71
3
 72
8
 73
4
 74
0
 40
0
 40
0
 40
0
 40
0
 40
1
 40
1
 40
1
 40
1
 10
59.103156
 20
16.886503
 30
0.0
 10
61.854823
 20
16.886503
 30
0.0
 10
63.334108
 20
18.021565
 30
0.0
 10
63.334108
 20
19.741357
 30
0.0
  0
SPLINE
  5
130
100
AcDbEntity
  8
0
 62
7
100
AcDbSpline
 70
8
 71
3
 72
8
 73
4
 74
0
 40
0
 40
0
 40
0
 40
0
 40
1
 40
1
 40
1
 40
1
 10
63.334108
 20
19.741357
 30
0.0
 10
63.334108
 20
21.495809
 30
0.0
 10
61.992671
 20
22.424496
 30
0.0
 10
59.619093
 20
22.424496
 30
0.0
  0
SPLINE
  5
131
100
AcDbEntity
  8
0
 62
7
100
AcDbSpline
 70
8
 71
3
 72
8
 73
4
 74
0
 40
0
 40
0
 40
0
 40
0
 40
1
 40
1
 40
1
 40
1
 10
59.619093
 20
22.424496
 30
0.0
 10
58.484031
 20
22.424496
 30
0.0
 10
57.830510
 20
22.355705
 30
0.0
 10
57.383364
 20
22.286649
 30
0.0
  0
LWPOLYLINE
  5
132
100
AcDbEntity
  8
0
 62
7
100
AcDbPolyline
 90
2
 70
0
 10
57.383364
 20
16.886503
 30
0.0
 10
59.103156
 20
16.886503
 30
0.0
  0
SPLINE
  5
133
100
AcDbEntity
  8
0
 62
7
100
AcDbSpline
 70
8
 71
3
 72
8
 73
4
 74
0
 40
0
 40
0
 40
0
 40
0
 40
1
 40
1
 40
1
 40
1
 10
57.383364
 20
6.601884
 30
0.0
 10
57.899302
 20
6.532827
 30
0.0
 10
58.518427
 20
6.532827
 30
0.0
 10
59.412718
 20
6.532827
 30
0.0
  0
SPLINE
  5
134
100
AcDbEntity
  8
0
 62
7
100
AcDbSpline
 70
8
 71
3
 72
8
 73
4
 74
0
 40
0
 40
0
 40
0
 40
0
 40
1
 40
1
 40
1
 40
1
 10
59.412718
 20
6.532827
 30
0.0
 10
61.786031
 20
6.532827
 30
0.0
 10
63.884441
 20
7.427119
 30
0.0
 10
63.884441
 20
9.869223
 30
0.0
  0
SPLINE
  5
135
100
AcDbEntity
  8
0
 62
7
100
AcDbSpline
 70
8
 71
3
 72
8
 73
4
 74
0
 40
0
 40
0
 40
0
 40
0
 40
1
 40
1
 40
1
 40
1
 10
63.884441
 20
9.869223
 30
0.0
 10
63.884441
 20
12.208405
 30
0.0
 10
61.786031
 20
13.137092
 30
0.0
 10
59.171948
 20
13.137092
 30
0.0
  0
LWPOLYLINE
  5
136
100
AcDbEntity
  8
0
 62
7
100
AcDbPolyline
 90
2
 70
0
 10
57.383364
 20
22.286649
 30
0.0
 10
57.383364
 20
16.886503
 30
0.0
  0
LWPOLYLINE
  5
137
100
AcDbEntity
  8
0
 62
7
100
AcDbPolyline
 90
3
 70
0
 10
59.171948
 20
13.137092
 30
0.0
 10
57.383364
 20
13.137092
 30
0.0
 10
57.383364
 20
6.601884
 30
0.0
  0
LWPOLYLINE
  5
138
100
AcDbEntity
  8
0
 62
7
100
AcDbPolyline
 90
7
 70
1
 10
79.912107
 20
26.070455
 30
0.0
 10
85.174934
 20
26.070455
 30
0.0
 10
85.174934
 20
7.289800
 30
0.0
 10
94.393547
 20
7.289800
 30
0.0
 10
94.393547
 20
2.886869
 30
0.0
 10
79.912371
 20
2.886869
 30
0.0
 10
79.912371
 20
26.070455
 30
0.0
  0
LWPOLYLINE
  5
139
100
AcDbEntity
  8
0
 62
7
100
AcDbPolyline
 90
8
 70
1
 10
103.094634
 20
8.837877
 30
0.0
 10
101.443634
 20
2.887133
 30
0.0
 10
96.008828
 20
2.887133
 30
0.0
 10
103.094634
 20
26.070720
 30
0.0
 10
109.973801
 20
26.070720
 30
0.0
 10
117.163060
 20
2.887133
 30
0.0
 10
111.521878
 20
2.887133
 30
0.0
 10
109.733030
 20
8.837877
 30
0.0
  0
SPLINE
  5
13a
100
AcDbEntity
  8
0
 62
7
100
AcDbSpline
 70
8
 71
3
 72
8
 73
4
 74
0
 40
0
 40
0
 40
0
 40
0
 40
1
 40
1
 40
1
 40
1
 10
107.531432
 20
17.677871
 30
0.0
 10
107.118682
 20
19.053705
 30
0.0
 10
106.706197
 20
20.773496
 30
0.0
 10
106.361974
 20
22.149330
 30
0.0
  0
LWPOLYLINE
  5
13b
100
AcDbEntity
  8
0
 62
7
100
AcDbPolyline
 90
2
 70
0
 10
108.976322
 20
12.759002
 30
0.0
 10
107.531432
 20
17.677871
 30
0.0
  0
SPLINE
  5
13c
100
AcDbEntity
  8
0
 62
7
100
AcDbSpline
 70
8
 71
3
 72
8
 73
4
 74
0
 40
0
 40
0
 40
0
 40
0
 40
1
 40
1
 40
1
 40
1
 10
106.293182
 20
22.149330
 30
0.0
 10
105.949224
 20
20.773496
 30
0.0
 10
105.605266
 20
19.019309
 30
0.0
 10
105.226911
 20
17.677871
 30
0.0
  0
LWPOLYLINE
  5
13d
100
AcDbEntity
  8
0
 62
7
100
AcDbPolyline
 90
2
 70
0
 10
106.361974
 20
22.149330
 30
0.0
 10
106.293182
 20
22.149330
 30
0.0
  0
SPLINE
  5
13e
100
AcDbEntity
  8
0
 62
7
100
AcDbSpline
 70
8
 71
3
 72
8
 73
4
 74
0
 40
0
 40
0
 40
0
 40
0
 40
1
 40
1
 40
1
 40
1
 10
120.257362
 20
25.760892
 30
0.0
 10
121.633195
 20
26.036059
 30
0.0
 10
124.419258
 20
26.242434
 30
0.0
 10
127.033606
 20
26.242434
 30
0.0
  0
SPLINE
  5
13f
100
AcDbEntity
  8
0
 62
7
100
AcDbSpline
 70
8
 71
3
 72
8
 73
4
 74
0
 40
0
 40
0
 40
0
 40
0
 40
1
 40
1
 40
1
 40
1
 10
127.033606
 20
26.242434
 30
0.0
 10
130.232418
 20
26.242434
 30
0.0
 10
132.193246
 20
25.932872
 30
0.0
 10
133.878641
 20
24.935392
 30
0.0
  0
SPLINE
  5
140
100
AcDbEntity
  8
0
 62
7
100
AcDbSpline
 70
8
 71
3
 72
8
 73
4
 74
0
 40
0
 40
0
 40
0
 40
0
 40
1
 40
1
 40
1
 40
1
 10
133.878641
 20
24.935392
 30
0.0
 10
135.495246
 20
24.075497
 30
0.0
 10
136.664704
 20
22.493288
 30
0.0
 10
136.664704
 20
20.395142
 30
0.0
  0
SPLINE
  5
141
100
AcDbEntity
  8
0
 62
7
100
AcDbSpline
 70
8
 71
3
 72
8
 73
4
 74
0
 40
0
 40
0
 40
0
 40
0
 40
1
 40
1
 40
1
 40
1
 10
136.664704
 20
20.395142
 30
0.0
 10
136.664704
 20
18.331128
 30
0.0
 10
135.460850
 20
16.404961
 30
0.0
 10
132.846502
 20
15.441878
 30
0.0
  0
LWPOLYLINE
  5
142
100
AcDbEntity
  8
0
 62
7
100
AcDbPolyline
 90
3
 70
0
 10
105.226911
 20
17.677871
 30
0.0
 10
103.851078
 20
12.759002
 30
0.0
 10
108.976322
 20
12.759002
 30
0.0
  0
SPLINE
  5
143
100
AcDbEntity
  8
0
 62
7
100
AcDbSpline
 70
8
 71
3
 72
8
 73
4
 74
0
 40
0
 40
0
 40
0
 40
0
 40
1
 40
1
 40
1
 40
1
 10
132.846502
 20
15.372821
 30
0.0
 10
135.495246
 20
14.650773
 30
0.0
 10
137.455808
 20
12.655550
 30
0.0
 10
137.455808
 20
9.663113
 30
0.0
  0
SPLINE
  5
144
100
AcDbEntity
  8
0
 62
7
100
AcDbSpline
 70
8
 71
3
 72
8
 73
4
 74
0
 40
0
 40
0
 40
0
 40
0
 40
1
 40
1
 40
1
 40
1
 10
137.455808
 20
9.663113
 30
0.0
 10
137.455808
 20
7.564702
 30
0.0
 10
136.492460
 20
5.913702
 30
0.0
 10
135.047835
 20
4.744244
 30
0.0
  0
SPLINE
  5
145
100
AcDbEntity
  8
0
 62
7
100
AcDbSpline
 70
8
 71
3
 72
8
 73
4
 74
0
 40
0
 40
0
 40
0
 40
0
 40
1
 40
1
 40
1
 40
1
 10
135.047835
 20
4.744244
 30
0.0
 10
133.362439
 20
3.402806
 30
0.0
 10
130.541981
 20
2.645833
 30
0.0
 10
125.932675
 20
2.645833
 30
0.0
  0
SPLINE
  5
146
100
AcDbEntity
  8
0
 62
7
100
AcDbSpline
 70
8
 71
3
 72
8
 73
4
 74
0
 40
0
 40
0
 40
0
 40
0
 40
1
 40
1
 40
1
 40
1
 10
125.932675
 20
2.645833
 30
0.0
 10
123.352987
 20
2.645833
 30
0.0
 10
121.426556
 20
2.817813
 30
0.0
 10
120.257097
 20
2.989792
 30
0.0
  0
LWPOLYLINE
  5
147
100
AcDbEntity
  8
0
 62
7
100
AcDbPolyline
 90
2
 70
0
 10
132.846502
 20
15.441878
 30
0.0
 10
132.846502
 20
15.372821
 30
0.0
  0
LWPOLYLINE
  5
148
100
AcDbEntity
  8
0
 62
7
100
AcDbPolyline
 90
3
 70
0
 10
120.257097
 20
2.989792
 30
0.0
 10
120.257097
 20
25.760892
 30
0.0
 10
120.257362
 20
25.760892
 30
0.0
  0
SPLINE
  5
149
100
AcDbEntity
  8
0
 62
7
100
AcDbSpline
 70
8
 71
3
 72
8
 73
4
 74
0
 40
0
 40
0
 40
0
 40
0
 40
1
 40
1
 40
1
 40
1
 10
127.171189
 20
16.886503
 30
0.0
 10
129.922856
 20
16.886503
 30
0.0
 10
131.402141
 20
18.021565
 30
0.0
 10
131.402141
 20
19.741357
 30
0.0
  0
SPLINE
  5
14a
100
AcDbEntity
  8
0
 62
7
100
AcDbSpline
 70
8
 71
3
 72
8
 73
4
 74
0
 40
0
 40
0
 40
0
 40
0
 40
1
 40
1
 40
1
 40
1
 10
131.402141
 20
19.741357
 30
0.0
 10
131.402141
 20
21.495809
 30
0.0
 10
130.060704
 20
22.424496
 30
0.0
 10
127.687127
 20
22.424496
 30
0.0
  0
SPLINE
  5
14b
100
AcDbEntity
  8
0
 62
7
100
AcDbSpline
 70
8
 71
3
 72
8
 73
4
 74
0
 40
0
 40
0
 40
0
 40
0
 40
1
 40
1
 40
1
 40
1
 10
127.687127
 20
22.424496
 30
0.0
 10
126.552064
 20
22.424496
 30
0.0
 10
125.898543
 20
22.355705
 30
0.0
 10
125.451397
 20
22.286649
 30
0.0
  0
LWPOLYLINE
  5
14c
100
AcDbEntity
  8
0
 62
7
100
AcDbPolyline
 90
2
 70
0
 10
125.451397
 20
16.886503
 30
0.0
 10
127.171189
 20
16.886503
 30
0.0
  0
SPLINE
  5
14d
100
AcDbEntity
  8
0
 62
7
100
AcDbSpline
 70
8
 71
3
 72
8
 73
4
 74
0
 40
0
 40
0
 40
0
 40
0
 40
1
 40
1
 40
1
 40
1
 10
125.451397
 20
6.601884
 30
0.0
 10
125.967335
 20
6.532827
 30
0.0
 10
126.586460
 20
6.532827
 30
0.0
 10
127.480752
 20
6.532827
 30
0.0
  0
SPLINE
  5
14e
100
AcDbEntity
  8
0
 62
7
100
AcDbSpline
 70
8
 71
3
 72
8
 73
4
 74
0
 40
0
 40
0
 40
0
 40
0
 40
1
 40
1
 40
1
 40
1
 10
127.480752
 20
6.532827
 30
0.0
 10
129.854329
 20
6.532827
 30
0.0
 10
131.952475
 20
7.427119
 30
0.0
 10
131.952475
 20
9.869223
 30
0.0
  0
SPLINE
  5
14f
100
AcDbEntity
  8
0
 62
7
100
AcDbSpline
 70
8
 71
3
 72
8
 73
4
 74
0
 40
0
 40
0
 40
0
 40
0
 40
1
 40
1
 40
1
 40
1
 10
131.952475
 20
9.869223
 30
0.0
 10
131.952475
 20
12.208405
 30
0.0
 10
129.854064
 20
13.137092
 30
0.0
 10
127.239716
 20
13.137092
 30
0.0
  0
LWPOLYLINE
  5
150
100
AcDbEntity
  8
0
 62
7
100
AcDbPolyline
 90
2
 70
0
 10
125.451397
 20
22.286649
 30
0.0
 10
125.451397
 20
16.886503
 30
0.0
  0
LWPOLYLINE
  5
151
100
AcDbEntity
  8
0
 62
7
100
AcDbPolyline
 90
4
 70
0
 10
127.239716
 20
13.137092
 30
0.0
 10
125.451133
 20
13.137092
 30
0.0
 10
125.451133
 20
6.601884
 30
0.0
 10
125.451397
 20
6.601884
 30
0.0
  0
ENDSEC
  0
SECTION
  2
OBJECTS
  0
DICTIONARY
  5
C
330
0
100
AcDbDictionary
  3
ACAD_GROUP
350
D
  3
ACAD_MLINESTYLE
350
17
  0
DICTIONARY
  5
D
330
C
100
AcDbDictionary
  0
DICTIONARY
  5
1A
330
C
100
AcDbDictionary
  0
DICTIONARY
  5
17
330
C
100
AcDbDictionary
  3
STANDARD
350
18
  0
DICTIONARY
  5
19
330
C
100
AcDbDictionary
  0
ENDSEC
  0
EOF
