0
SECTION
2
HEADER
9
$INSUNITS
70
4
9
$ACADVER
1
AC1014
9
$HANDSEED
5
FFFF
0
ENDSEC
0
SECTION
2
TABLES
0
TABLE
2
VPORT
5
8
100
AcDbSymbolTable
0
ENDTAB
0
TABLE
2
LTYPE
5
5
100
AcDbSymbolTable
0
LTYPE
5
14
100
AcDbSymbolTableRecord
100
AcDbLinetypeTableRecord
2
BYBLOCK
70
0
0
LTYPE
5
15
100
AcDbSymbolTableRecord
100
AcDbLinetypeTableRecord
2
BYLAYER
70
0
0
ENDTAB
0
TABLE
2
LAYER
5
2
100
AcDbSymbolTable
70
2
0
LAYER
5
50
100
AcDbSymbolTableRecord
100
AcDbLayerTableRecord
2
0
70
0
6
CONTINUOUS
0
ENDTAB
0
TABLE
2
STYLE
5
3
100
AcDbSymbolTable
70
1
0
STYLE
5
11
100
AcDbSymbolTableRecord
100
AcDbTextStyleTableRecord
2
STANDARD
70
0
0
ENDTAB
0
TABLE
2
VIEW
5
6
100
AcDbSymbolTable
70
0
0
ENDTAB
0
TABLE
2
UCS
5
7
100
AcDbSymbolTable
70
0
0
ENDTAB
0
TABLE
2
APPID
5
9
100
AcDbSymbolTable
70
2
0
APPID
5
12
100
AcDbSymbolTableRecord
100
AcDbRegAppTableRecord
2
ACAD
70
0
0
ENDTAB
0
TABLE
2
DIMSTYLE
5
A
100
AcDbSymbolTable
70
1
0
ENDTAB
0
TABLE
2
BLOCK_RECORD
5
1
100
AcDbSymbolTable
70
1
0
BLOCK_RECORD
5
1F
100
AcDbSymbolTableRecord
100
AcDbBlockTableRecord
2
*MODEL_SPACE
0
BLOCK_RECORD
5
1B
100
AcDbSymbolTableRecord
100
AcDbBlockTableRecord
2
*PAPER_SPACE
0
ENDTAB
0
ENDSEC
0
SECTION
2
BLOCKS
0
BLOCK
5
20
100
AcDbEntity
100
AcDbBlockBegin
2
*MODEL_SPACE
0
ENDBLK
5
21
100
AcDbEntity
100
AcDbBlockEnd
0
BLOCK
5
1C
100
AcDbEntity
100
AcDbBlockBegin
2
*PAPER_SPACE
0
ENDBLK
5
1D
100
AcDbEntity
100
AcDbBlockEnd
0
ENDSEC
0
SECTION
2
ENTITIES
0
LWPOLYLINE
5
100
100
AcDbEntity
8
OUTER_PROFILES
100
AcDbPolyline
90
118
70
1
43
0.0
10
-84.028318530746418
20
269.71415926535872
10
-77.228318530746208
20
269.71415926535872
10
-76.914159265386886
20
269.71415926535872
10
-7.3141592653867349
20
269.71415926535877
10
4.6185277824406512e-13
20
269.71415926535872
10
3.1974423109204508e-13
20
270.02831853071768
10
-0.31415926535299121
20
270.02831853071774
10
-60.114159265353031
20
270.02831853071791
10
-60.114159265352889
20
339.62831853071793
10
-0.31415926535299121
20
339.62831853071782
10
-0.31415926535267147
20
339.42831853071777
10
7.0999999999870056
20
339.42831853071772
10
7.0999999999869701
20
339.7424777960768
10
7.0999999999869701
20
339.84247779607273
10
6.7858407346280813
20
339.86996317033334
10
-54.626772014414051
20
345.242870583382
42
-0.38887873185298494
10
-62.614159265371903
20
353.95957419168485
10
-62.614159265371754
20
525.52538140046056
42
-0.38887873185300487
10
-54.626772014413724
20
534.24208500876375
10
6.7858407346281169
20
539.61499242181253
10
7.0999999999867924
20
539.64247779607274
10
7.0999999999867569
20
543.34247779607676
10
7.0999999999869345
20
543.65663706143437
10
-3.500000000012804
20
543.65663706143403
10
-3.8141592653716927
20
543.65663706143448
10
-60.815537631032051
20
543.65663706143448
42
-0.45984662274667693
10
-69.462986234345024
20
553.74235134714911
42
-0.35573051317518234
10
-3.8141592653707557
20
612.96753550155677
42
-0.012615886034542324
10
-0.28339740784193879
20
613.05663706143196
10
117.49999999998946
20
613.05663706141809
10
117.49999999998948
20
607.75663706140313
10
120.89999999998949
20
607.75663706140313
10
121.04873072798352
20
609.45663706140306
10
121.07621610224416
20
609.77079632676305
10
124.01519294683149
20
643.36345537700083
42
-0.38887873185299265
10
130.78931689385539
20
649.57079632631678
10
174.81068310612355
20
649.57079632631701
42
-0.3888787318529926
10
181.58480705314741
20
643.36345537700095
10
184.52378389773483
20
609.77079632676316
10
184.55126927199541
20
609.45663706140317
10
184.69999999998947
20
607.75663706140324
10
188.09999999998948
20
607.75663706140324
10
188.09999999998945
20
613.0566370614182
10
305.88339740782544
20
613.05663706143241
42
-0.012615886034546726
10
309.41415926535547
20
612.96753550155688
42
-0.35573051317517795
10
375.06298623432878
20
553.74235134714911
42
-0.45984662274667082
10
366.41553763101592
20
543.65663706143448
10
309.41415926535547
20
543.65663706143437
10
309.09999999999638
20
543.65663706143437
10
298.49999999999659
20
543.65663706143459
10
298.49999999999648
20
543.34247779607676
10
298.49999999999648
20
539.64247779607285
10
298.81415926535556
20
539.61499242181253
10
360.22677201439001
20
534.24208500876443
42
-0.38887873185296973
10
368.21415926534792
20
525.52538140046204
10
368.21415926536315
20
353.9595741916923
42
-0.38887873185298366
10
360.22677201440604
20
345.24287058338894
10
298.81415926535561
20
339.8699631703339
10
298.49999999999659
20
339.84247779607296
10
298.49999999999659
20
339.74247779607686
10
298.49999999999676
20
339.42831853071772
10
305.91415926533671
20
339.42831853071766
10
305.91415926533602
20
339.62831853071771
10
365.71415926533587
20
339.62831853071782
10
365.71415926533621
20
270.02831853071785
10
305.91415926533614
20
270.02831853071774
10
305.5999999999795
20
270.02831853071774
10
305.5999999999795
20
269.71415926535872
10
312.91415926535257
20
269.71415926535855
10
382.51415926535259
20
269.71415926535838
10
382.82831853071161
20
269.71415926535838
10
389.62831853071179
20
269.71415926535838
10
389.94247779607076
20
269.71415926535838
10
459.54247779607067
20
269.71415926535809
10
459.54247779607135
20
229.61415926535821
10
463.14247779607149
20
229.61415926535813
10
463.14247779607126
20
189.81415926535814
10
459.5424777960713
20
189.8141592653582
10
459.54247779607124
20
149.61415926535815
10
463.1424777960712
20
149.61415926535818
10
463.14247779607109
20
109.81415926535816
10
459.54247779607113
20
109.81415926535817
10
459.54247779607078
20
69.714159265358106
10
389.94247779607008
20
69.71415926535839
10
389.62831853071094
20
69.714159265358319
10
382.82831853071082
20
69.714159265358276
10
382.51415926535202
20
69.714159265358404
10
312.91415926535171
20
69.714159265358589
10
305.59999999997848
20
69.714159265358745
10
305.59999999997842
20
69.40000000000002
10
305.91415926533739
20
69.400000000000006
10
365.71415926533746
20
69.40000000000002
10
365.7141592653374
20
7.9936057773011271e-14
10
305.91415926533745
20
8.8817841970012523e-15
10
305.59999999997837
20
8.8817841970012523e-15
10
0
20
0
10
-0.31415926535885319
20
4.4408920985006262e-14
10
-60.114159265358857
20
8.8817841970012523e-15
10
-60.114159265358929
20
69.400000000000034
10
-0.31415926535885319
20
69.400000000000063
10
7.1054273576010019e-14
20
69.400000000000034
10
1.0658141036401503e-13
20
69.714159265358731
10
-7.3141592653866283
20
69.714159265358703
10
-76.914159265386601
20
69.714159265358703
10
-77.228318530745739
20
69.714159265358674
10
-84.028318530745807
20
69.714159265358703
10
-84.342477796105015
20
69.714159265358703
10
-153.94247779610487
20
69.71415926535856
10
-153.94247779610515
20
109.81415926535848
10
-157.54247779610523
20
109.81415926535847
10
-157.54247779610529
20
149.6141592653585
10
-153.94247779610538
20
149.61415926535847
10
-153.94247779610572
20
189.81415926535848
10
-157.54247779610566
20
189.81415926535846
10
-157.54247779610586
20
229.61415926535847
10
-153.94247779610589
20
229.61415926535852
10
-153.94247779610609
20
269.71415926535855
10
-84.342477796105271
20
269.71415926535872
0
LWPOLYLINE
5
101
100
AcDbEntity
8
INTERIOR_PROFILES
100
AcDbPolyline
90
6
70
1
43
0.0
10
184.79999999998952
20
65.914159265358933
10
184.7999999999895
20
69.400000000000063
10
184.79999999998952
20
73.514159265358757
10
120.79999999998952
20
73.514159265358657
10
120.79999999998952
20
69.40000000000002
10
120.79999999998954
20
65.914159265358904
0
LWPOLYLINE
5
102
100
AcDbEntity
8
INTERIOR_PROFILES
100
AcDbPolyline
90
4
70
1
43
0.0
10
301.99999999998289
20
149.71415926535872
10
301.99999999998283
20
109.71415926535872
10
305.79999999998284
20
109.71415926535872
10
305.79999999998284
20
149.71415926535872
0
LWPOLYLINE
5
103
100
AcDbEntity
8
INTERIOR_PROFILES
100
AcDbPolyline
90
4
70
1
43
0.0
10
-0.19999999999964047
20
109.7141592653588
10
3.6000000000003496
20
109.7141592653588
10
3.6000000000003851
20
149.7141592653588
10
-0.19999999999960494
20
149.7141592653588
0
LWPOLYLINE
5
104
100
AcDbEntity
8
INTERIOR_PROFILES
100
AcDbPolyline
90
4
70
1
43
0.0
10
305.79999999998284
20
229.71415926535872
10
301.99999999998289
20
229.71415926535872
10
301.99999999998289
20
189.71415926535872
10
305.79999999998284
20
189.71415926535872
0
LWPOLYLINE
5
105
100
AcDbEntity
8
INTERIOR_PROFILES
100
AcDbPolyline
90
4
70
1
43
0.0
10
-0.19999999999960494
20
229.7141592653588
10
-0.19999999999960494
20
189.7141592653588
10
3.6000000000003851
20
189.7141592653588
10
3.6000000000003851
20
229.7141592653588
0
LINE
5
106
100
AcDbEntity
8
BEND
100
AcDbLine
10
184.53752658492908
20
609.61371669335165
30
3.3600357288238575e-07
11
121.06247341504982
21
609.61371669335165
31
3.3600346238615756e-07
0
LINE
5
107
100
AcDbEntity
8
BEND
100
AcDbLine
10
-3.6570796326111576
20
612.9752917127214
30
3.5192235276049673e-07
11
-3.6570796326111932
21
543.65663706143425
31
1.0961609861098763e-07
0
LINE
5
108
100
AcDbEntity
8
BEND
100
AcDbLine
10
309.25707963267587
20
543.65663706143437
30
1.0961618195253677e-07
11
309.25707963267587
21
612.97529171271765
31
3.5192843980041755e-07
0
LINE
5
109
100
AcDbEntity
8
BEND
100
AcDbLine
10
298.49999999999653
20
543.49955742875568
30
1.0961984743922383e-07
11
7.099999999986828
21
543.49955742875557
31
1.0961971054256185e-07
0
LINE
5
110
100
AcDbEntity
8
BEND
100
AcDbLine
10
6.9429203673085738
20
539.62873510894281
30
1.0764781331810032e-07
11
6.9429203673086093
21
339.856220483203
31
2.2334644458248497e-09
0
LINE
5
111
100
AcDbEntity
8
BEND
100
AcDbLine
10
298.65707963267607
20
339.85622048320351
30
2.2334330046025644e-09
11
298.65707963267602
21
539.62873510894258
31
1.0764762208879324e-07
0
LINE
5
112
100
AcDbEntity
8
BEND
100
AcDbLine
10
389.7853981633906
20
69.71415926535829
30
-3.2199285245309434e-08
11
389.78539816339122
21
269.71415926535832
31
-3.2199427869539814e-08
0
LINE
5
113
100
AcDbEntity
8
BEND
100
AcDbLine
10
-84.185398163425845
20
269.71415926535872
30
9.8551360546040851e-08
11
-84.185398163425518
21
69.714159265358688
31
9.8551192304841945e-08
0
LINE
5
114
100
AcDbEntity
8
BEND
100
AcDbLine
10
-0.15707963269882441
20
339.42831853071772
30
2.1718958228491536e-09
11
-0.15707963269882441
21
270.02831853071774
31
8.2997151018920003e-09
0
LINE
5
115
100
AcDbEntity
8
BEND
100
AcDbLine
10
305.75707963265791
20
0
30
-7.3050955619759786e-14
11
305.75707963265791
21
69.400000000000006
31
8.2998682388576423e-09
0
LINE
5
116
100
AcDbEntity
8
BEND
100
AcDbLine
10
305.75707963265779
20
270.02831853071768
30
8.2999370732230002e-09
11
305.75707963265779
21
339.42831853071766
31
2.1719003910472683e-09
0
LINE
5
117
100
AcDbEntity
8
BEND
100
AcDbLine
10
312.75707963267666
20
69.71415926535856
30
8.2997536615780106e-09
11
312.75707963267746
21
269.71415926535872
31
8.2996574024024781e-09
0
LINE
5
118
100
AcDbEntity
8
BEND
100
AcDbLine
10
382.67123889803133
20
69.714159265358205
30
-1.8480588527154157e-08
11
382.6712388980319
21
269.71415926535815
31
-1.8480600663243656e-08
0
LINE
5
119
100
AcDbEntity
8
BEND
100
AcDbLine
10
-77.071238898066667
20
269.71415926535872
30
9.446020180572208e-08
11
-77.071238898066355
21
69.714159265358759
31
9.4460433552816472e-08
0
LINE
5
120
100
AcDbEntity
8
BEND
100
AcDbLine
10
-0.15707963267928449
20
69.40000000000002
30
8.2998732348612531e-09
11
-0.15707963267928449
21
8.8817841970012523e-15
31
-1.4764246826939067e-14
0
LINE
5
121
100
AcDbEntity
8
BEND
100
AcDbLine
10
298.4999999999967
20
339.58539816339749
30
2.1714310549118276e-09
11
7.099999999986899
21
339.58539816339743
31
2.1714791591867375e-09
0
LINE
5
122
100
AcDbEntity
8
BEND
100
AcDbLine
10
305.5999999999795
20
269.87123889803803
30
8.2998079806252429e-09
11
4.9737991503207013e-13
21
269.87123889803803
31
8.2998368110895844e-09
0
LINE
5
123
100
AcDbEntity
8
BEND
100
AcDbLine
10
7.1054273576010019e-14
20
69.557079632679304
30
8.2998171208547348e-09
11
305.59999999997842
21
69.557079632679304
31
8.2998076609674097e-09
0
LINE
5
124
100
AcDbEntity
8
BEND
100
AcDbLine
10
-7.1570796326811958
20
269.71415926535877
30
8.2996614901483297e-09
11
-7.1570796326810893
21
69.714159265358759
31
8.2996149506917649e-09
0
LINE
5
125
100
AcDbEntity
8
BEND_EXTENT
100
AcDbLine
10
121.07621610224416
20
609.77079632676305
30
3.3947744504381205e-07
11
184.52378389773483
21
609.77079632676316
31
3.3947752497986983e-07
0
LINE
5
126
100
AcDbEntity
8
BEND_EXTENT
100
AcDbLine
10
184.55126927199541
20
609.45663706140317
30
3.3988081682423399e-07
11
121.04873072798352
21
609.45663706140306
31
3.3988074576996041e-07
0
LINE
5
127
100
AcDbEntity
8
BEND_EXTENT
100
AcDbLine
10
-3.5000000000129106
20
612.98269420584734
30
3.5176624280097712e-07
11
-3.500000000012804
21
543.65663706143403
31
1.0961612062487802e-07
0
LINE
5
128
100
AcDbEntity
8
BEND_EXTENT
100
AcDbLine
10
7.0999999999869345
20
543.65663706143437
30
1.0961938912146252e-07
11
298.49999999999659
21
543.65663706143459
31
1.0961946017573609e-07
0
LINE
5
129
100
AcDbEntity
8
BEND_EXTENT
100
AcDbLine
10
309.09999999999638
20
543.65663706143437
30
1.0961624496985678e-07
11
309.09999999999638
21
612.98269420584791
31
3.5176636714595588e-07
0
LINE
5
130
100
AcDbEntity
8
BEND_EXTENT
100
AcDbLine
10
120.79999999998952
20
69.40000000000002
30
8.2998852235505183e-09
11
7.1054273576010019e-14
21
69.400000000000034
31
8.2999029871189123e-09
0
LINE
5
131
100
AcDbEntity
8
BEND_EXTENT
100
AcDbLine
10
7.1054273576010019e-14
20
69.400000000000034
30
8.2999029871189123e-09
11
0
21
0
31
0
0
LINE
5
132
100
AcDbEntity
8
BEND_EXTENT
100
AcDbLine
10
305.59999999997837
20
8.8817841970012523e-15
30
0
11
305.59999999997842
21
69.40000000000002
31
8.2999385142557003e-09
0
LINE
5
133
100
AcDbEntity
8
BEND_EXTENT
100
AcDbLine
10
305.59999999997842
20
69.40000000000002
30
8.2999385142557003e-09
11
184.7999999999895
21
69.400000000000063
31
8.2999029871189123e-09
0
LINE
5
134
100
AcDbEntity
8
BEND_EXTENT
100
AcDbLine
10
1.0658141036401503e-13
20
69.714159265358731
30
8.2997564376796618e-09
11
120.79999999998952
21
69.714159265358745
31
8.2997608785717603e-09
0
LINE
5
135
100
AcDbEntity
8
BEND_EXTENT
100
AcDbLine
10
184.79999999998952
20
69.714159265358731
30
8.2997608785717603e-09
11
305.59999999997848
21
69.714159265358745
31
8.2997564376796618e-09
0
LINE
5
136
100
AcDbEntity
8
BEND_EXTENT
100
AcDbLine
10
6.7858407346280813
20
339.86996317033334
30
2.2377832920028595e-09
11
6.7858407346281169
21
539.61499242181253
31
1.0765280222813089e-07
0
LINE
5
137
100
AcDbEntity
8
BEND_EXTENT
100
AcDbLine
10
298.81415926535556
20
539.61499242181253
30
1.076610800510025e-07
11
298.81415926535561
21
339.8699631703339
31
2.2285817635747662e-09
0
LINE
5
138
100
AcDbEntity
8
BEND_EXTENT
100
AcDbLine
10
309.41415926535547
20
612.96753550155699
30
3.5171336065786818e-07
11
309.41415926535547
21
543.65663706143437
31
1.0961620944271999e-07
0
LINE
5
139
100
AcDbEntity
8
BEND_EXTENT
100
AcDbLine
10
298.49999999999659
20
339.84247779607296
30
2.2139445832181082e-09
11
298.49999999999648
21
539.64247779607285
31
1.0767550406853843e-07
0
LINE
5
140
100
AcDbEntity
8
BEND_EXTENT
100
AcDbLine
10
7.0999999999867924
20
539.64247779607274
30
1.0766731506350879e-07
11
7.0999999999869701
21
339.84247779607273
31
2.2233059837617475e-09
0
LINE
5
141
100
AcDbEntity
8
BEND_EXTENT
100
AcDbLine
10
-3.8141592653716927
20
543.65663706143448
30
1.0961603180703605e-07
11
-3.8141592653717282
21
612.96753550155699
31
3.5171321854932103e-07
0
LINE
5
142
100
AcDbEntity
8
BEND_EXTENT
100
AcDbLine
10
298.49999999999648
20
543.34247779607676
30
1.0962087237942342e-07
11
7.0999999999867569
21
543.34247779607676
31
1.0962021512739284e-07
0
LINE
5
143
100
AcDbEntity
8
BEND_EXTENT
100
AcDbLine
10
7.0999999999869701
20
339.7424777960768
30
2.1708768116468491e-09
11
298.49999999999659
21
339.74247779607686
31
2.1709301023520311e-09
0
LINE
5
144
100
AcDbEntity
8
BEND_EXTENT
100
AcDbLine
10
298.49999999999676
20
339.42831853071772
30
2.1719337439662922e-09
11
7.0999999999870056
21
339.42831853071772
31
2.1719515075346862e-09
0
LINE
5
145
100
AcDbEntity
8
BEND_EXTENT
100
AcDbLine
10
305.5999999999795
20
270.02831853071774
30
8.2999385142557003e-09
11
305.59999999997956
21
339.42831853071772
31
2.1719337439662922e-09
0
LINE
5
146
100
AcDbEntity
8
BEND_EXTENT
100
AcDbLine
10
3.1974423109204508e-13
20
270.02831853071768
30
8.2998852235505183e-09
11
305.5999999999795
21
270.02831853071774
31
8.2999385142557003e-09
0
LINE
5
147
100
AcDbEntity
8
BEND_EXTENT
100
AcDbLine
10
2.1316282072803006e-13
20
339.42831853071772
30
2.1719515075346862e-09
11
3.1974423109204508e-13
21
270.02831853071768
31
8.2998852235505183e-09
0
LINE
5
148
100
AcDbEntity
8
BEND_EXTENT
100
AcDbLine
10
305.91415926533671
20
339.42831853071766
30
2.1718093989875342e-09
11
305.91415926533614
21
270.02831853071774
31
8.2997786421401543e-09
0
LINE
5
149
100
AcDbEntity
8
BEND_EXTENT
100
AcDbLine
10
-0.31415926535299121
20
270.02831853071774
30
8.2996720607297902e-09
11
-0.31415926535267147
21
339.42831853071777
31
2.1717028175771702e-09
0
LINE
5
150
100
AcDbEntity
8
BEND_EXTENT
100
AcDbLine
10
-0.31415926535885319
20
4.4408920985006262e-14
30
-1.2434497875801753e-13
11
-0.31415926535885319
21
69.400000000000063
31
8.2998141692769423e-09
0
LINE
5
151
100
AcDbEntity
8
BEND_EXTENT
100
AcDbLine
10
305.91415926533739
20
69.400000000000006
30
8.2998319328453363e-09
11
305.91415926533745
21
8.8817841970012523e-15
31
-1.0658141036401503e-13
0
LINE
5
152
100
AcDbEntity
8
BEND_EXTENT
100
AcDbLine
10
305.5999999999795
20
269.71415926535872
30
8.2997564376796618e-09
11
4.6185277824406512e-13
21
269.71415926535872
31
8.2997564376796618e-09
0
LINE
5
153
100
AcDbEntity
8
BEND_EXTENT
100
AcDbLine
10
-84.342477796105015
20
69.714159265358703
30
9.8536556691897204e-08
11
-84.342477796105271
21
269.71415926535872
31
9.8536876436128296e-08
0
LINE
5
154
100
AcDbEntity
8
BEND_EXTENT
100
AcDbLine
10
-84.028318530746418
20
269.71415926535872
30
9.8566070860783839e-08
11
-84.028318530745807
21
69.714159265358688
31
9.8566053097215445e-08
0
LINE
5
155
100
AcDbEntity
8
BEND_EXTENT
100
AcDbLine
10
389.94247779607076
20
269.71415926535838
30
-3.2195064392226413e-08
11
389.94247779607008
21
69.714159265358404
31
-3.2194922283679261e-08
0
LINE
5
156
100
AcDbEntity
8
BEND_EXTENT
100
AcDbLine
10
389.62831853071094
20
69.714159265358319
30
-3.220372413181849e-08
11
389.62831853071179
21
269.71415926535838
31
-3.2203706368250096e-08
0
LINE
5
157
100
AcDbEntity
8
BEND_EXTENT
100
AcDbLine
10
382.82831853071161
20
269.71415926535838
30
-1.8475994068012369e-08
11
382.82831853071082
21
69.71415926535829
31
-1.8476011831580763e-08
0
LINE
5
158
100
AcDbEntity
8
BEND_EXTENT
100
AcDbLine
10
382.51415926535202
20
69.714159265358404
30
-1.848514230573528e-08
11
382.51415926535259
21
269.71415926535838
31
-1.848514230573528e-08
0
LINE
5
159
100
AcDbEntity
8
BEND_EXTENT
100
AcDbLine
10
-77.228318530745739
20
69.714159265358674
30
9.4445944398557913e-08
11
-77.228318530746208
21
269.71415926535872
31
9.4445962162126307e-08
0
LINE
5
160
100
AcDbEntity
8
BEND_EXTENT
100
AcDbLine
10
-76.914159265386886
20
269.71415926535872
30
9.4474881251471743e-08
11
-76.914159265386601
21
69.714159265358688
31
9.4474881251471743e-08
0
LINE
5
161
100
AcDbEntity
8
BEND_EXTENT
100
AcDbLine
10
312.91415926535257
20
269.71415926535855
30
8.2995832428878202e-09
11
312.91415926535171
21
69.714159265358575
31
8.2996187700246082e-09
0
LINE
5
162
100
AcDbEntity
8
BEND_EXTENT
100
AcDbLine
10
312.59999999999093
20
69.714159265358603
30
8.2997608785717603e-09
11
312.59999999999184
21
269.71415926535872
31
8.2997608785717603e-09
0
LINE
5
163
100
AcDbEntity
8
BEND_EXTENT
100
AcDbLine
10
-7.3141592653866283
20
69.714159265358703
30
8.2996542971613962e-09
11
-7.3141592653867349
21
269.71415926535877
31
8.2996542971613962e-09
0
LINE
5
164
100
AcDbEntity
8
BEND_EXTENT
100
AcDbLine
10
-7.0000000000079154
20
269.71415926535877
30
8.2997608785717603e-09
11
-7.0000000000080576
21
69.714159265358759
31
8.2997608785717603e-09
0
ENDSEC
0
SECTION
2
OBJECTS
0
DICTIONARY
5
C
100
AcDbDictionary
3
ACAD_GROUP
350
D
3
ACAD_MLINESTYLE
350
17
0
DICTIONARY
5
D
100
AcDbDictionary
0
DICTIONARY
5
1A
330
C
100
AcDbDictionary
0
DICTIONARY
5
17
100
AcDbDictionary
0
ENDSEC
0
EOF
