0
SECTION
2
HEADER
9
$INSUNITS
70
4
9
$ACADVER
1
AC1014
9
$HANDSEED
5
FFFF
0
ENDSEC
0
SECTION
2
TABLES
0
TABLE
2
VPORT
5
8
100
AcDbSymbolTable
0
ENDTAB
0
TABLE
2
LTYPE
5
5
100
AcDbSymbolTable
0
LTYPE
5
14
100
AcDbSymbolTableRecord
100
AcDbLinetypeTableRecord
2
BYBLOCK
70
0
0
LTYPE
5
15
100
AcDbSymbolTableRecord
100
AcDbLinetypeTableRecord
2
BYLAYER
70
0
0
ENDTAB
0
TABLE
2
LAYER
5
2
100
AcDbSymbolTable
70
2
0
LAYER
5
50
100
AcDbSymbolTableRecord
100
AcDbLayerTableRecord
2
0
70
0
6
CONTINUOUS
0
ENDTAB
0
TABLE
2
STYLE
5
3
100
AcDbSymbolTable
70
1
0
STYLE
5
11
100
AcDbSymbolTableRecord
100
AcDbTextStyleTableRecord
2
STANDARD
70
0
0
ENDTAB
0
TABLE
2
VIEW
5
6
100
AcDbSymbolTable
70
0
0
ENDTAB
0
TABLE
2
UCS
5
7
100
AcDbSymbolTable
70
0
0
ENDTAB
0
TABLE
2
APPID
5
9
100
AcDbSymbolTable
70
2
0
APPID
5
12
100
AcDbSymbolTableRecord
100
AcDbRegAppTableRecord
2
ACAD
70
0
0
ENDTAB
0
TABLE
2
DIMSTYLE
5
A
100
AcDbSymbolTable
70
1
0
ENDTAB
0
TABLE
2
BLOCK_RECORD
5
1
100
AcDbSymbolTable
70
1
0
BLOCK_RECORD
5
1F
100
AcDbSymbolTableRecord
100
AcDbBlockTableRecord
2
*MODEL_SPACE
0
BLOCK_RECORD
5
1B
100
AcDbSymbolTableRecord
100
AcDbBlockTableRecord
2
*PAPER_SPACE
0
ENDTAB
0
ENDSEC
0
SECTION
2
BLOCKS
0
BLOCK
5
20
100
AcDbEntity
100
AcDbBlockBegin
2
*MODEL_SPACE
0
ENDBLK
5
21
100
AcDbEntity
100
AcDbBlockEnd
0
BLOCK
5
1C
100
AcDbEntity
100
AcDbBlockBegin
2
*PAPER_SPACE
0
ENDBLK
5
1D
100
AcDbEntity
100
AcDbBlockEnd
0
ENDSEC
0
SECTION
2
ENTITIES
0
LWPOLYLINE
5
100
100
AcDbEntity
8
0
100
AcDbPolyline
90
6
70
1
43
0.0
10
-5.3290705182007514e-14
20
-174.64101615137753
10
-151.24355652982143
20
-87.32050807568875
10
-151.2435565298214
20
87.320508075688792
10
0
20
174.64101615137753
10
151.24355652982146
20
87.320508075688707
10
151.24355652982138
20
-87.320508075688821
0
LINE
5
101
100
AcDbEntity
8
0
100
AcDbLine
10
0
20
0
30
0
11
-151.2435565298214
21
87.320508075688792
31
0
0
LINE
5
102
100
AcDbEntity
8
0
100
AcDbLine
10
0
20
0
30
0
11
0
21
174.64101615137753
31
0
0
CIRCLE
5
103
100
AcDbEntity
8
0
100
AcDbCircle
10
-136.39900109604909
20
78.750000000000014
30
0
40
3.0000000000000049
210
0
220
0
230
1
0
LINE
5
104
100
AcDbEntity
8
0
100
AcDbLine
10
-136.39900109604909
20
78.750000000000014
30
0
11
0
21
157.5
31
0
0
LINE
5
105
100
AcDbEntity
8
0
100
AcDbLine
10
0
20
0
30
0
11
-68.199500548024545
21
118.125
31
0
0
CIRCLE
5
106
100
AcDbEntity
8
0
100
AcDbCircle
10
-68.199500548024545
20
118.125
30
0
40
3.0000000000000004
210
0
220
0
230
1
0
CIRCLE
5
107
100
AcDbEntity
8
0
100
AcDbCircle
10
-136.39900109604912
20
-78.749999999999986
30
0
40
3.0000000000000049
210
0
220
0
230
1
0
CIRCLE
5
108
100
AcDbEntity
8
0
100
AcDbCircle
10
-136.39900109604909
20
8.8817841970012523e-15
30
0
40
3.0000000000000004
210
0
220
0
230
1
0
CIRCLE
5
109
100
AcDbEntity
8
0
100
AcDbCircle
10
-5.3290705182007514e-14
20
-157.50000000000003
30
0
40
3.0000000000000049
210
0
220
0
230
1
0
CIRCLE
5
110
100
AcDbEntity
8
0
100
AcDbCircle
10
-68.199500548024588
20
-118.125
30
0
40
3.0000000000000004
210
0
220
0
230
1
0
CIRCLE
5
111
100
AcDbEntity
8
0
100
AcDbCircle
10
136.39900109604906
20
-78.750000000000028
30
0
40
3.0000000000000049
210
0
220
0
230
1
0
CIRCLE
5
112
100
AcDbEntity
8
0
100
AcDbCircle
10
68.199500548024531
20
-118.125
30
0
40
3.0000000000000004
210
0
220
0
230
1
0
CIRCLE
5
113
100
AcDbEntity
8
0
100
AcDbCircle
10
136.39900109604918
20
78.749999999999915
30
0
40
3.0000000000000049
210
0
220
0
230
1
0
CIRCLE
5
114
100
AcDbEntity
8
0
100
AcDbCircle
10
136.39900109604912
20
-8.8817841970012523e-14
30
0
40
3.0000000000000004
210
0
220
0
230
1
0
CIRCLE
5
115
100
AcDbEntity
8
0
100
AcDbCircle
10
1.3322676295501878e-13
20
157.5
30
0
40
3.0000000000000049
210
0
220
0
230
1
0
CIRCLE
5
116
100
AcDbEntity
8
0
100
AcDbCircle
10
68.199500548024631
20
118.12499999999994
30
0
40
3.0000000000000004
210
0
220
0
230
1
0
CIRCLE
5
117
100
AcDbEntity
8
0
100
AcDbCircle
10
3.0000000447034929
20
107.00000159442436
30
0
40
0.55000000000000004
210
0
220
0
230
1
0
CIRCLE
5
118
100
AcDbEntity
8
0
100
AcDbCircle
10
-16.000000238418586
20
126.00000187754637
30
0
40
0.55000000000000004
210
0
220
0
230
1
0
CIRCLE
5
119
100
AcDbEntity
8
0
100
AcDbCircle
10
19.372181821796083
20
122.78994261869204
30
0
40
0.55000000000000004
210
0
220
0
230
1
0
CIRCLE
5
120
100
AcDbEntity
8
0
100
AcDbCircle
10
-57.000000849366188
20
88.000001311302185
30
0
40
0.55000000000000004
210
0
220
0
230
1
0
CIRCLE
5
121
100
AcDbEntity
8
0
100
AcDbCircle
10
-40.000000596046476
20
111.00000165402898
30
0
40
0.55000000000000004
210
0
220
0
230
1
0
CIRCLE
5
122
100
AcDbEntity
8
0
100
AcDbCircle
10
-25.00000037252903
20
96.000001430511475
30
0
40
0.55000000000000004
210
0
220
0
230
1
0
CIRCLE
5
123
100
AcDbEntity
8
0
100
AcDbCircle
10
-26.404780123277739
20
80.044141860116369
30
0
40
0.55000000000000004
210
0
220
0
230
1
0
CIRCLE
5
124
100
AcDbEntity
8
0
100
AcDbCircle
10
-2.0491676209385075
20
88.106707728106969
30
0
40
0.55000000000000004
210
0
220
0
230
1
0
CIRCLE
5
125
100
AcDbEntity
8
0
100
AcDbCircle
10
-10.098482415810324
20
64.039055697608035
30
0
40
0.55000000000000004
210
0
220
0
230
1
0
CIRCLE
5
126
100
AcDbEntity
8
0
100
AcDbCircle
10
34.508285924456942
20
111.0504078419747
30
0
40
0.55000000000000004
210
0
220
0
230
1
0
CIRCLE
5
127
100
AcDbEntity
8
0
100
AcDbCircle
10
50.000000745058067
20
91.000001356005683
30
0
40
0.55000000000000004
210
0
220
0
230
1
0
CIRCLE
5
128
100
AcDbEntity
8
0
100
AcDbCircle
10
20.00000029802322
20
92.00000137090683
30
0
40
0.55000000000000004
210
0
220
0
230
1
0
CIRCLE
5
129
100
AcDbEntity
8
0
100
AcDbCircle
10
87.000001296401052
20
75.00000111758709
30
0
40
0.55000000000000004
210
0
220
0
230
1
0
CIRCLE
5
130
100
AcDbEntity
8
0
100
AcDbCircle
10
67.0000009983778
20
76.000001132488265
30
0
40
0.55000000000000004
210
0
220
0
230
1
0
CIRCLE
5
131
100
AcDbEntity
8
0
100
AcDbCircle
10
73.000001087784767
20
92.00000137090683
30
0
40
0.55000000000000004
210
0
220
0
230
1
0
CIRCLE
5
132
100
AcDbEntity
8
0
100
AcDbCircle
10
108.00000160932539
20
67.000000998377786
30
0
40
0.55000000000000004
210
0
220
0
230
1
0
CIRCLE
5
133
100
AcDbEntity
8
0
100
AcDbCircle
10
91.843998283806613
20
49.441226238449815
30
0
40
0.55000000000000004
210
0
220
0
230
1
0
CIRCLE
5
134
100
AcDbEntity
8
0
100
AcDbCircle
10
115.00000171363355
20
35.000000521540649
30
0
40
0.55000000000000004
210
0
220
0
230
1
0
CIRCLE
5
135
100
AcDbEntity
8
0
100
AcDbCircle
10
58.000000864267349
20
66.000000983476639
30
0
40
0.55000000000000004
210
0
220
0
230
1
0
CIRCLE
5
136
100
AcDbEntity
8
0
100
AcDbCircle
10
44.37796489314708
20
48.525482828983719
30
0
40
0.55000000000000004
210
0
220
0
230
1
0
CIRCLE
5
137
100
AcDbEntity
8
0
100
AcDbCircle
10
73.000001087784767
20
51.000000759959221
30
0
40
0.55000000000000004
210
0
220
0
230
1
0
CIRCLE
5
138
100
AcDbEntity
8
0
100
AcDbCircle
10
42.000000625848777
20
77.000001147389426
30
0
40
0.55000000000000004
210
0
220
0
230
1
0
CIRCLE
5
139
100
AcDbEntity
8
0
100
AcDbCircle
10
19.70376747142161
20
73.50492805386456
30
0
40
0.55000000000000004
210
0
220
0
230
1
0
CIRCLE
5
140
100
AcDbEntity
8
0
100
AcDbCircle
10
31.000000461935997
20
54.000000804662704
30
0
40
0.55000000000000004
210
0
220
0
230
1
0
CIRCLE
5
141
100
AcDbEntity
8
0
100
AcDbCircle
10
8.0000001192092896
20
48.000000715255737
30
0
40
0.55000000000000004
210
0
220
0
230
1
0
CIRCLE
5
142
100
AcDbEntity
8
0
100
AcDbCircle
10
35.627527869359923
20
37.536561915390514
30
0
40
0.55000000000000004
210
0
220
0
230
1
0
CIRCLE
5
143
100
AcDbEntity
8
0
100
AcDbCircle
10
15.000000223517418
20
19.000000283122063
30
0
40
0.55000000000000004
210
0
220
0
230
1
0
CIRCLE
5
144
100
AcDbEntity
8
0
100
AcDbCircle
10
-49.000000730156898
20
23.000000342726707
30
0
40
0.55000000000000004
210
0
220
0
230
1
0
CIRCLE
5
145
100
AcDbEntity
8
0
100
AcDbCircle
10
-49.000000730156898
20
50.00000074505806
30
0
40
0.55000000000000004
210
0
220
0
230
1
0
CIRCLE
5
146
100
AcDbEntity
8
0
100
AcDbCircle
10
-29.000000432133671
20
61.000000908970826
30
0
40
0.55000000000000004
210
0
220
0
230
1
0
CIRCLE
5
147
100
AcDbEntity
8
0
100
AcDbCircle
10
-13.000000193715096
20
48.000000715255737
30
0
40
0.55000000000000004
210
0
220
0
230
1
0
CIRCLE
5
148
100
AcDbEntity
8
0
100
AcDbCircle
10
-31.000000461935997
20
30.000000447034836
30
0
40
0.55000000000000004
210
0
220
0
230
1
0
CIRCLE
5
149
100
AcDbEntity
8
0
100
AcDbCircle
10
-11.000000163912773
20
20.000000298023224
30
0
40
0.55000000000000004
210
0
220
0
230
1
0
CIRCLE
5
150
100
AcDbEntity
8
0
100
AcDbCircle
10
-93.122368912441203
20
80.478570815359774
30
0
40
0.55000000000000004
210
0
220
0
230
1
0
CIRCLE
5
151
100
AcDbEntity
8
0
100
AcDbCircle
10
-73.000001087784767
20
67.0000009983778
30
0
40
0.55000000000000004
210
0
220
0
230
1
0
CIRCLE
5
152
100
AcDbEntity
8
0
100
AcDbCircle
10
-106.00000157952311
20
59.000000879168525
30
0
40
0.55000000000000004
210
0
220
0
230
1
0
CIRCLE
5
153
100
AcDbEntity
8
0
100
AcDbCircle
10
-63.000000938773162
20
51.000000759959214
30
0
40
0.55000000000000004
210
0
220
0
230
1
0
CIRCLE
5
154
100
AcDbEntity
8
0
100
AcDbCircle
10
-87.268562448849963
20
37.238648950448301
30
0
40
0.55000000000000004
210
0
220
0
230
1
0
CIRCLE
5
155
100
AcDbEntity
8
0
100
AcDbCircle
10
-69.316549546263573
20
27.093987050345362
30
0
40
0.55000000000000004
210
0
220
0
230
1
0
CIRCLE
5
156
100
AcDbEntity
8
0
100
AcDbCircle
10
-108.00000160932541
20
37.000000551342964
30
0
40
0.55000000000000004
210
0
220
0
230
1
0
CIRCLE
5
157
100
AcDbEntity
8
0
100
AcDbCircle
10
-116.0000017285347
20
18.000000268220901
30
0
40
0.55000000000000004
210
0
220
0
230
1
0
CIRCLE
5
158
100
AcDbEntity
8
0
100
AcDbCircle
10
-93.000001385807977
20
15.000000223517416
30
0
40
0.55000000000000004
210
0
220
0
230
1
0
CIRCLE
5
159
100
AcDbEntity
8
0
100
AcDbCircle
10
-112.51675457676245
20
-0.13155507308108216
30
0
40
0.55000000000000004
210
0
220
0
230
1
0
CIRCLE
5
160
100
AcDbEntity
8
0
100
AcDbCircle
10
-95.000001415610313
20
-7.0000001043081284
30
0
40
0.55000000000000004
210
0
220
0
230
1
0
CIRCLE
5
161
100
AcDbEntity
8
0
100
AcDbCircle
10
-112.00000166893005
20
-13.000000193715096
30
0
40
0.55000000000000004
210
0
220
0
230
1
0
CIRCLE
5
162
100
AcDbEntity
8
0
100
AcDbCircle
10
-74.000001102685928
20
-14.000000208616257
30
0
40
0.55000000000000004
210
0
220
0
230
1
0
CIRCLE
5
163
100
AcDbEntity
8
0
100
AcDbCircle
10
-91.000001356005669
20
-19.000000283122063
30
0
40
0.55000000000000004
210
0
220
0
230
1
0
CIRCLE
5
164
100
AcDbEntity
8
0
100
AcDbCircle
10
-80.000001192092896
20
5.000000074505806
30
0
40
0.55000000000000004
210
0
220
0
230
1
0
CIRCLE
5
165
100
AcDbEntity
8
0
100
AcDbCircle
10
-57.000000849366188
20
8.0000001192092896
30
0
40
0.55000000000000004
210
0
220
0
230
1
0
CIRCLE
5
166
100
AcDbEntity
8
0
100
AcDbCircle
10
-44.0000006556511
20
-11.000000163912773
30
0
40
0.55000000000000004
210
0
220
0
230
1
0
CIRCLE
5
167
100
AcDbEntity
8
0
100
AcDbCircle
10
-62.533156380911514
20
-15.053180158417121
30
0
40
0.55000000000000004
210
0
220
0
230
1
0
CIRCLE
5
168
100
AcDbEntity
8
0
100
AcDbCircle
10
-30.000000447034836
20
-24.000000357627869
30
0
40
0.55000000000000004
210
0
220
0
230
1
0
CIRCLE
5
169
100
AcDbEntity
8
0
100
AcDbCircle
10
-36.000000536441803
20
-6.0000000894069672
30
0
40
0.55000000000000004
210
0
220
0
230
1
0
CIRCLE
5
170
100
AcDbEntity
8
0
100
AcDbCircle
10
-22.000000327825546
20
5.000000074505806
30
0
40
0.55000000000000004
210
0
220
0
230
1
0
CIRCLE
5
171
100
AcDbEntity
8
0
100
AcDbCircle
10
9.7565469385424759
20
6.0763886439514412
30
0
40
0.55000000000000004
210
0
220
0
230
1
0
CIRCLE
5
172
100
AcDbEntity
8
0
100
AcDbCircle
10
0
20
-12.000000178813934
30
0
40
0.55000000000000004
210
0
220
0
230
1
0
CIRCLE
5
173
100
AcDbEntity
8
0
100
AcDbCircle
10
-10.52461385785845
20
6.0763886439514412
30
0
40
0.55000000000000004
210
0
220
0
230
1
0
CIRCLE
5
174
100
AcDbEntity
8
0
100
AcDbCircle
10
45.000000670552254
20
-16.000000238418579
30
0
40
0.55000000000000004
210
0
220
0
230
1
0
CIRCLE
5
175
100
AcDbEntity
8
0
100
AcDbCircle
10
54.000000804662704
20
4.0000000596046448
30
0
40
0.55000000000000004
210
0
220
0
230
1
0
CIRCLE
5
176
100
AcDbEntity
8
0
100
AcDbCircle
10
29.000000432133675
20
-2.0000000298023224
30
0
40
0.55000000000000004
210
0
220
0
230
1
0
CIRCLE
5
177
100
AcDbEntity
8
0
100
AcDbCircle
10
79.000001177191763
20
10.000000149011615
30
0
40
0.55000000000000004
210
0
220
0
230
1
0
CIRCLE
5
178
100
AcDbEntity
8
0
100
AcDbCircle
10
80.000001192092896
20
33.000000491738319
30
0
40
0.55000000000000004
210
0
220
0
230
1
0
CIRCLE
5
179
100
AcDbEntity
8
0
100
AcDbCircle
10
58.000000864267349
20
29.000000432133675
30
0
40
0.55000000000000004
210
0
220
0
230
1
0
CIRCLE
5
180
100
AcDbEntity
8
0
100
AcDbCircle
10
100.00000149011612
20
23.000000342726707
30
0
40
0.55000000000000004
210
0
220
0
230
1
0
CIRCLE
5
181
100
AcDbEntity
8
0
100
AcDbCircle
10
118.00000175833702
20
10.000000149011612
30
0
40
0.55000000000000004
210
0
220
0
230
1
0
CIRCLE
5
182
100
AcDbEntity
8
0
100
AcDbCircle
10
107.00000159442425
20
-5.0000000745058069
30
0
40
0.55000000000000004
210
0
220
0
230
1
0
CIRCLE
5
183
100
AcDbEntity
8
0
100
AcDbCircle
10
72.000001072883592
20
-8.0000001192092878
30
0
40
0.55000000000000004
210
0
220
0
230
1
0
CIRCLE
5
184
100
AcDbEntity
8
0
100
AcDbCircle
10
72.000001072883634
20
-24.000000357627876
30
0
40
0.55000000000000004
210
0
220
0
230
1
0
CIRCLE
5
185
100
AcDbEntity
8
0
100
AcDbCircle
10
95.000001415610328
20
-15.000000223517421
30
0
40
0.55000000000000004
210
0
220
0
230
1
0
CIRCLE
5
186
100
AcDbEntity
8
0
100
AcDbCircle
10
75.00000111758709
20
-40.000000596046448
30
0
40
0.55000000000000004
210
0
220
0
230
1
0
CIRCLE
5
187
100
AcDbEntity
8
0
100
AcDbCircle
10
47.000000700354576
20
-48.000000715255737
30
0
40
0.55000000000000004
210
0
220
0
230
1
0
CIRCLE
5
188
100
AcDbEntity
8
0
100
AcDbCircle
10
54.000000804662704
20
-30.000000447034836
30
0
40
0.55000000000000004
210
0
220
0
230
1
0
CIRCLE
5
189
100
AcDbEntity
8
0
100
AcDbCircle
10
15.000000223517418
20
-19.000000283122063
30
0
40
0.55000000000000004
210
0
220
0
230
1
0
CIRCLE
5
190
100
AcDbEntity
8
0
100
AcDbCircle
10
35.000000521540642
20
-28.000000417232513
30
0
40
0.55000000000000004
210
0
220
0
230
1
0
CIRCLE
5
191
100
AcDbEntity
8
0
100
AcDbCircle
10
26.000000387430191
20
-44.000000655651093
30
0
40
0.55000000000000004
210
0
220
0
230
1
0
CIRCLE
5
192
100
AcDbEntity
8
0
100
AcDbCircle
10
-7.0000001043081284
20
-21.000000312924385
30
0
40
0.55000000000000004
210
0
220
0
230
1
0
CIRCLE
5
193
100
AcDbEntity
8
0
100
AcDbCircle
10
-20.000000298023224
20
-39.000000581145287
30
0
40
0.55000000000000004
210
0
220
0
230
1
0
CIRCLE
5
194
100
AcDbEntity
8
0
100
AcDbCircle
10
5.479359504657122
20
-39.000000581145287
30
0
40
0.55000000000000004
210
0
220
0
230
1
0
CIRCLE
5
195
100
AcDbEntity
8
0
100
AcDbCircle
10
-36.000000536441803
20
-47.000000700354576
30
0
40
0.55000000000000004
210
0
220
0
230
1
0
CIRCLE
5
196
100
AcDbEntity
8
0
100
AcDbCircle
10
-58.481043352830454
20
-60.461562201486942
30
0
40
0.55000000000000004
210
0
220
0
230
1
0
CIRCLE
5
197
100
AcDbEntity
8
0
100
AcDbCircle
10
-41.000000610947609
20
-75.00000111758709
30
0
40
0.55000000000000004
210
0
220
0
230
1
0
CIRCLE
5
198
100
AcDbEntity
8
0
100
AcDbCircle
10
-67.0000009983778
20
-50.00000074505806
30
0
40
0.55000000000000004
210
0
220
0
230
1
0
CIRCLE
5
199
100
AcDbEntity
8
0
100
AcDbCircle
10
-77.000001147389412
20
-33.000000491738319
30
0
40
0.55000000000000004
210
0
220
0
230
1
0
CIRCLE
5
200
100
AcDbEntity
8
0
100
AcDbCircle
10
-58.000000864267349
20
-36.000000536441803
30
0
40
0.55000000000000004
210
0
220
0
230
1
0
CIRCLE
5
201
100
AcDbEntity
8
0
100
AcDbCircle
10
-103.61862432417524
20
-25.909105725640504
30
0
40
0.55000000000000004
210
0
220
0
230
1
0
CIRCLE
5
202
100
AcDbEntity
8
0
100
AcDbCircle
10
-115.652720165913
20
-41.257987418299805
30
0
40
0.55000000000000004
210
0
220
0
230
1
0
CIRCLE
5
203
100
AcDbEntity
8
0
100
AcDbCircle
10
-94.971326351566105
20
-47.312018662950415
30
0
40
0.55000000000000004
210
0
220
0
230
1
0
CIRCLE
5
204
100
AcDbEntity
8
0
100
AcDbCircle
10
-86.000001281499863
20
-56.000000834465027
30
0
40
0.55000000000000004
210
0
220
0
230
1
0
CIRCLE
5
205
100
AcDbEntity
8
0
100
AcDbCircle
10
-110.00000163912773
20
-63.000000938773155
30
0
40
0.55000000000000004
210
0
220
0
230
1
0
CIRCLE
5
206
100
AcDbEntity
8
0
100
AcDbCircle
10
-91.000001356005669
20
-81.000001206994057
30
0
40
0.55000000000000004
210
0
220
0
230
1
0
CIRCLE
5
207
100
AcDbEntity
8
0
100
AcDbCircle
10
-71.000001057982445
20
-92.00000137090683
30
0
40
0.55000000000000004
210
0
220
0
230
1
0
CIRCLE
5
208
100
AcDbEntity
8
0
100
AcDbCircle
10
-49.000000730156898
20
-84.00000125169754
30
0
40
0.55000000000000004
210
0
220
0
230
1
0
CIRCLE
5
209
100
AcDbEntity
8
0
100
AcDbCircle
10
-42.00000062584877
20
-105.00000156462193
30
0
40
0.55000000000000004
210
0
220
0
230
1
0
CIRCLE
5
210
100
AcDbEntity
8
0
100
AcDbCircle
10
1.000000014901161
20
-98.000001460313797
30
0
40
0.55000000000000004
210
0
220
0
230
1
0
CIRCLE
5
211
100
AcDbEntity
8
0
100
AcDbCircle
10
-25.00000037252903
20
-115.00000171363354
30
0
40
0.55000000000000004
210
0
220
0
230
1
0
CIRCLE
5
212
100
AcDbEntity
8
0
100
AcDbCircle
10
-24.000000357627869
20
-93.000001385807991
30
0
40
0.55000000000000004
210
0
220
0
230
1
0
CIRCLE
5
213
100
AcDbEntity
8
0
100
AcDbCircle
10
3.0000000447034836
20
-131.00000195205212
30
0
40
0.55000000000000004
210
0
220
0
230
1
0
CIRCLE
5
214
100
AcDbEntity
8
0
100
AcDbCircle
10
6.0000000894069689
20
-110.00000163912773
30
0
40
0.55000000000000004
210
0
220
0
230
1
0
CIRCLE
5
215
100
AcDbEntity
8
0
100
AcDbCircle
10
28.000000417232517
20
-116.00000172853471
30
0
40
0.55000000000000004
210
0
220
0
230
1
0
CIRCLE
5
216
100
AcDbEntity
8
0
100
AcDbCircle
10
0
20
-79.000001177191734
30
0
40
0.55000000000000004
210
0
220
0
230
1
0
CIRCLE
5
217
100
AcDbEntity
8
0
100
AcDbCircle
10
6.0000000894069672
20
-53.000000789761543
30
0
40
0.55000000000000004
210
0
220
0
230
1
0
CIRCLE
5
218
100
AcDbEntity
8
0
100
AcDbCircle
10
-21.000000312924385
20
-61.000000908970833
30
0
40
0.55000000000000004
210
0
220
0
230
1
0
CIRCLE
5
219
100
AcDbEntity
8
0
100
AcDbCircle
10
24.000000357627869
20
-90.000001341104507
30
0
40
0.55000000000000004
210
0
220
0
230
1
0
CIRCLE
5
220
100
AcDbEntity
8
0
100
AcDbCircle
10
59.00000087916851
20
-88.000001311302185
30
0
40
0.55000000000000004
210
0
220
0
230
1
0
CIRCLE
5
221
100
AcDbEntity
8
0
100
AcDbCircle
10
45.000000670552254
20
-106.00000157952309
30
0
40
0.55000000000000004
210
0
220
0
230
1
0
CIRCLE
5
222
100
AcDbEntity
8
0
100
AcDbCircle
10
19.000000283122063
20
-74.000001102685928
30
0
40
0.55000000000000004
210
0
220
0
230
1
0
CIRCLE
5
223
100
AcDbEntity
8
0
100
AcDbCircle
10
37.000000551342964
20
-57.000000849366188
30
0
40
0.55000000000000004
210
0
220
0
230
1
0
CIRCLE
5
224
100
AcDbEntity
8
0
100
AcDbCircle
10
55.000000819563866
20
-71.000001057982445
30
0
40
0.55000000000000004
210
0
220
0
230
1
0
CIRCLE
5
225
100
AcDbEntity
8
0
100
AcDbCircle
10
69.000001028180137
20
-61.000000908970847
30
0
40
0.55000000000000004
210
0
220
0
230
1
0
CIRCLE
5
226
100
AcDbEntity
8
0
100
AcDbCircle
10
82.000001221895218
20
-80.000001192092896
30
0
40
0.55000000000000004
210
0
220
0
230
1
0
CIRCLE
5
227
100
AcDbEntity
8
0
100
AcDbCircle
10
92.00000137090683
20
-61.000000908970833
30
0
40
0.55000000000000004
210
0
220
0
230
1
0
CIRCLE
5
228
100
AcDbEntity
8
0
100
AcDbCircle
10
112.00000166893005
20
-64.000000953674316
30
0
40
0.55000000000000004
210
0
220
0
230
1
0
CIRCLE
5
229
100
AcDbEntity
8
0
100
AcDbCircle
10
94.000001400709152
20
-42.00000062584877
30
0
40
0.55000000000000004
210
0
220
0
230
1
0
CIRCLE
5
230
100
AcDbEntity
8
0
100
AcDbCircle
10
114.00000169873238
20
-29.000000432133675
30
0
40
0.55000000000000004
210
0
220
0
230
1
0
ENDSEC
0
SECTION
2
OBJECTS
0
DICTIONARY
5
C
100
AcDbDictionary
3
ACAD_GROUP
350
D
3
ACAD_MLINESTYLE
350
17
0
DICTIONARY
5
D
100
AcDbDictionary
0
DICTIONARY
5
1A
330
C
100
AcDbDictionary
0
DICTIONARY
5
17
100
AcDbDictionary
0
ENDSEC
0
EOF
