0
SECTION
2
HEADER
9
$INSUNITS
70
4
9
$ACADVER
1
AC1014
9
$HANDSEED
5
FFFF
0
ENDSEC
0
SECTION
2
TABLES
0
TABLE
2
VPORT
5
8
100
AcDbSymbolTable
0
ENDTAB
0
TABLE
2
LTYPE
5
5
100
AcDbSymbolTable
0
LTYPE
5
14
100
AcDbSymbolTableRecord
100
AcDbLinetypeTableRecord
2
BYBLOCK
70
0
0
LTYPE
5
15
100
AcDbSymbolTableRecord
100
AcDbLinetypeTableRecord
2
BYLAYER
70
0
0
ENDTAB
0
TABLE
2
LAYER
5
2
100
AcDbSymbolTable
70
2
0
LAYER
5
50
100
AcDbSymbolTableRecord
100
AcDbLayerTableRecord
2
0
70
0
6
CONTINUOUS
0
ENDTAB
0
TABLE
2
STYLE
5
3
100
AcDbSymbolTable
70
1
0
STYLE
5
11
100
AcDbSymbolTableRecord
100
AcDbTextStyleTableRecord
2
STANDARD
70
0
0
ENDTAB
0
TABLE
2
VIEW
5
6
100
AcDbSymbolTable
70
0
0
ENDTAB
0
TABLE
2
UCS
5
7
100
AcDbSymbolTable
70
0
0
ENDTAB
0
TABLE
2
APPID
5
9
100
AcDbSymbolTable
70
2
0
APPID
5
12
100
AcDbSymbolTableRecord
100
AcDbRegAppTableRecord
2
ACAD
70
0
0
ENDTAB
0
TABLE
2
DIMSTYLE
5
A
100
AcDbSymbolTable
70
1
0
ENDTAB
0
TABLE
2
BLOCK_RECORD
5
1
100
AcDbSymbolTable
70
1
0
BLOCK_RECORD
5
1F
100
AcDbSymbolTableRecord
100
AcDbBlockTableRecord
2
*MODEL_SPACE
0
BLOCK_RECORD
5
1B
100
AcDbSymbolTableRecord
100
AcDbBlockTableRecord
2
*PAPER_SPACE
0
ENDTAB
0
ENDSEC
0
SECTION
2
BLOCKS
0
BLOCK
5
20
100
AcDbEntity
100
AcDbBlockBegin
2
*MODEL_SPACE
0
ENDBLK
5
21
100
AcDbEntity
100
AcDbBlockEnd
0
BLOCK
5
1C
100
AcDbEntity
100
AcDbBlockBegin
2
*PAPER_SPACE
0
ENDBLK
5
1D
100
AcDbEntity
100
AcDbBlockEnd
0
ENDSEC
0
SECTION
2
ENTITIES
0
LINE
5
100
100
AcDbEntity
8
0
100
AcDbLine
10
15.000000223517418
20
19.000000283122063
30
0
11
35.635175509522625
21
37.533162631680156
31
0
0
LINE
5
101
100
AcDbEntity
8
0
100
AcDbLine
10
58.000000864267349
20
29.000000432133675
30
0
11
80.000001192092896
21
33.000000491738319
31
0
0
LINE
5
102
100
AcDbEntity
8
0
100
AcDbLine
10
107.00000159442425
20
-5.000000074505806
30
0
11
118.00000175833702
21
10.000000149011612
31
0
0
LINE
5
103
100
AcDbEntity
8
0
100
AcDbLine
10
91.818977839960127
20
49.434188466306203
30
0
11
108.00000160932541
21
67.0000009983778
31
0
0
LINE
5
104
100
AcDbEntity
8
0
100
AcDbLine
10
44.376626446219959
20
48.52956735922217
30
0
11
58.000000864267349
21
66.000000983476639
31
0
0
LINE
5
105
100
AcDbEntity
8
0
100
AcDbLine
10
67.0000009983778
20
76.000001132488251
30
0
11
87.000001296401024
21
75.00000111758709
31
0
0
LINE
5
106
100
AcDbEntity
8
0
100
AcDbLine
10
50.00000074505806
20
91.000001356005669
30
0
11
34.492803239190756
21
111.01543271891522
31
0
0
LINE
5
107
100
AcDbEntity
8
0
100
AcDbLine
10
19.348775816895166
20
122.7755071110076
30
0
11
3.0000000447034836
21
107.00000159442425
31
0
0
LINE
5
108
100
AcDbEntity
8
0
100
AcDbLine
10
-40.000000596046448
20
111.00000165402889
30
0
11
-25.00000037252903
21
96.000001430511475
31
0
0
LINE
5
109
100
AcDbEntity
8
0
100
AcDbLine
10
19.703925041406002
20
73.508065334294571
30
0
11
42.00000062584877
21
77.000001147389412
31
0
0
LINE
5
110
100
AcDbEntity
8
0
100
AcDbLine
10
-31.000000461935997
20
30.000000447034836
30
0
11
-13.000000193715096
21
48.000000715255737
31
0
0
LINE
5
111
100
AcDbEntity
8
0
100
AcDbLine
10
-29.000000432133675
20
61.000000908970833
30
0
11
-49.000000730156898
21
50.00000074505806
31
0
0
LINE
5
112
100
AcDbEntity
8
0
100
AcDbLine
10
-87.268039410395659
20
37.238104167404515
30
0
11
-69.318395554241789
21
27.092701788961296
31
0
0
LINE
5
113
100
AcDbEntity
8
0
100
AcDbLine
10
-93.123397764159364
20
80.47709370497806
30
0
11
-72.999998368322849
21
66.9999985024333
31
0
0
LINE
5
114
100
AcDbEntity
8
0
100
AcDbLine
10
-116.0000017285347
20
18.000000268220901
30
0
11
-108.00000160932541
21
37.000000551342964
31
0
0
LINE
5
115
100
AcDbEntity
8
0
100
AcDbLine
10
-10.099999774247408
20
64.049998568370938
30
0
11
-2.0510238079163599
21
88.117594454690916
31
0
0
LINE
5
116
100
AcDbEntity
8
0
100
AcDbLine
10
72.000001072883606
20
-8.0000001192092896
30
0
11
72.000001072883606
21
-24.000000357627869
31
0
0
LINE
5
117
100
AcDbEntity
8
0
100
AcDbLine
10
54.000000804662704
20
4.0000000596046448
30
0
11
45.000000670552254
21
-16.000000238418579
31
0
0
LINE
5
118
100
AcDbEntity
8
0
100
AcDbLine
10
-10.500000156462193
20
6.0000000894069672
30
0
11
9.7547337605470457
21
6.0752970031371252
31
0
0
LINE
5
119
100
AcDbEntity
8
0
100
AcDbLine
10
-36.000000536441803
20
-6.0000000894069672
30
0
11
-22.000000327825546
21
5.000000074505806
31
0
0
LINE
5
120
100
AcDbEntity
8
0
100
AcDbLine
10
-62.534639361174314
20
-15.049914929713331
30
0
11
-44.000000655651093
21
-11.000000163912773
31
0
0
LINE
5
121
100
AcDbEntity
8
0
100
AcDbLine
10
-74.000001102685928
20
-14.000000208616257
30
0
11
-80.000001192092896
21
5.000000074505806
31
0
0
LINE
5
122
100
AcDbEntity
8
0
100
AcDbLine
10
-112.52926219245525
20
-0.16078232138868831
30
0
11
-95.000001415610313
21
-7.0000001043081284
31
0
0
LINE
5
123
100
AcDbEntity
8
0
100
AcDbLine
10
-115.65825465993728
20
-41.265940367933531
30
0
11
-103.61763348296537
21
-25.910730395032168
31
0
0
LINE
5
124
100
AcDbEntity
8
0
100
AcDbLine
10
-86.000001281499863
20
-56.000000834465027
30
0
11
-110.00000163912773
21
-63.000000938773155
31
0
0
LINE
5
125
100
AcDbEntity
8
0
100
AcDbLine
10
-77.000001147389412
20
-33.000000491738319
30
0
11
-58.000000864267349
21
-36.000000536441803
31
0
0
LINE
5
126
100
AcDbEntity
8
0
100
AcDbLine
10
-49.000000730156898
20
-84.00000125169754
30
0
11
-42.00000062584877
21
-105.00000156462193
31
0
0
LINE
5
127
100
AcDbEntity
8
0
100
AcDbLine
10
-58.548215792515975
20
-60.442880457608517
30
0
11
-41.000000610947609
21
-75.00000111758709
31
0
0
LINE
5
128
100
AcDbEntity
8
0
100
AcDbLine
10
-24.000000357627869
20
-93.000001385807991
30
0
11
1.0000000149011612
21
-98.000001460313797
31
0
0
LINE
5
129
100
AcDbEntity
8
0
100
AcDbLine
10
-21.000000312924385
20
-61.000000908970833
30
0
11
0
21
-79.000001177191734
31
0
0
LINE
5
130
100
AcDbEntity
8
0
100
AcDbLine
10
6.0000000894069672
20
-110.00000163912773
30
0
11
28.000000417232513
21
-116.0000017285347
31
0
0
LINE
5
131
100
AcDbEntity
8
0
100
AcDbLine
10
45.000000670552254
20
-106.00000157952309
30
0
11
59.00000087916851
21
-88.000001311302185
31
0
0
LINE
5
132
100
AcDbEntity
8
0
100
AcDbLine
10
37.000000551342964
20
-57.000000849366188
30
0
11
55.000000819563866
21
-71.000001057982445
31
0
0
LINE
5
133
100
AcDbEntity
8
0
100
AcDbLine
10
92.00000137090683
20
-61.000000908970833
30
0
11
82.000001221895218
21
-80.000001192092896
31
0
0
LINE
5
134
100
AcDbEntity
8
0
100
AcDbLine
10
114.00000169873238
20
-29.000000432133675
30
0
11
94.000001400709152
21
-42.00000062584877
31
0
0
LINE
5
135
100
AcDbEntity
8
0
100
AcDbLine
10
54.000000804662704
20
-30.000000447034836
30
0
11
47.000000700354576
21
-48.000000715255737
31
0
0
LINE
5
136
100
AcDbEntity
8
0
100
AcDbLine
10
35.000000521540642
20
-28.000000417232513
30
0
11
26.000000387430191
21
-44.000000655651093
31
0
0
LINE
5
137
100
AcDbEntity
8
0
100
AcDbLine
10
5.46765753995148
20
-38.999706285683125
30
0
11
-20.000000298023224
21
-38.999706285683125
31
0
0
LWPOLYLINE
5
138
100
AcDbEntity
8
0
100
AcDbPolyline
90
6
70
1
43
0.0
10
0
20
-174.64101615137758
10
-151.24355652982143
20
-87.320508075688736
10
-151.24355652982143
20
87.320508075688764
10
1.7763568394002505e-14
20
174.64101615137758
10
151.24355652982149
20
87.320508075688707
10
151.2435565298214
20
-87.320508075688849
0
ENDSEC
0
SECTION
2
OBJECTS
0
DICTIONARY
5
C
100
AcDbDictionary
3
ACAD_GROUP
350
D
3
ACAD_MLINESTYLE
350
17
0
DICTIONARY
5
D
100
AcDbDictionary
0
DICTIONARY
5
1A
330
C
100
AcDbDictionary
0
DICTIONARY
5
17
100
AcDbDictionary
0
ENDSEC
0
EOF
