0
SECTION
2
HEADER
9
$INSUNITS
70
4
9
$ACADVER
1
AC1014
9
$HANDSEED
5
FFFF
0
ENDSEC
0
SECTION
2
TABLES
0
TABLE
2
VPORT
5
8
100
AcDbSymbolTable
0
ENDTAB
0
TABLE
2
LTYPE
5
5
100
AcDbSymbolTable
0
LTYPE
5
14
100
AcDbSymbolTableRecord
100
AcDbLinetypeTableRecord
2
BYBLOCK
70
0
0
LTYPE
5
15
100
AcDbSymbolTableRecord
100
AcDbLinetypeTableRecord
2
BYLAYER
70
0
0
ENDTAB
0
TABLE
2
LAYER
5
2
100
AcDbSymbolTable
70
2
0
LAYER
5
50
100
AcDbSymbolTableRecord
100
AcDbLayerTableRecord
2
0
70
0
6
CONTINUOUS
0
ENDTAB
0
TABLE
2
STYLE
5
3
100
AcDbSymbolTable
70
1
0
STYLE
5
11
100
AcDbSymbolTableRecord
100
AcDbTextStyleTableRecord
2
STANDARD
70
0
0
ENDTAB
0
TABLE
2
VIEW
5
6
100
AcDbSymbolTable
70
0
0
ENDTAB
0
TABLE
2
UCS
5
7
100
AcDbSymbolTable
70
0
0
ENDTAB
0
TABLE
2
APPID
5
9
100
AcDbSymbolTable
70
2
0
APPID
5
12
100
AcDbSymbolTableRecord
100
AcDbRegAppTableRecord
2
ACAD
70
0
0
ENDTAB
0
TABLE
2
DIMSTYLE
5
A
100
AcDbSymbolTable
70
1
0
ENDTAB
0
TABLE
2
BLOCK_RECORD
5
1
100
AcDbSymbolTable
70
1
0
BLOCK_RECORD
5
1F
100
AcDbSymbolTableRecord
100
AcDbBlockTableRecord
2
*MODEL_SPACE
0
BLOCK_RECORD
5
1B
100
AcDbSymbolTableRecord
100
AcDbBlockTableRecord
2
*PAPER_SPACE
0
ENDTAB
0
ENDSEC
0
SECTION
2
BLOCKS
0
BLOCK
5
20
100
AcDbEntity
100
AcDbBlockBegin
2
*MODEL_SPACE
0
ENDBLK
5
21
100
AcDbEntity
100
AcDbBlockEnd
0
BLOCK
5
1C
100
AcDbEntity
100
AcDbBlockBegin
2
*PAPER_SPACE
0
ENDBLK
5
1D
100
AcDbEntity
100
AcDbBlockEnd
0
ENDSEC
0
SECTION
2
ENTITIES
0
LWPOLYLINE
5
100
100
AcDbEntity
8
0
100
AcDbPolyline
90
6
70
1
43
0.0
10
-5.3290705182007514e-14
20
-150.39230484541326
10
130.2435565298214
20
-75.196152422706675
10
130.24355652982146
20
75.196152422706575
10
0
20
150.39230484541326
10
-130.2435565298214
20
75.196152422706632
10
-130.24355652982143
20
-75.196152422706604
0
CIRCLE
5
101
100
AcDbEntity
8
0
100
AcDbCircle
10
0
20
0
30
0
40
190.19999999999999
210
0
220
-0
230
1
0
LINE
5
102
100
AcDbEntity
8
0
100
AcDbLine
10
0
20
191.00000284612179
30
0
11
0
21
201.0000029951334
31
0
0
LINE
5
103
100
AcDbEntity
8
0
100
AcDbLine
10
-165.41085458764155
20
95.500001423060908
30
0
11
-174.07110875453378
21
100.50000149756671
31
0
0
LINE
5
104
100
AcDbEntity
8
0
100
AcDbLine
10
-165.41085458764158
20
-95.500001423060866
30
0
11
-174.07110875453381
21
-100.50000149756664
31
0
0
LINE
5
105
100
AcDbEntity
8
0
100
AcDbLine
10
-2.3390754212263838e-14
20
-191.00000284612179
30
0
11
-2.4615401029659852e-14
21
-201.0000029951334
31
0
0
LINE
5
106
100
AcDbEntity
8
0
100
AcDbLine
10
165.4108545876415
20
-95.500001423061022
30
0
11
174.07110875453373
21
-100.50000149756684
31
0
0
LINE
5
107
100
AcDbEntity
8
0
100
AcDbLine
10
165.41085458764161
20
95.500001423060766
30
0
11
174.07110875453387
21
100.50000149756656
31
0
0
CIRCLE
5
108
100
AcDbEntity
8
0
100
AcDbCircle
10
-169.12177826491069
20
0
30
0
40
3.7999999999999998
210
0
220
0
230
1
0
CIRCLE
5
109
100
AcDbEntity
8
0
100
AcDbCircle
10
-84.560889132455358
20
-146.46375631061156
30
0
40
3.7999999999999998
210
0
220
0
230
1
0
CIRCLE
5
110
100
AcDbEntity
8
0
100
AcDbCircle
10
84.560889132455301
20
-146.46375631061159
30
0
40
3.7999999999999998
210
0
220
0
230
1
0
CIRCLE
5
111
100
AcDbEntity
8
0
100
AcDbCircle
10
169.12177826491069
20
-2.0711444441823127e-14
30
0
40
3.7999999999999998
210
0
220
0
230
1
0
CIRCLE
5
112
100
AcDbEntity
8
0
100
AcDbCircle
10
84.560889132455443
20
146.46375631061153
30
0
40
3.7999999999999998
210
0
220
0
230
1
0
CIRCLE
5
113
100
AcDbEntity
8
0
100
AcDbCircle
10
-84.56088913245523
20
146.46375631061164
30
0
40
3.7999999999999998
210
0
220
0
230
1
0
CIRCLE
5
114
100
AcDbEntity
8
0
100
AcDbCircle
10
84.560889132455443
20
146.46375631061153
30
0
40
3.8000000000000074
210
0
220
0
230
1
0
CIRCLE
5
115
100
AcDbEntity
8
0
100
AcDbCircle
10
-84.560889132455358
20
-146.46375631061156
30
0
40
3.8000000000000074
210
0
220
0
230
1
0
CIRCLE
5
116
100
AcDbEntity
8
0
100
AcDbCircle
10
84.560889132455301
20
-146.46375631061159
30
0
40
3.8000000000000074
210
0
220
0
230
1
0
CIRCLE
5
117
100
AcDbEntity
8
0
100
AcDbCircle
10
-84.56088913245523
20
146.46375631061164
30
0
40
3.8000000000000074
210
0
220
0
230
1
0
CIRCLE
5
118
100
AcDbEntity
8
0
100
AcDbCircle
10
-169.12177826491069
20
0
30
0
40
3.7999999999999901
210
0
220
0
230
1
0
CIRCLE
5
119
100
AcDbEntity
8
0
100
AcDbCircle
10
169.12177826491069
20
-2.0711444441823127e-14
30
0
40
3.7999999999999901
210
0
220
0
230
1
0
ENDSEC
0
SECTION
2
OBJECTS
0
DICTIONARY
5
C
100
AcDbDictionary
3
ACAD_GROUP
350
D
3
ACAD_MLINESTYLE
350
17
0
DICTIONARY
5
D
100
AcDbDictionary
0
DICTIONARY
5
1A
330
C
100
AcDbDictionary
0
DICTIONARY
5
17
100
AcDbDictionary
0
ENDSEC
0
EOF
