0
SECTION
2
HEADER
9
$INSUNITS
70
4
9
$ACADVER
1
AC1014
9
$HANDSEED
5
FFFF
0
ENDSEC
0
SECTION
2
TABLES
0
TABLE
2
VPORT
5
8
100
AcDbSymbolTable
0
ENDTAB
0
TABLE
2
LTYPE
5
5
100
AcDbSymbolTable
0
LTYPE
5
14
100
AcDbSymbolTableRecord
100
AcDbLinetypeTableRecord
2
BYBLOCK
70
0
0
LTYPE
5
15
100
AcDbSymbolTableRecord
100
AcDbLinetypeTableRecord
2
BYLAYER
70
0
0
ENDTAB
0
TABLE
2
LAYER
5
2
100
AcDbSymbolTable
70
2
0
LAYER
5
50
100
AcDbSymbolTableRecord
100
AcDbLayerTableRecord
2
0
70
0
6
CONTINUOUS
0
ENDTAB
0
TABLE
2
STYLE
5
3
100
AcDbSymbolTable
70
1
0
STYLE
5
11
100
AcDbSymbolTableRecord
100
AcDbTextStyleTableRecord
2
STANDARD
70
0
0
ENDTAB
0
TABLE
2
VIEW
5
6
100
AcDbSymbolTable
70
0
0
ENDTAB
0
TABLE
2
UCS
5
7
100
AcDbSymbolTable
70
0
0
ENDTAB
0
TABLE
2
APPID
5
9
100
AcDbSymbolTable
70
2
0
APPID
5
12
100
AcDbSymbolTableRecord
100
AcDbRegAppTableRecord
2
ACAD
70
0
0
ENDTAB
0
TABLE
2
DIMSTYLE
5
A
100
AcDbSymbolTable
70
1
0
ENDTAB
0
TABLE
2
BLOCK_RECORD
5
1
100
AcDbSymbolTable
70
1
0
BLOCK_RECORD
5
1F
100
AcDbSymbolTableRecord
100
AcDbBlockTableRecord
2
*MODEL_SPACE
0
BLOCK_RECORD
5
1B
100
AcDbSymbolTableRecord
100
AcDbBlockTableRecord
2
*PAPER_SPACE
0
ENDTAB
0
ENDSEC
0
SECTION
2
BLOCKS
0
BLOCK
5
20
100
AcDbEntity
100
AcDbBlockBegin
2
*MODEL_SPACE
0
ENDBLK
5
21
100
AcDbEntity
100
AcDbBlockEnd
0
BLOCK
5
1C
100
AcDbEntity
100
AcDbBlockBegin
2
*PAPER_SPACE
0
ENDBLK
5
1D
100
AcDbEntity
100
AcDbBlockEnd
0
ENDSEC
0
SECTION
2
ENTITIES
0
LWPOLYLINE
5
100
100
AcDbEntity
8
0
100
AcDbPolyline
90
4
70
1
43
0.0
10
-92.069418743314216
20
-2.9999999999999982
10
-92.069418743314216
20
2.9999999999999982
10
-95.56941874331423
20
2.9999999999999982
10
-95.56941874331423
20
-2.9999999999999982
0
LWPOLYLINE
5
101
100
AcDbEntity
8
0
100
AcDbPolyline
90
4
70
1
43
0.0
10
81.135662013573565
20
67
10
81.135662013573565
20
73
10
77.635662013573565
20
73
10
77.635662013573565
20
67
0
LWPOLYLINE
5
102
100
AcDbEntity
8
0
100
AcDbPolyline
90
4
70
1
43
0.0
10
-5.466878364870329
20
67
10
-5.466878364870329
20
73
10
-8.9668783648703254
20
73
10
-8.9668783648703254
20
67
0
LWPOLYLINE
5
103
100
AcDbEntity
8
0
100
AcDbPolyline
90
4
70
1
43
0.0
10
37.834391824351613
20
102
10
37.834391824351613
20
108
10
34.33439182435162
20
108
10
34.33439182435162
20
102
0
LWPOLYLINE
5
104
100
AcDbEntity
8
0
100
AcDbPolyline
90
4
70
1
43
0.0
10
-48.768148554092278
20
-108
10
-48.768148554092278
20
-102
10
-52.268148554092271
20
-102
10
-52.268148554092271
20
-108
0
LWPOLYLINE
5
105
100
AcDbEntity
8
0
100
AcDbPolyline
90
4
70
1
43
0.0
10
95.569418743314202
20
67
10
95.569418743314202
20
73
10
92.069418743314202
20
73
10
92.069418743314202
20
67
0
LWPOLYLINE
5
106
100
AcDbEntity
8
0
100
AcDbPolyline
90
4
70
1
43
0.0
10
-77.635662013573551
20
-38
10
-77.635662013573551
20
-32
10
-81.135662013573565
20
-32
10
-81.135662013573565
20
-38
0
LWPOLYLINE
5
107
100
AcDbEntity
8
0
100
AcDbPolyline
90
4
70
1
43
0.0
10
81.135662013573565
20
-73
10
81.135662013573565
20
-67
10
77.635662013573565
20
-67
10
77.635662013573565
20
-73
0
LWPOLYLINE
5
108
100
AcDbEntity
8
0
100
AcDbPolyline
90
4
70
1
43
0.0
10
23.400635094610969
20
32
10
23.400635094610969
20
38
10
19.900635094610966
20
38
10
19.900635094610966
20
32
0
LWPOLYLINE
5
109
100
AcDbEntity
8
0
100
AcDbPolyline
90
4
70
1
43
0.0
10
-19.900635094610966
20
32
10
-19.900635094610966
20
38
10
-23.40063509461098
20
38
10
-23.40063509461098
20
32
0
LWPOLYLINE
5
110
100
AcDbEntity
8
0
100
AcDbPolyline
90
4
70
1
43
0.0
10
37.834391824351613
20
32
10
37.834391824351613
20
38
10
34.33439182435162
20
38
10
34.33439182435162
20
32
0
LWPOLYLINE
5
111
100
AcDbEntity
8
0
100
AcDbPolyline
90
4
70
1
43
0.0
10
8.9668783648703254
20
-73
10
8.9668783648703254
20
-67
10
5.4668783648703201
20
-67
10
5.4668783648703201
20
-73
0
LWPOLYLINE
5
112
100
AcDbEntity
8
0
100
AcDbPolyline
90
4
70
1
43
0.0
10
66.701905283832915
20
67
10
66.701905283832915
20
73
10
63.201905283832915
20
73
10
63.201905283832915
20
67
0
LWPOLYLINE
5
113
100
AcDbEntity
8
0
100
AcDbPolyline
90
4
70
1
43
0.0
10
-63.201905283832915
20
-38
10
-63.201905283832915
20
-32
10
-66.701905283832929
20
-32
10
-66.701905283832929
20
-38
0
LWPOLYLINE
5
114
100
AcDbEntity
8
0
100
AcDbPolyline
90
4
70
1
43
0.0
10
-63.201905283832915
20
-2.9999999999999982
10
-63.201905283832915
20
2.9999999999999982
10
-66.701905283832929
20
2.9999999999999982
10
-66.701905283832929
20
-2.9999999999999982
0
LWPOLYLINE
5
115
100
AcDbEntity
8
0
100
AcDbPolyline
90
4
70
1
43
0.0
10
-92.069418743314216
20
32
10
-92.069418743314216
20
38
10
-95.56941874331423
20
38
10
-95.56941874331423
20
32
0
LWPOLYLINE
5
116
100
AcDbEntity
8
0
100
AcDbPolyline
90
4
70
1
43
0.0
10
66.701905283832915
20
-38
10
66.701905283832915
20
-32
10
63.201905283832915
20
-32
10
63.201905283832915
20
-38
0
LWPOLYLINE
5
117
100
AcDbEntity
8
0
100
AcDbPolyline
90
4
70
1
43
0.0
10
-34.33439182435162
20
-2.9999999999999982
10
-34.33439182435162
20
2.9999999999999982
10
-37.834391824351613
20
2.9999999999999982
10
-37.834391824351613
20
-2.9999999999999982
0
LWPOLYLINE
5
118
100
AcDbEntity
8
0
100
AcDbPolyline
90
4
70
1
43
0.0
10
-34.33439182435162
20
32
10
-34.33439182435162
20
38
10
-37.834391824351613
20
38
10
-37.834391824351613
20
32
0
LWPOLYLINE
5
119
100
AcDbEntity
8
0
100
AcDbPolyline
90
4
70
1
43
0.0
10
110.00317547305487
20
-38
10
110.00317547305487
20
-32
10
106.50317547305485
20
-32
10
106.50317547305485
20
-38
0
LWPOLYLINE
5
120
100
AcDbEntity
8
0
100
AcDbPolyline
90
4
70
1
43
0.0
10
66.701905283832915
20
32
10
66.701905283832915
20
38
10
63.201905283832915
20
38
10
63.201905283832915
20
32
0
LWPOLYLINE
5
121
100
AcDbEntity
8
0
100
AcDbPolyline
90
4
70
1
43
0.0
10
-48.768148554092278
20
32
10
-48.768148554092278
20
38
10
-52.268148554092271
20
38
10
-52.268148554092271
20
32
0
LWPOLYLINE
5
122
100
AcDbEntity
8
0
100
AcDbPolyline
90
4
70
1
43
0.0
10
-92.069418743314216
20
-38
10
-92.069418743314216
20
-32
10
-95.56941874331423
20
-32
10
-95.56941874331423
20
-38
0
LWPOLYLINE
5
123
100
AcDbEntity
8
0
100
AcDbPolyline
90
4
70
1
43
0.0
10
23.400635094610969
20
102
10
23.400635094610969
20
108
10
19.900635094610966
20
108
10
19.900635094610966
20
102
0
LWPOLYLINE
5
124
100
AcDbEntity
8
0
100
AcDbPolyline
90
4
70
1
43
0.0
10
-63.201905283832915
20
32
10
-63.201905283832915
20
38
10
-66.701905283832929
20
38
10
-66.701905283832929
20
32
0
LWPOLYLINE
5
125
100
AcDbEntity
8
0
100
AcDbPolyline
90
4
70
1
43
0.0
10
-77.635662013573551
20
32
10
-77.635662013573551
20
38
10
-81.135662013573565
20
38
10
-81.135662013573565
20
32
0
LWPOLYLINE
5
126
100
AcDbEntity
8
0
100
AcDbPolyline
90
4
70
1
43
0.0
10
-19.900635094610966
20
-2.9999999999999982
10
-19.900635094610966
20
2.9999999999999982
10
-23.40063509461098
20
2.9999999999999982
10
-23.40063509461098
20
-2.9999999999999982
0
LWPOLYLINE
5
127
100
AcDbEntity
8
0
100
AcDbPolyline
90
4
70
1
43
0.0
10
95.569418743314202
20
32
10
95.569418743314202
20
38
10
92.069418743314202
20
38
10
92.069418743314202
20
32
0
LWPOLYLINE
5
128
100
AcDbEntity
8
0
100
AcDbPolyline
90
4
70
1
43
0.0
10
-19.900635094610966
20
-38
10
-19.900635094610966
20
-32
10
-23.40063509461098
20
-32
10
-23.40063509461098
20
-38
0
LWPOLYLINE
5
129
100
AcDbEntity
8
0
100
AcDbPolyline
90
4
70
1
43
0.0
10
23.400635094610969
20
-38
10
23.400635094610969
20
-32
10
19.900635094610966
20
-32
10
19.900635094610966
20
-38
0
LWPOLYLINE
5
130
100
AcDbEntity
8
0
100
AcDbPolyline
90
4
70
1
43
0.0
10
-48.768148554092278
20
102
10
-48.768148554092278
20
108
10
-52.268148554092271
20
108
10
-52.268148554092271
20
102
0
LWPOLYLINE
5
131
100
AcDbEntity
8
0
100
AcDbPolyline
90
4
70
1
43
0.0
10
-34.33439182435162
20
-38
10
-34.33439182435162
20
-32
10
-37.834391824351613
20
-32
10
-37.834391824351613
20
-38
0
LWPOLYLINE
5
132
100
AcDbEntity
8
0
100
AcDbPolyline
90
4
70
1
43
0.0
10
52.268148554092271
20
102
10
52.268148554092271
20
108
10
48.768148554092264
20
108
10
48.768148554092264
20
102
0
LWPOLYLINE
5
133
100
AcDbEntity
8
0
100
AcDbPolyline
90
4
70
1
43
0.0
10
8.9668783648703254
20
-38
10
8.9668783648703254
20
-32
10
5.4668783648703201
20
-32
10
5.4668783648703201
20
-38
0
LWPOLYLINE
5
134
100
AcDbEntity
8
0
100
AcDbPolyline
90
4
70
1
43
0.0
10
-5.466878364870329
20
102
10
-5.466878364870329
20
108
10
-8.9668783648703254
20
108
10
-8.9668783648703254
20
102
0
LWPOLYLINE
5
135
100
AcDbEntity
8
0
100
AcDbPolyline
90
4
70
1
43
0.0
10
81.135662013573565
20
-38
10
81.135662013573565
20
-32
10
77.635662013573565
20
-32
10
77.635662013573565
20
-38
0
LWPOLYLINE
5
136
100
AcDbEntity
8
0
100
AcDbPolyline
90
4
70
1
43
0.0
10
23.400635094610969
20
-73
10
23.400635094610969
20
-67
10
19.900635094610966
20
-67
10
19.900635094610966
20
-73
0
LWPOLYLINE
5
137
100
AcDbEntity
8
0
100
AcDbPolyline
90
4
70
1
43
0.0
10
-5.466878364870329
20
-38
10
-5.466878364870329
20
-32
10
-8.9668783648703254
20
-32
10
-8.9668783648703254
20
-38
0
LWPOLYLINE
5
138
100
AcDbEntity
8
0
100
AcDbPolyline
90
4
70
1
43
0.0
10
-92.069418743314216
20
-73
10
-92.069418743314216
20
-67
10
-95.56941874331423
20
-67
10
-95.56941874331423
20
-73
0
LWPOLYLINE
5
139
100
AcDbEntity
8
0
100
AcDbPolyline
90
4
70
1
43
0.0
10
66.701905283832915
20
-73
10
66.701905283832915
20
-67
10
63.201905283832915
20
-67
10
63.201905283832915
20
-73
0
LWPOLYLINE
5
140
100
AcDbEntity
8
0
100
AcDbPolyline
90
4
70
1
43
0.0
10
-34.33439182435162
20
-73
10
-34.33439182435162
20
-67
10
-37.834391824351613
20
-67
10
-37.834391824351613
20
-73
0
LWPOLYLINE
5
141
100
AcDbEntity
8
0
100
AcDbPolyline
90
4
70
1
43
0.0
10
37.834391824351613
20
67
10
37.834391824351613
20
73
10
34.33439182435162
20
73
10
34.33439182435162
20
67
0
LWPOLYLINE
5
142
100
AcDbEntity
8
0
100
AcDbPolyline
90
4
70
1
43
0.0
10
-19.900635094610966
20
-108
10
-19.900635094610966
20
-102
10
-23.40063509461098
20
-102
10
-23.40063509461098
20
-108
0
LWPOLYLINE
5
143
100
AcDbEntity
8
0
100
AcDbPolyline
90
4
70
1
43
0.0
10
8.9668783648703254
20
32
10
8.9668783648703254
20
38
10
5.4668783648703201
20
38
10
5.4668783648703201
20
32
0
LWPOLYLINE
5
144
100
AcDbEntity
8
0
100
AcDbPolyline
90
4
70
1
43
0.0
10
-48.768148554092278
20
-73
10
-48.768148554092278
20
-67
10
-52.268148554092271
20
-67
10
-52.268148554092271
20
-73
0
LWPOLYLINE
5
145
100
AcDbEntity
8
0
100
AcDbPolyline
90
4
70
1
43
0.0
10
-19.900635094610966
20
102
10
-19.900635094610966
20
108
10
-23.40063509461098
20
108
10
-23.40063509461098
20
102
0
LWPOLYLINE
5
146
100
AcDbEntity
8
0
100
AcDbPolyline
90
4
70
1
43
0.0
10
37.834391824351613
20
-38
10
37.834391824351613
20
-32
10
34.33439182435162
20
-32
10
34.33439182435162
20
-38
0
LWPOLYLINE
5
147
100
AcDbEntity
8
0
100
AcDbPolyline
90
4
70
1
43
0.0
10
-48.768148554092278
20
-2.9999999999999982
10
-48.768148554092278
20
2.9999999999999982
10
-52.268148554092271
20
2.9999999999999982
10
-52.268148554092271
20
-2.9999999999999982
0
LWPOLYLINE
5
148
100
AcDbEntity
8
0
100
AcDbPolyline
90
4
70
1
43
0.0
10
8.9668783648703254
20
-108
10
8.9668783648703254
20
-102
10
5.4668783648703201
20
-102
10
5.4668783648703201
20
-108
0
LWPOLYLINE
5
149
100
AcDbEntity
8
0
100
AcDbPolyline
90
4
70
1
43
0.0
10
95.569418743314202
20
-2.9999999999999982
10
95.569418743314202
20
2.9999999999999982
10
92.069418743314202
20
2.9999999999999982
10
92.069418743314202
20
-2.9999999999999982
0
LWPOLYLINE
5
150
100
AcDbEntity
8
0
100
AcDbPolyline
90
4
70
1
43
0.0
10
52.268148554092271
20
32
10
52.268148554092271
20
38
10
48.768148554092264
20
38
10
48.768148554092264
20
32
0
CIRCLE
5
151
100
AcDbEntity
8
0
100
AcDbCircle
10
-136.39900109604909
20
78.750000000000014
30
0
40
3.0000000000000071
210
0
220
0
230
1
0
LWPOLYLINE
5
152
100
AcDbEntity
8
0
100
AcDbPolyline
90
4
70
1
43
0.0
10
-8.9668783648703254
20
-2.9999999999999982
10
-5.466878364870329
20
-2.9999999999999982
10
-5.466878364870329
20
2.9999999999999982
10
-8.9668783648703254
20
2.9999999999999982
0
LWPOLYLINE
5
153
100
AcDbEntity
8
0
100
AcDbPolyline
90
4
70
1
43
0.0
10
52.268148554092271
20
-108
10
52.268148554092271
20
-102
10
48.768148554092264
20
-102
10
48.768148554092264
20
-108
0
LWPOLYLINE
5
154
100
AcDbEntity
8
0
100
AcDbPolyline
90
4
70
1
43
0.0
10
-34.33439182435162
20
67
10
-34.33439182435162
20
73
10
-37.834391824351613
20
73
10
-37.834391824351613
20
67
0
LWPOLYLINE
5
155
100
AcDbEntity
8
0
100
AcDbPolyline
90
4
70
1
43
0.0
10
37.834391824351613
20
-2.9999999999999982
10
37.834391824351613
20
2.9999999999999982
10
34.33439182435162
20
2.9999999999999982
10
34.33439182435162
20
-2.9999999999999982
0
LWPOLYLINE
5
156
100
AcDbEntity
8
0
100
AcDbPolyline
90
4
70
1
43
0.0
10
-106.50317547305485
20
-38
10
-106.50317547305485
20
-32
10
-110.00317547305487
20
-32
10
-110.00317547305487
20
-38
0
LWPOLYLINE
5
157
100
AcDbEntity
8
0
100
AcDbPolyline
90
4
70
1
43
0.0
10
-19.900635094610966
20
-73
10
-19.900635094610966
20
-67
10
-23.40063509461098
20
-67
10
-23.40063509461098
20
-73
0
LWPOLYLINE
5
158
100
AcDbEntity
8
0
100
AcDbPolyline
90
4
70
1
43
0.0
10
-106.50317547305485
20
67
10
-106.50317547305485
20
73
10
-110.00317547305487
20
73
10
-110.00317547305487
20
67
0
LWPOLYLINE
5
159
100
AcDbEntity
8
0
100
AcDbPolyline
90
4
70
1
43
0.0
10
-48.768148554092278
20
-38
10
-48.768148554092278
20
-32
10
-52.268148554092271
20
-32
10
-52.268148554092271
20
-38
0
LWPOLYLINE
5
160
100
AcDbEntity
8
0
100
AcDbPolyline
90
4
70
1
43
0.0
10
-48.768148554092278
20
67
10
-48.768148554092278
20
73
10
-52.268148554092271
20
73
10
-52.268148554092271
20
67
0
LWPOLYLINE
5
161
100
AcDbEntity
8
0
100
AcDbPolyline
90
4
70
1
43
0.0
10
52.268148554092271
20
-2.9999999999999982
10
52.268148554092271
20
2.9999999999999982
10
48.768148554092264
20
2.9999999999999982
10
48.768148554092264
20
-2.9999999999999982
0
LWPOLYLINE
5
162
100
AcDbEntity
8
0
100
AcDbPolyline
90
4
70
1
43
0.0
10
81.135662013573565
20
32
10
81.135662013573565
20
38
10
77.635662013573565
20
38
10
77.635662013573565
20
32
0
CIRCLE
5
163
100
AcDbEntity
8
0
100
AcDbCircle
10
-68.19950054802456
20
118.125
30
0
40
2.9999999999999982
210
0
220
0
230
1
0
LWPOLYLINE
5
164
100
AcDbEntity
8
0
100
AcDbPolyline
90
4
70
1
43
0.0
10
81.135662013573565
20
-2.9999999999999982
10
81.135662013573565
20
2.9999999999999982
10
77.635662013573565
20
2.9999999999999982
10
77.635662013573565
20
-2.9999999999999982
0
LWPOLYLINE
5
165
100
AcDbEntity
8
0
100
AcDbPolyline
90
4
70
1
43
0.0
10
110.00317547305487
20
-2.9999999999999982
10
110.00317547305487
20
2.9999999999999982
10
106.50317547305485
20
2.9999999999999982
10
106.50317547305485
20
-2.9999999999999982
0
LWPOLYLINE
5
166
100
AcDbEntity
8
0
100
AcDbPolyline
90
4
70
1
43
0.0
10
-5.466878364870329
20
-108
10
-5.466878364870329
20
-102
10
-8.9668783648703254
20
-102
10
-8.9668783648703254
20
-108
0
LWPOLYLINE
5
167
100
AcDbEntity
8
0
100
AcDbPolyline
90
4
70
1
43
0.0
10
8.9668783648703254
20
102
10
8.9668783648703254
20
108
10
5.4668783648703201
20
108
10
5.4668783648703201
20
102
0
LWPOLYLINE
5
168
100
AcDbEntity
8
0
100
AcDbPolyline
90
4
70
1
43
0.0
10
-106.50317547305485
20
32
10
-106.50317547305485
20
38
10
-110.00317547305487
20
38
10
-110.00317547305487
20
32
0
LWPOLYLINE
5
169
100
AcDbEntity
8
0
100
AcDbPolyline
90
4
70
1
43
0.0
10
8.9668783648703254
20
-2.9999999999999982
10
8.9668783648703254
20
2.9999999999999982
10
5.4668783648703201
20
2.9999999999999982
10
5.4668783648703201
20
-2.9999999999999982
0
LWPOLYLINE
5
170
100
AcDbEntity
8
0
100
AcDbPolyline
90
4
70
1
43
0.0
10
23.400635094610969
20
-2.9999999999999982
10
23.400635094610969
20
2.9999999999999982
10
19.900635094610966
20
2.9999999999999982
10
19.900635094610966
20
-2.9999999999999982
0
LWPOLYLINE
5
171
100
AcDbEntity
8
0
100
AcDbPolyline
90
4
70
1
43
0.0
10
-92.069418743314216
20
67
10
-92.069418743314216
20
73
10
-95.56941874331423
20
73
10
-95.56941874331423
20
67
0
LWPOLYLINE
5
172
100
AcDbEntity
8
0
100
AcDbPolyline
90
4
70
1
43
0.0
10
-63.201905283832915
20
-73
10
-63.201905283832915
20
-67
10
-66.701905283832929
20
-67
10
-66.701905283832929
20
-73
0
LWPOLYLINE
5
173
100
AcDbEntity
8
0
100
AcDbPolyline
90
4
70
1
43
0.0
10
-77.635662013573551
20
-73
10
-77.635662013573551
20
-67
10
-81.135662013573565
20
-67
10
-81.135662013573565
20
-73
0
LWPOLYLINE
5
174
100
AcDbEntity
8
0
100
AcDbPolyline
90
4
70
1
43
0.0
10
-34.33439182435162
20
-108
10
-34.33439182435162
20
-102
10
-37.834391824351613
20
-102
10
-37.834391824351613
20
-108
0
LWPOLYLINE
5
175
100
AcDbEntity
8
0
100
AcDbPolyline
90
4
70
1
43
0.0
10
66.701905283832915
20
-2.9999999999999982
10
66.701905283832915
20
2.9999999999999982
10
63.201905283832915
20
2.9999999999999982
10
63.201905283832915
20
-2.9999999999999982
0
LWPOLYLINE
5
176
100
AcDbEntity
8
0
100
AcDbPolyline
90
4
70
1
43
0.0
10
23.400635094610969
20
-108
10
23.400635094610969
20
-102
10
19.900635094610966
20
-102
10
19.900635094610966
20
-108
0
LWPOLYLINE
5
177
100
AcDbEntity
8
0
100
AcDbPolyline
90
4
70
1
43
0.0
10
-77.635662013573551
20
67
10
-77.635662013573551
20
73
10
-81.135662013573565
20
73
10
-81.135662013573565
20
67
0
LWPOLYLINE
5
178
100
AcDbEntity
8
0
100
AcDbPolyline
90
4
70
1
43
0.0
10
52.268148554092271
20
67
10
52.268148554092271
20
73
10
48.768148554092264
20
73
10
48.768148554092264
20
67
0
LWPOLYLINE
5
179
100
AcDbEntity
8
0
100
AcDbPolyline
90
4
70
1
43
0.0
10
110.00317547305487
20
32
10
110.00317547305487
20
38
10
106.50317547305485
20
38
10
106.50317547305485
20
32
0
LWPOLYLINE
5
180
100
AcDbEntity
8
0
100
AcDbPolyline
90
4
70
1
43
0.0
10
-77.635662013573551
20
-2.9999999999999982
10
-77.635662013573551
20
2.9999999999999982
10
-81.135662013573565
20
2.9999999999999982
10
-81.135662013573565
20
-2.9999999999999982
0
LWPOLYLINE
5
181
100
AcDbEntity
8
0
100
AcDbPolyline
90
4
70
1
43
0.0
10
-106.50317547305485
20
-73
10
-106.50317547305485
20
-67
10
-110.00317547305487
20
-67
10
-110.00317547305487
20
-73
0
LWPOLYLINE
5
182
100
AcDbEntity
8
0
100
AcDbPolyline
90
4
70
1
43
0.0
10
8.9668783648703254
20
67
10
8.9668783648703254
20
73
10
5.4668783648703201
20
73
10
5.4668783648703201
20
67
0
LWPOLYLINE
5
183
100
AcDbEntity
8
0
100
AcDbPolyline
90
4
70
1
43
0.0
10
-106.50317547305485
20
-2.9999999999999982
10
-106.50317547305485
20
2.9999999999999982
10
-110.00317547305487
20
2.9999999999999982
10
-110.00317547305487
20
-2.9999999999999982
0
LWPOLYLINE
5
184
100
AcDbEntity
8
0
100
AcDbPolyline
90
4
70
1
43
0.0
10
95.569418743314202
20
-38
10
95.569418743314202
20
-32
10
92.069418743314202
20
-32
10
92.069418743314202
20
-38
0
LWPOLYLINE
5
185
100
AcDbEntity
8
0
100
AcDbPolyline
90
4
70
1
43
0.0
10
110.00317547305487
20
-73
10
110.00317547305487
20
-67
10
106.50317547305485
20
-67
10
106.50317547305485
20
-73
0
LWPOLYLINE
5
186
100
AcDbEntity
8
0
100
AcDbPolyline
90
4
70
1
43
0.0
10
52.268148554092271
20
-38
10
52.268148554092271
20
-32
10
48.768148554092264
20
-32
10
48.768148554092264
20
-38
0
LWPOLYLINE
5
187
100
AcDbEntity
8
0
100
AcDbPolyline
90
4
70
1
43
0.0
10
23.400635094610969
20
67
10
23.400635094610969
20
73
10
19.900635094610966
20
73
10
19.900635094610966
20
67
0
LWPOLYLINE
5
188
100
AcDbEntity
8
0
100
AcDbPolyline
90
4
70
1
43
0.0
10
52.268148554092271
20
-73
10
52.268148554092271
20
-67
10
48.768148554092264
20
-67
10
48.768148554092264
20
-73
0
LWPOLYLINE
5
189
100
AcDbEntity
8
0
100
AcDbPolyline
90
4
70
1
43
0.0
10
95.569418743314202
20
-73
10
95.569418743314202
20
-67
10
92.069418743314202
20
-67
10
92.069418743314202
20
-73
0
LWPOLYLINE
5
190
100
AcDbEntity
8
0
100
AcDbPolyline
90
4
70
1
43
0.0
10
-5.466878364870329
20
-73
10
-5.466878364870329
20
-67
10
-8.9668783648703254
20
-67
10
-8.9668783648703254
20
-73
0
LWPOLYLINE
5
191
100
AcDbEntity
8
0
100
AcDbPolyline
90
4
70
1
43
0.0
10
-63.201905283832915
20
67
10
-63.201905283832915
20
73
10
-66.701905283832929
20
73
10
-66.701905283832929
20
67
0
LWPOLYLINE
5
192
100
AcDbEntity
8
0
100
AcDbPolyline
90
4
70
1
43
0.0
10
37.834391824351613
20
-108
10
37.834391824351613
20
-102
10
34.33439182435162
20
-102
10
34.33439182435162
20
-108
0
LWPOLYLINE
5
193
100
AcDbEntity
8
0
100
AcDbPolyline
90
4
70
1
43
0.0
10
-5.466878364870329
20
32
10
-5.466878364870329
20
38
10
-8.9668783648703254
20
38
10
-8.9668783648703254
20
32
0
LWPOLYLINE
5
194
100
AcDbEntity
8
0
100
AcDbPolyline
90
4
70
1
43
0.0
10
37.834391824351613
20
-73
10
37.834391824351613
20
-67
10
34.33439182435162
20
-67
10
34.33439182435162
20
-73
0
LWPOLYLINE
5
195
100
AcDbEntity
8
0
100
AcDbPolyline
90
4
70
1
43
0.0
10
-34.33439182435162
20
102
10
-34.33439182435162
20
108
10
-37.834391824351613
20
108
10
-37.834391824351613
20
102
0
LWPOLYLINE
5
196
100
AcDbEntity
8
0
100
AcDbPolyline
90
4
70
1
43
0.0
10
110.00317547305487
20
67
10
110.00317547305487
20
73
10
106.50317547305485
20
73
10
106.50317547305485
20
67
0
LWPOLYLINE
5
197
100
AcDbEntity
8
0
100
AcDbPolyline
90
4
70
1
43
0.0
10
-19.900635094610966
20
67
10
-19.900635094610966
20
73
10
-23.40063509461098
20
73
10
-23.40063509461098
20
67
0
LWPOLYLINE
5
198
100
AcDbEntity
8
0
100
AcDbPolyline
90
6
70
1
43
0.0
10
-151.2435565298214
20
87.320508075688792
10
0
20
174.64101615137753
10
151.24355652982157
20
87.32050807568865
10
151.24355652982149
20
-87.320508075688792
10
-5.3290705182007514e-14
20
-174.64101615137753
10
-151.2435565298214
20
-87.32050807568875
0
CIRCLE
5
199
100
AcDbEntity
8
0
100
AcDbCircle
10
68.199500548024616
20
118.12499999999997
30
0
40
2.9999999999999982
210
0
220
0
230
1
0
CIRCLE
5
200
100
AcDbEntity
8
0
100
AcDbCircle
10
136.39900109604918
20
78.749999999999929
30
0
40
3.0000000000000071
210
0
220
0
230
1
0
CIRCLE
5
201
100
AcDbEntity
8
0
100
AcDbCircle
10
136.39900109604906
20
-78.750000000000028
30
0
40
3.0000000000000071
210
0
220
0
230
1
0
CIRCLE
5
202
100
AcDbEntity
8
0
100
AcDbCircle
10
-136.39900109604912
20
-8.8817841970012523e-15
30
0
40
3.0000000000000071
210
0
220
0
230
1
0
CIRCLE
5
203
100
AcDbEntity
8
0
100
AcDbCircle
10
-4.4408920985006262e-14
20
-157.50000000000003
30
0
40
3.0000000000000004
210
0
220
0
230
1
0
CIRCLE
5
204
100
AcDbEntity
8
0
100
AcDbCircle
10
115.47005383792484
20
90.833333333333499
30
0
40
3.0000000000000071
210
0
220
0
230
1
0
CIRCLE
5
205
100
AcDbEntity
8
0
100
AcDbCircle
10
-115.47005383792484
20
-90.833333333333357
30
0
40
3.0000000000000071
210
0
220
0
230
1
0
CIRCLE
5
206
100
AcDbEntity
8
0
100
AcDbCircle
10
68.199500548024545
20
-118.125
30
0
40
2.9999999999999982
210
0
220
0
230
1
0
CIRCLE
5
207
100
AcDbEntity
8
0
100
AcDbCircle
10
115.47005383792484
20
-90.833333333333357
30
0
40
3.0000000000000071
210
0
220
0
230
1
0
CIRCLE
5
208
100
AcDbEntity
8
0
100
AcDbCircle
10
136.39900109604912
20
-7.1054273576010019e-14
30
0
40
3.0000000000000071
210
0
220
0
230
1
0
CIRCLE
5
209
100
AcDbEntity
8
0
100
AcDbCircle
10
1.2434497875801753e-13
20
157.5
30
0
40
3.0000000000000004
210
0
220
0
230
1
0
CIRCLE
5
210
100
AcDbEntity
8
0
100
AcDbCircle
10
-136.39900109604912
20
-78.749999999999986
30
0
40
3.0000000000000071
210
0
220
0
230
1
0
CIRCLE
5
211
100
AcDbEntity
8
0
100
AcDbCircle
10
-68.19950054802456
20
-118.125
30
0
40
2.9999999999999982
210
0
220
0
230
1
0
CIRCLE
5
212
100
AcDbEntity
8
0
100
AcDbCircle
10
-115.47005383792484
20
90.833333333333499
30
0
40
3.0000000000000071
210
0
220
0
230
1
0
CIRCLE
5
213
100
AcDbEntity
8
0
100
AcDbCircle
10
100.1443642766954
20
-105.4551270189222
30
0
40
1.5000000000000036
210
0
220
0
230
1
0
CIRCLE
5
214
100
AcDbEntity
8
0
100
AcDbCircle
10
-41.254636819353664
20
139.45512701892216
30
0
40
1.4999999999999991
210
0
220
0
230
1
0
CIRCLE
5
215
100
AcDbEntity
8
0
100
AcDbCircle
10
-100.14436427669543
20
-105.45512701892218
30
0
40
1.5000000000000036
210
0
220
0
230
1
0
CIRCLE
5
216
100
AcDbEntity
8
0
100
AcDbCircle
10
36.254636819353543
20
-130.79487298107782
30
0
40
1.5000000000000036
210
0
220
0
230
1
0
CIRCLE
5
217
100
AcDbEntity
8
0
100
AcDbCircle
10
36.254636819353635
20
130.79487298107782
30
0
40
1.5000000000000036
210
0
220
0
230
1
0
CIRCLE
5
218
100
AcDbEntity
8
0
100
AcDbCircle
10
-95.144364276695526
20
96.794872981077731
30
0
40
1.5000000000000036
210
0
220
0
230
1
0
CIRCLE
5
219
100
AcDbEntity
8
0
100
AcDbCircle
10
95.144364276695583
20
96.794872981077674
30
0
40
1.5000000000000036
210
0
220
0
230
1
0
CIRCLE
5
220
100
AcDbEntity
8
0
100
AcDbCircle
10
-36.254636819353571
20
-130.79487298107782
30
0
40
1.5000000000000036
210
0
220
0
230
1
0
CIRCLE
5
221
100
AcDbEntity
8
0
100
AcDbCircle
10
-100.14436427669543
20
105.45512701892218
30
0
40
1.5000000000000036
210
0
220
0
230
1
0
CIRCLE
5
222
100
AcDbEntity
8
0
100
AcDbCircle
10
-36.254636819353564
20
130.79487298107782
30
0
40
1.5000000000000036
210
0
220
0
230
1
0
CIRCLE
5
223
100
AcDbEntity
8
0
100
AcDbCircle
10
41.254636819353649
20
-139.45512701892216
30
0
40
1.4999999999999947
210
0
220
0
230
1
0
CIRCLE
5
224
100
AcDbEntity
8
0
100
AcDbCircle
10
-41.254636819353685
20
-139.45512701892216
30
0
40
1.4999999999999991
210
0
220
0
230
1
0
CIRCLE
5
225
100
AcDbEntity
8
0
100
AcDbCircle
10
100.14436427669548
20
105.45512701892213
30
0
40
1.5000000000000036
210
0
220
0
230
1
0
CIRCLE
5
226
100
AcDbEntity
8
0
100
AcDbCircle
10
-95.144364276695526
20
-96.794872981077731
30
0
40
1.5000000000000036
210
0
220
0
230
1
0
CIRCLE
5
227
100
AcDbEntity
8
0
100
AcDbCircle
10
95.144364276695512
20
-96.794872981077745
30
0
40
1.5000000000000036
210
0
220
0
230
1
0
CIRCLE
5
228
100
AcDbEntity
8
0
100
AcDbCircle
10
41.254636819353749
20
139.45512701892213
30
0
40
1.4999999999999947
210
0
220
0
230
1
0
ENDSEC
0
SECTION
2
OBJECTS
0
DICTIONARY
5
C
100
AcDbDictionary
3
ACAD_GROUP
350
D
3
ACAD_MLINESTYLE
350
17
0
DICTIONARY
5
D
100
AcDbDictionary
0
DICTIONARY
5
1A
330
C
100
AcDbDictionary
0
DICTIONARY
5
17
100
AcDbDictionary
0
ENDSEC
0
EOF
