  0
SECTION
  2
BLOCKS
  0
ENDSEC
  0
SECTION
  2
ENTITIES
  0
LINE
  8
0
 10
210
 20
85
 11
210.041
 21
86.57
  0
LINE
  8
0
 10
210.041
 20
86.57
 11
210.164
 21
88.1358
  0
LINE
  8
0
 10
210.164
 20
88.1358
 11
210.369
 21
89.693
  0
LINE
  8
0
 10
210.369
 20
89.693
 11
210.656
 21
91.2373
  0
LINE
  8
0
 10
210.656
 20
91.2373
 11
211.022
 21
92.7644
  0
LINE
  8
0
 10
211.022
 20
92.7644
 11
211.468
 21
94.2705
  0
LINE
  8
0
 10
211.468
 20
94.2705
 11
211.992
 21
95.751
  0
LINE
  8
0
 10
211.992
 20
95.751
 11
212.594
 21
97.202
  0
LINE
  8
0
 10
212.594
 20
97.202
 11
213.27
 21
98.6197
  0
LINE
  8
0
 10
213.27
 20
98.6197
 11
214.019
 21
100
  0
LINE
  8
0
 10
214.019
 20
100
 11
214.84
 21
101.339
  0
LINE
  8
0
 10
214.84
 20
101.339
 11
215.729
 21
102.634
  0
LINE
  8
0
 10
215.729
 20
102.634
 11
216.685
 21
103.88
  0
LINE
  8
0
 10
216.685
 20
103.88
 11
217.706
 21
105.074
  0
LINE
  8
0
 10
217.706
 20
105.074
 11
218.787
 21
106.213
  0
LINE
  8
0
 10
218.787
 20
106.213
 11
219.926
 21
107.294
  0
LINE
  8
0
 10
219.926
 20
107.294
 11
221.12
 21
108.314
  0
LINE
  8
0
 10
221.12
 20
108.314
 11
222.366
 21
109.27
  0
LINE
  8
0
 10
222.366
 20
109.27
 11
223.661
 21
110.16
  0
LINE
  8
0
 10
223.661
 20
110.16
 11
225
 21
110.981
  0
LINE
  8
0
 10
225
 20
110.981
 11
226.38
 21
111.73
  0
LINE
  8
0
 10
226.38
 20
111.73
 11
227.798
 21
112.406
  0
LINE
  8
0
 10
227.798
 20
112.406
 11
229.249
 21
113.007
  0
LINE
  8
0
 10
229.249
 20
113.007
 11
230.729
 21
113.532
  0
LINE
  8
0
 10
230.729
 20
113.532
 11
232.235
 21
113.978
  0
LINE
  8
0
 10
232.235
 20
113.978
 11
233.763
 21
114.344
  0
LINE
  8
0
 10
233.763
 20
114.344
 11
235.307
 21
114.631
  0
LINE
  8
0
 10
235.307
 20
114.631
 11
236.864
 21
114.836
  0
LINE
  8
0
 10
236.864
 20
114.836
 11
238.43
 21
114.959
  0
LINE
  8
0
 10
238.43
 20
114.959
 11
240
 21
115
  0
LINE
  8
0
 10
240
 20
115
 11
240
 21
165
  0
LINE
  8
0
 10
240
 20
165
 11
-225
 21
165
  0
LINE
  8
0
 10
-225
 20
165
 11
-225
 21
95
  0
LINE
  8
0
 10
-225
 20
95
 11
-240
 21
95
  0
LINE
  8
0
 10
-240
 20
95
 11
-240
 21
55
  0
LINE
  8
0
 10
-240
 20
55
 11
-225
 21
55
  0
LINE
  8
0
 10
-225
 20
55
 11
-225
 21
-55
  0
LINE
  8
0
 10
-225
 20
-55
 11
-240
 21
-55
  0
LINE
  8
0
 10
-240
 20
-55
 11
-240
 21
-95
  0
LINE
  8
0
 10
-240
 20
-95
 11
-225
 21
-95
  0
LINE
  8
0
 10
-225
 20
-95
 11
-225
 21
-165
  0
LINE
  8
0
 10
-225
 20
-165
 11
240
 21
-165
  0
LINE
  8
0
 10
240
 20
-165
 11
240
 21
-115
  0
LINE
  8
0
 10
240
 20
-115
 11
238.43
 21
-114.959
  0
LINE
  8
0
 10
238.43
 20
-114.959
 11
236.864
 21
-114.836
  0
LINE
  8
0
 10
236.864
 20
-114.836
 11
235.307
 21
-114.631
  0
LINE
  8
0
 10
235.307
 20
-114.631
 11
233.763
 21
-114.344
  0
LINE
  8
0
 10
233.763
 20
-114.344
 11
232.235
 21
-113.978
  0
LINE
  8
0
 10
232.235
 20
-113.978
 11
230.729
 21
-113.532
  0
LINE
  8
0
 10
230.729
 20
-113.532
 11
229.249
 21
-113.007
  0
LINE
  8
0
 10
229.249
 20
-113.007
 11
227.798
 21
-112.406
  0
LINE
  8
0
 10
227.798
 20
-112.406
 11
226.38
 21
-111.73
  0
LINE
  8
0
 10
226.38
 20
-111.73
 11
225
 21
-110.981
  0
LINE
  8
0
 10
225
 20
-110.981
 11
223.661
 21
-110.16
  0
LINE
  8
0
 10
223.661
 20
-110.16
 11
222.366
 21
-109.27
  0
LINE
  8
0
 10
222.366
 20
-109.27
 11
221.12
 21
-108.314
  0
LINE
  8
0
 10
221.12
 20
-108.314
 11
219.926
 21
-107.294
  0
LINE
  8
0
 10
219.926
 20
-107.294
 11
218.787
 21
-106.213
  0
LINE
  8
0
 10
218.787
 20
-106.213
 11
217.706
 21
-105.074
  0
LINE
  8
0
 10
217.706
 20
-105.074
 11
216.685
 21
-103.88
  0
LINE
  8
0
 10
216.685
 20
-103.88
 11
215.729
 21
-102.634
  0
LINE
  8
0
 10
215.729
 20
-102.634
 11
214.84
 21
-101.339
  0
LINE
  8
0
 10
214.84
 20
-101.339
 11
214.019
 21
-100
  0
LINE
  8
0
 10
214.019
 20
-100
 11
213.27
 21
-98.6197
  0
LINE
  8
0
 10
213.27
 20
-98.6197
 11
212.594
 21
-97.202
  0
LINE
  8
0
 10
212.594
 20
-97.202
 11
211.992
 21
-95.751
  0
LINE
  8
0
 10
211.992
 20
-95.751
 11
211.468
 21
-94.2705
  0
LINE
  8
0
 10
211.468
 20
-94.2705
 11
211.022
 21
-92.7644
  0
LINE
  8
0
 10
211.022
 20
-92.7644
 11
210.656
 21
-91.2373
  0
LINE
  8
0
 10
210.656
 20
-91.2373
 11
210.369
 21
-89.693
  0
LINE
  8
0
 10
210.369
 20
-89.693
 11
210.164
 21
-88.1358
  0
LINE
  8
0
 10
210.164
 20
-88.1358
 11
210.041
 21
-86.57
  0
LINE
  8
0
 10
210.041
 20
-86.57
 11
210
 21
-85
  0
LINE
  8
0
 10
210
 20
-85
 11
210
 21
85
  0
LINE
  8
0
 10
175
 20
75
 11
175
 21
115
  0
LINE
  8
0
 10
175
 20
115
 11
205
 21
115
  0
LINE
  8
0
 10
205
 20
115
 11
205
 21
75
  0
LINE
  8
0
 10
205
 20
75
 11
175
 21
75
  0
LINE
  8
0
 10
-35
 20
75
 11
-35
 21
115
  0
LINE
  8
0
 10
-35
 20
115
 11
-5
 21
115
  0
LINE
  8
0
 10
-5
 20
115
 11
-5
 21
75
  0
LINE
  8
0
 10
-5
 20
75
 11
-35
 21
75
  0
LINE
  8
0
 10
175
 20
-80
 11
175
 21
-40
  0
LINE
  8
0
 10
175
 20
-40
 11
205
 21
-40
  0
LINE
  8
0
 10
205
 20
-40
 11
205
 21
-80
  0
LINE
  8
0
 10
205
 20
-80
 11
175
 21
-80
  0
LINE
  8
0
 10
-35
 20
-80
 11
-35
 21
-40
  0
LINE
  8
0
 10
-35
 20
-40
 11
-5
 21
-40
  0
LINE
  8
0
 10
-5
 20
-40
 11
-5
 21
-80
  0
LINE
  8
0
 10
-5
 20
-80
 11
-35
 21
-80
  0
LINE
  8
0
 10
135
 20
-160
 11
135
 21
-130
  0
LINE
  8
0
 10
135
 20
-130
 11
175
 21
-130
  0
LINE
  8
0
 10
175
 20
-130
 11
175
 21
-160
  0
LINE
  8
0
 10
175
 20
-160
 11
135
 21
-160
  0
LINE
  8
0
 10
-195
 20
-160
 11
-195
 21
-130
  0
LINE
  8
0
 10
-195
 20
-130
 11
-155
 21
-130
  0
LINE
  8
0
 10
-155
 20
-130
 11
-155
 21
-160
  0
LINE
  8
0
 10
-155
 20
-160
 11
-195
 21
-160
  0
ENDSEC
  0
SECTION
  2
OBJECTS
  0
DICTIONARY
  0
ENDSEC
  0
EOF
