  0
SECTION
  2
BLOCKS
  0
ENDSEC
  0
SECTION
  2
ENTITIES
  0
LINE
  8
0
 10
200
 20
185
 11
200
 21
215
  0
LINE
  8
0
 10
200
 20
215
 11
-200
 21
215
  0
LINE
  8
0
 10
-200
 20
215
 11
-200
 21
185
  0
LINE
  8
0
 10
-200
 20
185
 11
-215
 21
185
  0
LINE
  8
0
 10
-215
 20
185
 11
-215
 21
145
  0
LINE
  8
0
 10
-215
 20
145
 11
-200
 21
145
  0
LINE
  8
0
 10
-200
 20
145
 11
-200
 21
-145
  0
LINE
  8
0
 10
-200
 20
-145
 11
-215
 21
-145
  0
LINE
  8
0
 10
-215
 20
-145
 11
-215
 21
-185
  0
LINE
  8
0
 10
-215
 20
-185
 11
-200
 21
-185
  0
LINE
  8
0
 10
-200
 20
-185
 11
-200
 21
-215
  0
LINE
  8
0
 10
-200
 20
-215
 11
200
 21
-215
  0
LINE
  8
0
 10
200
 20
-215
 11
200
 21
-185
  0
LINE
  8
0
 10
200
 20
-185
 11
215
 21
-185
  0
LINE
  8
0
 10
215
 20
-185
 11
215
 21
-145
  0
LINE
  8
0
 10
215
 20
-145
 11
200
 21
-145
  0
LINE
  8
0
 10
200
 20
-145
 11
200
 21
145
  0
LINE
  8
0
 10
200
 20
145
 11
215
 21
145
  0
LINE
  8
0
 10
215
 20
145
 11
215
 21
185
  0
LINE
  8
0
 10
215
 20
185
 11
200
 21
185
  0
ENDSEC
  0
SECTION
  2
OBJECTS
  0
DICTIONARY
  0
ENDSEC
  0
EOF
