0
SECTION
2
HEADER
9
$INSUNITS
70
4
9
$ACADVER
1
AC1014
9
$HANDSEED
5
FFFF
0
ENDSEC
0
SECTION
2
TABLES
0
TABLE
2
VPORT
5
8
100
AcDbSymbolTable
0
ENDTAB
0
TABLE
2
LTYPE
5
5
100
AcDbSymbolTable
0
LTYPE
5
14
100
AcDbSymbolTableRecord
100
AcDbLinetypeTableRecord
2
BYBLOCK
70
0
0
LTYPE
5
15
100
AcDbSymbolTableRecord
100
AcDbLinetypeTableRecord
2
BYLAYER
70
0
0
ENDTAB
0
TABLE
2
LAYER
5
2
100
AcDbSymbolTable
70
2
0
LAYER
5
50
100
AcDbSymbolTableRecord
100
AcDbLayerTableRecord
2
0
70
0
6
CONTINUOUS
0
ENDTAB
0
TABLE
2
STYLE
5
3
100
AcDbSymbolTable
70
1
0
STYLE
5
11
100
AcDbSymbolTableRecord
100
AcDbTextStyleTableRecord
2
STANDARD
70
0
0
ENDTAB
0
TABLE
2
VIEW
5
6
100
AcDbSymbolTable
70
0
0
ENDTAB
0
TABLE
2
UCS
5
7
100
AcDbSymbolTable
70
0
0
ENDTAB
0
TABLE
2
APPID
5
9
100
AcDbSymbolTable
70
2
0
APPID
5
12
100
AcDbSymbolTableRecord
100
AcDbRegAppTableRecord
2
ACAD
70
0
0
ENDTAB
0
TABLE
2
DIMSTYLE
5
A
100
AcDbSymbolTable
70
1
0
ENDTAB
0
TABLE
2
BLOCK_RECORD
5
1
100
AcDbSymbolTable
70
1
0
BLOCK_RECORD
5
1F
100
AcDbSymbolTableRecord
100
AcDbBlockTableRecord
2
*MODEL_SPACE
0
BLOCK_RECORD
5
1B
100
AcDbSymbolTableRecord
100
AcDbBlockTableRecord
2
*PAPER_SPACE
0
ENDTAB
0
ENDSEC
0
SECTION
2
BLOCKS
0
BLOCK
5
20
100
AcDbEntity
100
AcDbBlockBegin
2
*MODEL_SPACE
0
ENDBLK
5
21
100
AcDbEntity
100
AcDbBlockEnd
0
BLOCK
5
1C
100
AcDbEntity
100
AcDbBlockBegin
2
*PAPER_SPACE
0
ENDBLK
5
1D
100
AcDbEntity
100
AcDbBlockEnd
0
ENDSEC
0
SECTION
2
ENTITIES
0
LINE
5
100
100
AcDbEntity
8
0
100
AcDbLine
10
100
20
0
30
0
11
110
21
0
31
0
0
LINE
5
101
100
AcDbEntity
8
0
100
AcDbLine
10
-50
20
0
30
0
11
-60
21
0
31
0
0
LINE
5
102
100
AcDbEntity
8
0
100
AcDbLine
10
50
20
550
30
0
11
40
21
550
31
0
0
LINE
5
103
100
AcDbEntity
8
0
100
AcDbLine
10
100
20
0
30
0
11
90
21
0
31
0
0
LINE
5
104
100
AcDbEntity
8
0
100
AcDbLine
10
0
20
540
30
0
11
15
21
525
31
0
0
LWPOLYLINE
5
105
100
AcDbEntity
8
0
100
AcDbPolyline
90
4
70
1
43
0.0
10
40
20
500
10
25.000000000000007
20
515
10
10.000000000000011
20
500
10
25
20
485
0
LINE
5
106
100
AcDbEntity
8
0
100
AcDbLine
10
-3.0698994857058715
20
506.93010051429411
30
0
11
15
21
525
31
0
0
LINE
5
107
100
AcDbEntity
8
0
100
AcDbLine
10
25.000000000000007
20
535
30
0
11
40
21
550
31
0
0
LINE
5
108
100
AcDbEntity
8
0
100
AcDbLine
10
53.069899485705875
20
506.93010051429411
30
0
11
35.000000000000007
21
525
31
0
0
LINE
5
109
100
AcDbEntity
8
0
100
AcDbLine
10
25.000000000000007
20
535
30
0
11
10.000000000000009
21
550
31
0
0
LINE
5
110
100
AcDbEntity
8
0
100
AcDbLine
10
50
20
540
30
0
11
35.000000000000007
21
525
31
0
0
LINE
5
111
100
AcDbEntity
8
0
100
AcDbLine
10
52.734944798647696
20
457.26505520135231
30
0
11
35.000000000000007
21
475
31
0
0
LINE
5
112
100
AcDbEntity
8
0
100
AcDbLine
10
-3.0698994857058715
20
493.06989948570589
30
0
11
15
21
475
31
0
0
LWPOLYLINE
5
113
100
AcDbEntity
8
0
100
AcDbPolyline
90
4
70
1
43
0.0
10
40
20
450
10
25.000000000000018
20
465
10
9.999999999999968
20
449.99999999999994
10
24.999999999999957
20
434.99999999999994
0
LINE
5
114
100
AcDbEntity
8
0
100
AcDbLine
10
-2.734944798647696
20
457.26505520135231
30
0
11
15
21
475
31
0
0
LINE
5
115
100
AcDbEntity
8
0
100
AcDbLine
10
53.069899485705875
20
493.06989948570589
30
0
11
35.000000000000007
21
475
31
0
0
LINE
5
116
100
AcDbEntity
8
0
100
AcDbLine
10
-21.115435427990601
20
388.88456457200931
30
0
11
15
21
425
31
0
0
LINE
5
117
100
AcDbEntity
8
0
100
AcDbLine
10
-2.734944798647696
20
442.73494479864769
30
0
11
15
21
425
31
0
0
LWPOLYLINE
5
118
100
AcDbEntity
8
0
100
AcDbPolyline
90
4
70
1
43
0.0
10
60
20
379.99999999999994
10
25
20
415
10
-9.9999999999999609
20
380
10
25.000000000000028
20
345
0
LINE
5
119
100
AcDbEntity
8
0
100
AcDbLine
10
71.115435427990604
20
388.88456457200931
30
0
11
34.999999999999957
21
424.99999999999994
31
0
0
LINE
5
120
100
AcDbEntity
8
0
100
AcDbLine
10
52.734944798647696
20
442.73494479864769
30
0
11
34.999999999999957
21
424.99999999999994
31
0
0
LINE
5
121
100
AcDbEntity
8
0
100
AcDbLine
10
50
20
550
30
0
11
40
21
550
31
0
0
LINE
5
122
100
AcDbEntity
8
0
100
AcDbLine
10
10.000000000000009
20
550
30
0
11
0
21
550
31
0
0
LINE
5
123
100
AcDbEntity
8
0
100
AcDbLine
10
80.448653184722914
20
289.55134681527716
30
0
11
35.000000000000043
21
335
31
0
0
LINE
5
124
100
AcDbEntity
8
0
100
AcDbLine
10
-21.115435427990601
20
371.11543542799052
30
0
11
14.999999999999991
21
335
31
0
0
LWPOLYLINE
5
125
100
AcDbEntity
8
0
100
AcDbPolyline
90
4
70
1
43
0.0
10
70
20
280.00000000000006
10
25.000000000000018
20
325
10
-19.999999999999982
20
280
10
25
20
235
0
LINE
5
126
100
AcDbEntity
8
0
100
AcDbLine
10
-30.448653184722918
20
289.55134681527716
30
0
11
14.999999999999991
21
335
31
0
0
LINE
5
127
100
AcDbEntity
8
0
100
AcDbLine
10
71.115435427990604
20
371.11543542799052
30
0
11
35.000000000000043
21
335
31
0
0
LINE
5
128
100
AcDbEntity
8
0
100
AcDbLine
10
98.8845633613046
20
161.1154366386954
30
0
11
35
21
225.00000000000003
31
0
0
LINE
5
129
100
AcDbEntity
8
0
100
AcDbLine
10
-30.448653184722918
20
270.44865318472296
30
0
11
14.999999999999991
21
225
31
0
0
LWPOLYLINE
5
130
100
AcDbEntity
8
0
100
AcDbPolyline
90
4
70
1
43
0.0
10
90
20
150
10
24.999999999999982
20
215.00000000000003
10
-40.000000000000014
20
150.00000000000003
10
25.000000000000007
20
85
0
LINE
5
131
100
AcDbEntity
8
0
100
AcDbLine
10
-48.8845633613046
20
161.1154366386954
30
0
11
14.999999999999991
21
225
31
0
0
LINE
5
132
100
AcDbEntity
8
0
100
AcDbLine
10
80.448653184722914
20
270.44865318472296
30
0
11
35
21
225.00000000000003
31
0
0
LINE
5
133
100
AcDbEntity
8
0
100
AcDbLine
10
110
20
0
30
0
11
35.000000000000007
21
75.000000000000014
31
0
0
LINE
5
134
100
AcDbEntity
8
0
100
AcDbLine
10
-48.8845633613046
20
138.8845633613046
30
0
11
15
21
75
31
0
0
LINE
5
135
100
AcDbEntity
8
0
100
AcDbLine
10
25
20
65
30
0
11
90
21
0
31
0
0
LINE
5
136
100
AcDbEntity
8
0
100
AcDbLine
10
15
20
75
30
0
11
-60
21
0
31
0
0
LINE
5
137
100
AcDbEntity
8
0
100
AcDbLine
10
98.8845633613046
20
138.8845633613046
30
0
11
35.000000000000007
21
75.000000000000014
31
0
0
LINE
5
138
100
AcDbEntity
8
0
100
AcDbLine
10
25
20
65
30
0
11
-40
21
0
31
0
0
LINE
5
139
100
AcDbEntity
8
0
100
AcDbLine
10
-50
20
0
30
0
11
-40
21
0
31
0
0
LINE
5
140
100
AcDbEntity
8
0
100
AcDbLine
10
90
20
0
30
0
11
100
21
0
31
0
0
LINE
5
141
100
AcDbEntity
8
0
100
AcDbLine
10
50
20
550
30
0
11
50
21
540
31
0
0
LINE
5
142
100
AcDbEntity
8
0
100
AcDbLine
10
53.069899485705875
20
506.93010051429411
30
0
11
53.069899485705875
21
493.06989948570589
31
0
0
LINE
5
143
100
AcDbEntity
8
0
100
AcDbLine
10
52.734944798647696
20
457.26505520135231
30
0
11
52.734944798647696
21
442.73494479864769
31
0
0
LINE
5
144
100
AcDbEntity
8
0
100
AcDbLine
10
71.115435427990604
20
388.88456457200931
30
0
11
71.115435427990604
21
371.11543542799052
31
0
0
LINE
5
145
100
AcDbEntity
8
0
100
AcDbLine
10
80.448653184722914
20
289.55134681527716
30
0
11
80.448653184722914
21
270.44865318472296
31
0
0
LINE
5
146
100
AcDbEntity
8
0
100
AcDbLine
10
98.8845633613046
20
161.1154366386954
30
0
11
98.8845633613046
21
138.8845633613046
31
0
0
LINE
5
147
100
AcDbEntity
8
0
100
AcDbLine
10
0
20
550
30
0
11
0
21
540
31
0
0
LINE
5
148
100
AcDbEntity
8
0
100
AcDbLine
10
-3.0698994857058715
20
506.93010051429411
30
0
11
-3.0698994857058715
21
493.06989948570589
31
0
0
LINE
5
149
100
AcDbEntity
8
0
100
AcDbLine
10
-2.734944798647696
20
457.26505520135231
30
0
11
-2.734944798647696
21
442.73494479864769
31
0
0
LINE
5
150
100
AcDbEntity
8
0
100
AcDbLine
10
-21.115435427990601
20
388.88456457200931
30
0
11
-21.115435427990601
21
371.11543542799052
31
0
0
LINE
5
151
100
AcDbEntity
8
0
100
AcDbLine
10
-30.448653184722918
20
289.55134681527716
30
0
11
-30.448653184722918
21
270.44865318472296
31
0
0
LINE
5
152
100
AcDbEntity
8
0
100
AcDbLine
10
-48.8845633613046
20
161.1154366386954
30
0
11
-48.8845633613046
21
138.8845633613046
31
0
0
CIRCLE
5
153
100
AcDbEntity
8
0
100
AcDbCircle
10
46.3678758243381
20
546.80112578954072
30
0
40
1.4999999999999787
0
CIRCLE
5
154
100
AcDbEntity
8
0
100
AcDbCircle
10
46.3678758243381
20
541.4026765527974
30
0
40
1.4999999999999858
0
CIRCLE
5
155
100
AcDbEntity
8
0
100
AcDbCircle
10
49.599998891353614
20
503.99998873472219
30
0
40
1.5000000000000071
0
CIRCLE
5
156
100
AcDbEntity
8
0
100
AcDbCircle
10
49.599998891353607
20
495.99998891353607
30
0
40
1.4999999999999858
0
CIRCLE
5
157
100
AcDbEntity
8
0
100
AcDbCircle
10
49.599998891353607
20
453.59998986124992
30
0
40
1.4999999999999858
0
CIRCLE
5
158
100
AcDbEntity
8
0
100
AcDbCircle
10
49.599998891353614
20
446.39999002218246
30
0
40
1.4999999999999858
0
CIRCLE
5
159
100
AcDbEntity
8
0
100
AcDbCircle
10
67.999998480081558
20
383.99999141693115
30
0
40
1.5000000000000071
0
CIRCLE
5
160
100
AcDbEntity
8
0
100
AcDbCircle
10
67.999998480081558
20
375.99999159574509
30
0
40
1.4999999999999858
0
CIRCLE
5
161
100
AcDbEntity
8
0
100
AcDbCircle
10
77.599998265504837
20
283.99999365210533
30
0
40
1.4999999999999858
0
CIRCLE
5
162
100
AcDbEntity
8
0
100
AcDbCircle
10
77.599998265504837
20
275.99999383091927
30
0
40
1.4999999999999858
0
CIRCLE
5
163
100
AcDbEntity
8
0
100
AcDbCircle
10
95.999997854232788
20
155.99999651312828
30
0
40
1.5000000000000036
0
CIRCLE
5
164
100
AcDbEntity
8
0
100
AcDbCircle
10
95.999997854232788
20
143.99999678134918
30
0
40
1.5000000000000036
0
CIRCLE
5
165
100
AcDbEntity
8
0
100
AcDbCircle
10
-45.999997854232788
20
155.99999651312828
30
0
40
1.5000000000000036
0
CIRCLE
5
166
100
AcDbEntity
8
0
100
AcDbCircle
10
-45.999997854232788
20
143.99999678134918
30
0
40
1.5000000000000036
0
CIRCLE
5
167
100
AcDbEntity
8
0
100
AcDbCircle
10
-27.599998265504837
20
275.99999383091927
30
0
40
1.4999999999999858
0
CIRCLE
5
168
100
AcDbEntity
8
0
100
AcDbCircle
10
-27.599998265504837
20
283.99999365210533
30
0
40
1.4999999999999858
0
CIRCLE
5
169
100
AcDbEntity
8
0
100
AcDbCircle
10
-17.999998480081558
20
375.99999159574509
30
0
40
1.4999999999999858
0
CIRCLE
5
170
100
AcDbEntity
8
0
100
AcDbCircle
10
-17.999998480081558
20
383.99999141693115
30
0
40
1.5000000000000071
0
CIRCLE
5
171
100
AcDbEntity
8
0
100
AcDbCircle
10
0.40000110864638394
20
446.39999002218246
30
0
40
1.4999999999999858
0
CIRCLE
5
172
100
AcDbEntity
8
0
100
AcDbCircle
10
0.40000110864639282
20
453.59998986124992
30
0
40
1.4999999999999858
0
CIRCLE
5
173
100
AcDbEntity
8
0
100
AcDbCircle
10
0.40000110864638394
20
503.99998873472219
30
0
40
1.5000000000000071
0
CIRCLE
5
174
100
AcDbEntity
8
0
100
AcDbCircle
10
0.40000110864639282
20
495.99998891353607
30
0
40
1.4999999999999858
0
CIRCLE
5
175
100
AcDbEntity
8
0
100
AcDbCircle
10
3.6321241756619038
20
541.4026765527974
30
0
40
1.4999999999999858
0
CIRCLE
5
176
100
AcDbEntity
8
0
100
AcDbCircle
10
3.6321241756619038
20
546.80112578954072
30
0
40
1.4999999999999787
0
LINE
5
177
100
AcDbEntity
8
0
100
AcDbLine
10
22.5
20
477.91648691843636
30
0
11
14.500000000000002
21
477.91648691843636
31
0
0
LINE
5
178
100
AcDbEntity
8
0
100
AcDbLine
10
27.5
20
477.91648691843636
30
0
11
35.5
21
477.91648691843636
31
0
0
LINE
5
179
100
AcDbEntity
8
0
100
AcDbLine
10
25
20
480.00000000000006
30
0
11
21
21
480.00000000000006
31
0
0
LINE
5
180
100
AcDbEntity
8
0
100
AcDbLine
10
25
20
480.00000000000006
30
0
11
29
21
480.00000000000006
31
0
0
LINE
5
181
100
AcDbEntity
8
0
100
AcDbLine
10
33
20
480.00000000000006
30
0
11
39.999999105930328
21
480.00000000000006
31
0
0
LINE
5
182
100
AcDbEntity
8
0
100
AcDbLine
10
17
20
480.00000000000006
30
0
11
10.000000894069672
21
480.00000000000006
31
0
0
LINE
5
183
100
AcDbEntity
8
0
100
AcDbLine
10
25
20
484.00000000000006
30
0
11
21
21
484.00000000000006
31
0
0
LINE
5
184
100
AcDbEntity
8
0
100
AcDbLine
10
22.5
20
481.91648691843631
30
0
11
14.500000000000002
21
481.91648691843631
31
0
0
LINE
5
185
100
AcDbEntity
8
0
100
AcDbLine
10
33
20
484.00000000000006
30
0
11
39.999999105930328
21
484.00000000000006
31
0
0
LINE
5
186
100
AcDbEntity
8
0
100
AcDbLine
10
25
20
484.00000000000006
30
0
11
29
21
484.00000000000006
31
0
0
LINE
5
187
100
AcDbEntity
8
0
100
AcDbLine
10
27.5
20
481.91648691843631
30
0
11
35.5
21
481.91648691843631
31
0
0
LINE
5
188
100
AcDbEntity
8
0
100
AcDbLine
10
17
20
484.00000000000006
30
0
11
10.000000894069672
21
484.00000000000006
31
0
0
LINE
5
189
100
AcDbEntity
8
0
100
AcDbLine
10
21.999999999999957
20
488.00000000000006
30
0
11
21
21
488.00000000000006
31
0
0
LINE
5
190
100
AcDbEntity
8
0
100
AcDbLine
10
22.5
20
485.91648691843631
30
0
11
14.500000000000002
21
485.91648691843631
31
0
0
LINE
5
191
100
AcDbEntity
8
0
100
AcDbLine
10
33
20
488.00000000000006
30
0
11
39.999999105930328
21
488.00000000000006
31
0
0
LINE
5
192
100
AcDbEntity
8
0
100
AcDbLine
10
28.000000000000043
20
488.00000000000006
30
0
11
29
21
488.00000000000006
31
0
0
LINE
5
193
100
AcDbEntity
8
0
100
AcDbLine
10
27.5
20
485.91648691843631
30
0
11
35.5
21
485.91648691843631
31
0
0
LINE
5
194
100
AcDbEntity
8
0
100
AcDbLine
10
17
20
488.00000000000006
30
0
11
10.000000894069672
21
488.00000000000006
31
0
0
LINE
5
195
100
AcDbEntity
8
0
100
AcDbLine
10
6.0000008940696716
20
488.00000000000006
30
0
11
1.9999999999999705
21
488.00000000000006
31
0
0
LINE
5
196
100
AcDbEntity
8
0
100
AcDbLine
10
43.999999105930328
20
488.00000000000006
30
0
11
48.000000000000028
21
488.00000000000006
31
0
0
LINE
5
197
100
AcDbEntity
8
0
100
AcDbLine
10
17
20
465.99999999999994
30
0
11
10.000000894069672
21
465.99999999999994
31
0
0
LINE
5
198
100
AcDbEntity
8
0
100
AcDbLine
10
22.5
20
464.08351308156369
30
0
11
14.500000000000002
21
464.08351308156369
31
0
0
LINE
5
199
100
AcDbEntity
8
0
100
AcDbLine
10
22.5
20
468.08351308156369
30
0
11
14.500000000000002
21
468.08351308156369
31
0
0
LINE
5
200
100
AcDbEntity
8
0
100
AcDbLine
10
17
20
461.99999999999994
30
0
11
10.000000894069672
21
461.99999999999994
31
0
0
LINE
5
201
100
AcDbEntity
8
0
100
AcDbLine
10
17
20
469.99999999999994
30
0
11
10.000000894069672
21
469.99999999999994
31
0
0
LINE
5
202
100
AcDbEntity
8
0
100
AcDbLine
10
33
20
461.99999999999994
30
0
11
39.999999105930328
21
461.99999999999994
31
0
0
LINE
5
203
100
AcDbEntity
8
0
100
AcDbLine
10
27.5
20
468.08351308156369
30
0
11
35.5
21
468.08351308156369
31
0
0
LINE
5
204
100
AcDbEntity
8
0
100
AcDbLine
10
33
20
465.99999999999994
30
0
11
39.999999105930328
21
465.99999999999994
31
0
0
LINE
5
205
100
AcDbEntity
8
0
100
AcDbLine
10
33
20
469.99999999999994
30
0
11
39.999999105930328
21
469.99999999999994
31
0
0
LINE
5
206
100
AcDbEntity
8
0
100
AcDbLine
10
27.5
20
464.08351308156369
30
0
11
35.5
21
464.08351308156369
31
0
0
LINE
5
207
100
AcDbEntity
8
0
100
AcDbLine
10
43.999999105930328
20
461.99999999999994
30
0
11
48.000000000000028
21
461.99999999999994
31
0
0
LINE
5
208
100
AcDbEntity
8
0
100
AcDbLine
10
21.999999999999957
20
461.99999999999994
30
0
11
21
21
461.99999999999994
31
0
0
LINE
5
209
100
AcDbEntity
8
0
100
AcDbLine
10
28.000000000000043
20
461.99999999999994
30
0
11
29
21
461.99999999999994
31
0
0
LINE
5
210
100
AcDbEntity
8
0
100
AcDbLine
10
25
20
465.99999999999994
30
0
11
29
21
465.99999999999994
31
0
0
LINE
5
211
100
AcDbEntity
8
0
100
AcDbLine
10
25
20
465.99999999999994
30
0
11
21
21
465.99999999999994
31
0
0
LINE
5
212
100
AcDbEntity
8
0
100
AcDbLine
10
25
20
469.99999999999994
30
0
11
21
21
469.99999999999994
31
0
0
LINE
5
213
100
AcDbEntity
8
0
100
AcDbLine
10
25
20
469.99999999999994
30
0
11
29
21
469.99999999999994
31
0
0
LINE
5
214
100
AcDbEntity
8
0
100
AcDbLine
10
22.5
20
472.08351308156364
30
0
11
14.500000000000002
21
472.08351308156364
31
0
0
LINE
5
215
100
AcDbEntity
8
0
100
AcDbLine
10
27.5
20
472.08351308156364
30
0
11
35.5
21
472.08351308156364
31
0
0
LINE
5
216
100
AcDbEntity
8
0
100
AcDbLine
10
6.0000008940696716
20
461.99999999999994
30
0
11
1.9999999999999707
21
461.99999999999994
31
0
0
LINE
5
217
100
AcDbEntity
8
0
100
AcDbLine
10
21
20
475
30
0
11
29
21
475
31
0
0
LINE
5
218
100
AcDbEntity
8
0
100
AcDbLine
10
33
20
475
30
0
11
35.000000000000007
21
475
31
0
0
LINE
5
219
100
AcDbEntity
8
0
100
AcDbLine
10
17
20
475
30
0
11
15
21
475
31
0
0
ENDSEC
0
SECTION
2
OBJECTS
0
DICTIONARY
5
C
100
AcDbDictionary
3
ACAD_GROUP
350
D
3
ACAD_MLINESTYLE
350
17
0
DICTIONARY
5
D
100
AcDbDictionary
0
DICTIONARY
5
1A
330
C
100
AcDbDictionary
0
DICTIONARY
5
17
100
AcDbDictionary
0
ENDSEC
0
EOF
