  0
SECTION
  2
HEADER
  9
$ACADVER
  1
AC1002
  9
$INSBASE
 10
0.0
 20
0.0
  9
$EXTMIN
 10
-16.09136220472441
 20
-0.0635118110236221
  9
$EXTMAX
 10
-2.933602362204724
 20
9.725700787401575
  9
$LIMMIN
 10
0.0
 20
0.0
  9
$LIMMAX
 10
12.0
 20
9.0
  9
$ORTHOMODE
 70
     0
  9
$REGENMODE
 70
     1
  9
$FILLMODE
 70
     1
  9
$QTEXTMODE
 70
     0
  9
$DRAGMODE
 70
     2
  9
$LTSCALE
 40
1.0
  9
$OSMODE
 70
    37
  9
$ATTMODE
 70
     1
  9
$TEXTSIZE
 40
0.2
  9
$TRACEWID
 40
0.05
  9
$TEXTSTYLE
  7
STANDARD
  9
$CLAYER
  8
0
  9
$CELTYPE
  6
BYLAYER
  9
$CECOLOR
 62
   256
  9
$DIMSCALE
 40
1.0
  9
$DIMASZ
 40
0.18
  9
$DIMEXO
 40
0.0625
  9
$DIMDLI
 40
0.38
  9
$DIMRND
 40
0.0
  9
$DIMDLE
 40
0.0
  9
$DIMEXE
 40
0.18
  9
$DIMTP
 40
0.0
  9
$DIMTM
 40
0.0
  9
$DIMTXT
 40
0.18
  9
$DIMCEN
 40
0.09
  9
$DIMTSZ
 40
0.0
  9
$DIMTOL
 70
     0
  9
$DIMLIM
 70
     0
  9
$DIMTIH
 70
     1
  9
$DIMTOH
 70
     1
  9
$DIMSE1
 70
     0
  9
$DIMSE2
 70
     0
  9
$DIMTAD
 70
     0
  9
$DIMZIN
 70
     0
  9
$DIMBLK
  1

  9
$LUNITS
 70
     2
  9
$LUPREC
 70
     4
  9
$SKETCHINC
 40
0.1
  9
$FILLETRAD
 40
0.5
  9
$AUNITS
 70
     0
  9
$AUPREC
 70
     0
  9
$MENU
  1
.
  9
$ELEVATION
 40
0.0
  9
$THICKNESS
 40
0.0
  9
$LIMCHECK
 70
     0
  9
$CHAMFERA
 40
0.0
  9
$CHAMFERB
 40
0.0
  9
$SKPOLY
 70
     0
  9
$TDCREATE
 40
2458674.644278704
  9
$TDUPDATE
 40
2458674.644278715
  9
$TDINDWG
 40
0.0000000116
  9
$TDUSRTIMER
 40
0.0000000116
  9
$USRTIMER
 70
     1
  9
$ANGBASE
 50
0.0
  9
$ANGDIR
 70
     0
  9
$PDMODE
 70
     0
  9
$PDSIZE
 40
0.0
  9
$PLINEWID
 40
0.0
  9
$COORDS
 70
     1
  9
$SURFTAB1
 70
     6
  9
$SURFTAB2
 70
     6
  9
$SURFTYPE
 70
     6
  9
$SURFU
 70
     6
  9
$SURFV
 70
     6
  9
$UCSNAME
  2

  9
$UCSORG
 10
0.0
 20
0.0
 30
0.0
  9
$UCSXDIR
 10
1.0
 20
0.0
 30
0.0
  9
$UCSYDIR
 10
0.0
 20
1.0
 30
0.0
  9
$USERI1
 70
     0
  9
$USERI2
 70
     0
  9
$USERI3
 70
     0
  9
$USERI4
 70
     0
  9
$USERI5
 70
     0
  9
$USERR1
 40
0.0
  9
$USERR2
 40
0.0
  9
$USERR3
 40
0.0
  9
$USERR4
 40
0.0
  9
$USERR5
 40
0.0
  0
ENDSEC
  0
SECTION
  2
TABLES
  0
TABLE
  2
LTYPE
 70
     1
  0
LTYPE
  2
CONTINUOUS
 70
     0
  3
Solid line
 72
    65
 73
     0
 40
0.0
  0
ENDTAB
  0
TABLE
  2
LAYER
 70
     2
  0
LAYER
  2
0
 70
     0
 62
     7
  6
CONTINUOUS
  0
LAYER
  2
LAYER_1
 70
     0
 62
     7
  6
CONTINUOUS
  0
ENDTAB
  0
TABLE
  2
STYLE
 70
     1
  0
STYLE
  2
STANDARD
 70
     0
 40
0.0
 41
1.0
 50
0.0
 71
     0
 42
0.2
  3
txt
  4

  0
ENDTAB
  0
TABLE
  2
VIEW
 70
     0
  0
ENDTAB
  0
ENDSEC
  0
SECTION
  2
BLOCKS
  0
ENDSEC
  0
SECTION
  2
ENTITIES
  0
POLYLINE
  8
LAYER_1
 62
     1
 66
     1
 70
     1
  0
VERTEX
  8
LAYER_1
 62
     1
 10
-10.30119291338583
 20
5.440173228346457
  0
VERTEX
  8
LAYER_1
 62
     1
 10
-10.28692913385827
 20
5.402736220472441
  0
VERTEX
  8
LAYER_1
 62
     1
 10
-10.27440157480315
 20
5.364472440944882
  0
VERTEX
  8
LAYER_1
 62
     1
 10
-10.26366929133858
 20
5.325437007874016
  0
VERTEX
  8
LAYER_1
 62
     1
 10
-10.25477559055118
 20
5.285673228346456
  0
VERTEX
  8
LAYER_1
 62
     1
 10
-10.24777165354331
 20
5.245228346456693
  0
VERTEX
  8
LAYER_1
 62
     1
 10
-10.24270472440945
 20
5.204149606299213
  0
VERTEX
  8
LAYER_1
 62
     1
 10
-10.23962992125984
 20
5.162488188976378
  0
VERTEX
  8
LAYER_1
 62
     1
 10
-10.23859448818898
 20
5.120291338582677
  0
VERTEX
  8
LAYER_1
 62
     1
 10
-10.23962992125984
 20
5.078094488188976
  0
VERTEX
  8
LAYER_1
 62
     1
 10
-10.24270472440945
 20
5.036433070866142
  0
VERTEX
  8
LAYER_1
 62
     1
 10
-10.24777165354331
 20
4.995354330708661
  0
VERTEX
  8
LAYER_1
 62
     1
 10
-10.25477559055118
 20
4.954913385826772
  0
VERTEX
  8
LAYER_1
 62
     1
 10
-10.26366929133858
 20
4.915145669291339
  0
VERTEX
  8
LAYER_1
 62
     1
 10
-10.27440157480315
 20
4.876110236220472
  0
VERTEX
  8
LAYER_1
 62
     1
 10
-10.28692913385827
 20
4.837846456692914
  0
VERTEX
  8
LAYER_1
 62
     1
 10
-10.30119291338583
 20
4.800409448818898
  0
VERTEX
  8
LAYER_1
 62
     1
 10
-11.8689094488189
 20
4.800409448818898
  0
VERTEX
  8
LAYER_1
 62
     1
 10
-11.88317322834646
 20
4.837846456692914
  0
VERTEX
  8
LAYER_1
 62
     1
 10
-11.89570078740157
 20
4.876110236220472
  0
VERTEX
  8
LAYER_1
 62
     1
 10
-11.90643307086614
 20
4.915145669291339
  0
VERTEX
  8
LAYER_1
 62
     1
 10
-11.91532677165354
 20
4.954913385826772
  0
VERTEX
  8
LAYER_1
 62
     1
 10
-11.92233070866142
 20
4.995354330708661
  0
VERTEX
  8
LAYER_1
 62
     1
 10
-11.92739763779528
 20
5.036433070866142
  0
VERTEX
  8
LAYER_1
 62
     1
 10
-11.93047244094488
 20
5.078094488188976
  0
VERTEX
  8
LAYER_1
 62
     1
 10
-11.93150787401575
 20
5.120291338582677
  0
VERTEX
  8
LAYER_1
 62
     1
 10
-11.93047244094488
 20
5.162488188976378
  0
VERTEX
  8
LAYER_1
 62
     1
 10
-11.92739763779528
 20
5.204149606299213
  0
VERTEX
  8
LAYER_1
 62
     1
 10
-11.92233070866142
 20
5.245228346456693
  0
VERTEX
  8
LAYER_1
 62
     1
 10
-11.91532677165354
 20
5.285673228346456
  0
VERTEX
  8
LAYER_1
 62
     1
 10
-11.90643307086614
 20
5.325437007874016
  0
VERTEX
  8
LAYER_1
 62
     1
 10
-11.89570078740157
 20
5.364472440944882
  0
VERTEX
  8
LAYER_1
 62
     1
 10
-11.88317322834646
 20
5.402736220472441
  0
VERTEX
  8
LAYER_1
 62
     1
 10
-11.8689094488189
 20
5.440173228346457
  0
VERTEX
  8
LAYER_1
 62
     1
 10
-10.30119291338583
 20
5.440173228346457
  0
SEQEND
  8
LAYER_1
 62
     1
  0
POLYLINE
  8
LAYER_1
 66
     1
 70
     1
  0
VERTEX
  8
LAYER_1
 10
-8.92471653543307
 20
5.829165354330708
  0
VERTEX
  8
LAYER_1
 10
-9.116734568913511
 20
5.810253228743337
  0
VERTEX
  8
LAYER_1
 10
-9.301373457052254
 20
5.754243634361503
  0
VERTEX
  8
LAYER_1
 10
-9.471537630924805
 20
5.663288988486757
  0
VERTEX
  8
LAYER_1
 10
-9.620687776758412
 20
5.540884627152113
  0
VERTEX
  8
LAYER_1
 10
-9.743092138093056
 20
5.391734481318506
  0
VERTEX
  8
LAYER_1
 10
-9.834046783967802
 20
5.221570307445955
  0
VERTEX
  8
LAYER_1
 10
-9.890056378349636
 20
5.036931419307213
  0
VERTEX
  8
LAYER_1
 10
-9.908968503937007
 20
4.844913385826771
  0
VERTEX
  8
LAYER_1
 10
-9.890056378349636
 20
4.65289535234633
  0
VERTEX
  8
LAYER_1
 10
-9.834046783967802
 20
4.468256464207589
  0
VERTEX
  8
LAYER_1
 10
-9.743092138093056
 20
4.298092290335037
  0
VERTEX
  8
LAYER_1
 10
-9.620687776758412
 20
4.148942144501429
  0
VERTEX
  8
LAYER_1
 10
-9.471537630924805
 20
4.026537783166786
  0
VERTEX
  8
LAYER_1
 10
-9.301373457052254
 20
3.93558313729204
  0
VERTEX
  8
LAYER_1
 10
-9.116734568913511
 20
3.879573542910206
  0
VERTEX
  8
LAYER_1
 10
-8.92471653543307
 20
3.860661417322834
  0
VERTEX
  8
LAYER_1
 10
-8.732698501952628
 20
3.879573542910206
  0
VERTEX
  8
LAYER_1
 10
-8.548059613813887
 20
3.935583137292041
  0
VERTEX
  8
LAYER_1
 10
-8.377895439941335
 20
4.026537783166787
  0
VERTEX
  8
LAYER_1
 10
-8.228745294107727
 20
4.14894214450143
  0
VERTEX
  8
LAYER_1
 10
-8.106340932773083
 20
4.298092290335038
  0
VERTEX
  8
LAYER_1
 10
-8.01538628689834
 20
4.468256464207591
  0
VERTEX
  8
LAYER_1
 10
-7.959376692516504
 20
4.652895352346333
  0
VERTEX
  8
LAYER_1
 10
-7.940464566929133
 20
4.844913385826774
  0
VERTEX
  8
LAYER_1
 10
-7.959376692516505
 20
5.036931419307216
  0
VERTEX
  8
LAYER_1
 10
-8.015386286898341
 20
5.221570307445957
  0
VERTEX
  8
LAYER_1
 10
-8.106340932773087
 20
5.391734481318508
  0
VERTEX
  8
LAYER_1
 10
-8.22874529410773
 20
5.540884627152116
  0
VERTEX
  8
LAYER_1
 10
-8.377895439941339
 20
5.663288988486759
  0
VERTEX
  8
LAYER_1
 10
-8.54805961381389
 20
5.754243634361504
  0
VERTEX
  8
LAYER_1
 10
-8.732698501952633
 20
5.810253228743337
  0
SEQEND
  8
LAYER_1
  0
POLYLINE
  8
LAYER_1
 62
     1
 66
     1
 70
     1
  0
VERTEX
  8
LAYER_1
 62
     1
 10
-8.847141732283465
 20
4.928377952755906
  0
VERTEX
  8
LAYER_1
 62
     1
 10
-8.847141732283465
 20
4.761448818897637
  0
VERTEX
  8
LAYER_1
 62
     1
 10
-8.855086614173228
 20
4.754708661417323
  0
VERTEX
  8
LAYER_1
 62
     1
 10
-8.863629921259843
 20
4.748704724409449
  0
VERTEX
  8
LAYER_1
 62
     1
 10
-8.87272440944882
 20
4.743488188976378
  0
VERTEX
  8
LAYER_1
 62
     1
 10
-8.882318897637795
 20
4.739110236220473
  0
VERTEX
  8
LAYER_1
 62
     1
 10
-8.892366141732284
 20
4.735618110236221
  0
VERTEX
  8
LAYER_1
 62
     1
 10
-8.902814960629922
 20
4.733062992125984
  0
VERTEX
  8
LAYER_1
 62
     1
 10
-8.913614173228346
 20
4.731492125984252
  0
VERTEX
  8
LAYER_1
 62
     1
 10
-8.92471653543307
 20
4.730956692913386
  0
VERTEX
  8
LAYER_1
 62
     1
 10
-8.935818897637795
 20
4.731492125984252
  0
VERTEX
  8
LAYER_1
 62
     1
 10
-8.946618110236221
 20
4.733062992125984
  0
VERTEX
  8
LAYER_1
 62
     1
 10
-8.957066929133859
 20
4.735618110236221
  0
VERTEX
  8
LAYER_1
 62
     1
 10
-8.967114173228346
 20
4.739110236220473
  0
VERTEX
  8
LAYER_1
 62
     1
 10
-8.976708661417323
 20
4.743488188976378
  0
VERTEX
  8
LAYER_1
 62
     1
 10
-8.9858031496063
 20
4.748704724409449
  0
VERTEX
  8
LAYER_1
 62
     1
 10
-8.994346456692913
 20
4.754708661417323
  0
VERTEX
  8
LAYER_1
 62
     1
 10
-9.002291338582678
 20
4.761448818897637
  0
VERTEX
  8
LAYER_1
 62
     1
 10
-9.002291338582678
 20
4.928377952755906
  0
VERTEX
  8
LAYER_1
 62
     1
 10
-8.994346456692913
 20
4.93511811023622
  0
VERTEX
  8
LAYER_1
 62
     1
 10
-8.9858031496063
 20
4.941122047244095
  0
VERTEX
  8
LAYER_1
 62
     1
 10
-8.976708661417323
 20
4.946338582677165
  0
VERTEX
  8
LAYER_1
 62
     1
 10
-8.967114173228346
 20
4.950716535433071
  0
VERTEX
  8
LAYER_1
 62
     1
 10
-8.957066929133859
 20
4.954208661417323
  0
VERTEX
  8
LAYER_1
 62
     1
 10
-8.946618110236221
 20
4.956763779527559
  0
VERTEX
  8
LAYER_1
 62
     1
 10
-8.935818897637795
 20
4.958334645669291
  0
VERTEX
  8
LAYER_1
 62
     1
 10
-8.92471653543307
 20
4.958870078740158
  0
VERTEX
  8
LAYER_1
 62
     1
 10
-8.913614173228346
 20
4.958334645669291
  0
VERTEX
  8
LAYER_1
 62
     1
 10
-8.902814960629922
 20
4.956763779527559
  0
VERTEX
  8
LAYER_1
 62
     1
 10
-8.892366141732284
 20
4.954208661417323
  0
VERTEX
  8
LAYER_1
 62
     1
 10
-8.882318897637795
 20
4.950716535433071
  0
VERTEX
  8
LAYER_1
 62
     1
 10
-8.87272440944882
 20
4.946338582677165
  0
VERTEX
  8
LAYER_1
 62
     1
 10
-8.863629921259843
 20
4.941122047244095
  0
VERTEX
  8
LAYER_1
 62
     1
 10
-8.855086614173228
 20
4.93511811023622
  0
VERTEX
  8
LAYER_1
 62
     1
 10
-8.847141732283465
 20
4.928377952755906
  0
SEQEND
  8
LAYER_1
 62
     1
  0
POLYLINE
  8
LAYER_1
 66
     1
 70
     1
  0
VERTEX
  8
LAYER_1
 10
-6.728370078740157
 20
5.686216535433071
  0
VERTEX
  8
LAYER_1
 10
-6.88198450552451
 20
5.671086834963173
  0
VERTEX
  8
LAYER_1
 10
-7.029695616035504
 20
5.626279159457706
  0
VERTEX
  8
LAYER_1
 10
-7.165826955133545
 20
5.553515442757909
  0
VERTEX
  8
LAYER_1
 10
-7.285147071800431
 20
5.455591953690195
  0
VERTEX
  8
LAYER_1
 10
-7.383070560868146
 20
5.336271837023308
  0
VERTEX
  8
LAYER_1
 10
-7.455834277567942
 20
5.200140497925267
  0
VERTEX
  8
LAYER_1
 10
-7.50064195307341
 20
5.052429387414274
  0
VERTEX
  8
LAYER_1
 10
-7.515771653543307
 20
4.898814960629921
  0
VERTEX
  8
LAYER_1
 10
-7.50064195307341
 20
4.745200533845568
  0
VERTEX
  8
LAYER_1
 10
-7.455834277567942
 20
4.597489423334575
  0
VERTEX
  8
LAYER_1
 10
-7.383070560868146
 20
4.461358084236534
  0
VERTEX
  8
LAYER_1
 10
-7.285147071800431
 20
4.342037967569648
  0
VERTEX
  8
LAYER_1
 10
-7.165826955133545
 20
4.244114478501933
  0
VERTEX
  8
LAYER_1
 10
-7.029695616035504
 20
4.171350761802136
  0
VERTEX
  8
LAYER_1
 10
-6.88198450552451
 20
4.126543086296669
  0
VERTEX
  8
LAYER_1
 10
-6.728370078740157
 20
4.111413385826771
  0
VERTEX
  8
LAYER_1
 10
-6.574755651955804
 20
4.126543086296669
  0
VERTEX
  8
LAYER_1
 10
-6.42704454144481
 20
4.171350761802136
  0
VERTEX
  8
LAYER_1
 10
-6.290913202346769
 20
4.244114478501933
  0
VERTEX
  8
LAYER_1
 10
-6.171593085679882
 20
4.342037967569649
  0
VERTEX
  8
LAYER_1
 10
-6.073669596612168
 20
4.461358084236535
  0
VERTEX
  8
LAYER_1
 10
-6.000905879912372
 20
4.597489423334577
  0
VERTEX
  8
LAYER_1
 10
-5.956098204406905
 20
4.74520053384557
  0
VERTEX
  8
LAYER_1
 10
-5.940968503937007
 20
4.898814960629923
  0
VERTEX
  8
LAYER_1
 10
-5.956098204406906
 20
5.052429387414276
  0
VERTEX
  8
LAYER_1
 10
-6.000905879912374
 20
5.200140497925269
  0
VERTEX
  8
LAYER_1
 10
-6.07366959661217
 20
5.336271837023311
  0
VERTEX
  8
LAYER_1
 10
-6.171593085679886
 20
5.455591953690197
  0
VERTEX
  8
LAYER_1
 10
-6.290913202346772
 20
5.553515442757911
  0
VERTEX
  8
LAYER_1
 10
-6.427044541444814
 20
5.626279159457707
  0
VERTEX
  8
LAYER_1
 10
-6.574755651955807
 20
5.671086834963174
  0
SEQEND
  8
LAYER_1
  0
POLYLINE
  8
LAYER_1
 66
     1
 70
     1
  0
VERTEX
  8
LAYER_1
 10
-15.78486220472441
 20
7.289023622047244
  0
VERTEX
  8
LAYER_1
 10
-15.84436475293933
 20
7.28316313257023
  0
VERTEX
  8
LAYER_1
 10
-15.90158065159576
 20
7.265806879463187
  0
VERTEX
  8
LAYER_1
 10
-15.95431112579539
 20
7.237621853799521
  0
VERTEX
  8
LAYER_1
 10
-16.00052977298631
 20
7.199691190309141
  0
VERTEX
  8
LAYER_1
 10
-16.03846043647669
 20
7.153472543118223
  0
VERTEX
  8
LAYER_1
 10
-16.06664546214035
 20
7.100742068918596
  0
VERTEX
  8
LAYER_1
 10
-16.0840017152474
 20
7.043526170262163
  0
VERTEX
  8
LAYER_1
 10
-16.08986220472441
 20
6.984023622047244
  0
VERTEX
  8
LAYER_1
 10
-16.0840017152474
 20
6.924521073832326
  0
VERTEX
  8
LAYER_1
 10
-16.06664546214035
 20
6.867305175175892
  0
VERTEX
  8
LAYER_1
 10
-16.03846043647669
 20
6.814574700976266
  0
VERTEX
  8
LAYER_1
 10
-16.00052977298631
 20
6.768356053785348
  0
VERTEX
  8
LAYER_1
 10
-15.95431112579539
 20
6.730425390294968
  0
VERTEX
  8
LAYER_1
 10
-15.90158065159576
 20
6.702240364631302
  0
VERTEX
  8
LAYER_1
 10
-15.84436475293933
 20
6.684884111524259
  0
VERTEX
  8
LAYER_1
 10
-15.78486220472441
 20
6.679023622047245
  0
VERTEX
  8
LAYER_1
 10
-15.72535965650949
 20
6.684884111524259
  0
VERTEX
  8
LAYER_1
 10
-15.66814375785306
 20
6.702240364631302
  0
VERTEX
  8
LAYER_1
 10
-15.61541328365343
 20
6.730425390294968
  0
VERTEX
  8
LAYER_1
 10
-15.56919463646251
 20
6.768356053785348
  0
VERTEX
  8
LAYER_1
 10
-15.53126397297213
 20
6.814574700976266
  0
VERTEX
  8
LAYER_1
 10
-15.50307894730847
 20
6.867305175175892
  0
VERTEX
  8
LAYER_1
 10
-15.48572269420142
 20
6.924521073832326
  0
VERTEX
  8
LAYER_1
 10
-15.47986220472441
 20
6.984023622047245
  0
VERTEX
  8
LAYER_1
 10
-15.48572269420142
 20
7.043526170262164
  0
VERTEX
  8
LAYER_1
 10
-15.50307894730847
 20
7.100742068918597
  0
VERTEX
  8
LAYER_1
 10
-15.53126397297213
 20
7.153472543118224
  0
VERTEX
  8
LAYER_1
 10
-15.56919463646251
 20
7.199691190309142
  0
VERTEX
  8
LAYER_1
 10
-15.61541328365343
 20
7.237621853799522
  0
VERTEX
  8
LAYER_1
 10
-15.66814375785306
 20
7.265806879463187
  0
VERTEX
  8
LAYER_1
 10
-15.72535965650949
 20
7.28316313257023
  0
SEQEND
  8
LAYER_1
  0
POLYLINE
  8
LAYER_1
 66
     1
 70
     1
  0
VERTEX
  8
LAYER_1
 10
-8.92471653543307
 20
4.882413385826771
  0
VERTEX
  8
LAYER_1
 10
-8.932032422508675
 20
4.881692833841893
  0
VERTEX
  8
LAYER_1
 10
-8.939067164146762
 20
4.879558868295945
  0
VERTEX
  8
LAYER_1
 10
-8.945550419171305
 20
4.876093496288117
  0
VERTEX
  8
LAYER_1
 10
-8.951233039727565
 20
4.871429890121267
  0
VERTEX
  8
LAYER_1
 10
-8.955896645894416
 20
4.865747269565007
  0
VERTEX
  8
LAYER_1
 10
-8.959362017902244
 20
4.859264014540463
  0
VERTEX
  8
LAYER_1
 10
-8.961495983448192
 20
4.852229272902377
  0
VERTEX
  8
LAYER_1
 10
-8.96221653543307
 20
4.844913385826771
  0
VERTEX
  8
LAYER_1
 10
-8.961495983448192
 20
4.837597498751166
  0
VERTEX
  8
LAYER_1
 10
-8.959362017902244
 20
4.83056275711308
  0
VERTEX
  8
LAYER_1
 10
-8.955896645894416
 20
4.824079502088536
  0
VERTEX
  8
LAYER_1
 10
-8.951233039727565
 20
4.818396881532276
  0
VERTEX
  8
LAYER_1
 10
-8.945550419171305
 20
4.813733275365426
  0
VERTEX
  8
LAYER_1
 10
-8.939067164146762
 20
4.810267903357598
  0
VERTEX
  8
LAYER_1
 10
-8.932032422508675
 20
4.80813393781165
  0
VERTEX
  8
LAYER_1
 10
-8.92471653543307
 20
4.807413385826772
  0
VERTEX
  8
LAYER_1
 10
-8.917400648357466
 20
4.80813393781165
  0
VERTEX
  8
LAYER_1
 10
-8.91036590671938
 20
4.810267903357598
  0
VERTEX
  8
LAYER_1
 10
-8.903882651694836
 20
4.813733275365426
  0
VERTEX
  8
LAYER_1
 10
-8.898200031138575
 20
4.818396881532276
  0
VERTEX
  8
LAYER_1
 10
-8.893536424971725
 20
4.824079502088536
  0
VERTEX
  8
LAYER_1
 10
-8.890071052963897
 20
4.83056275711308
  0
VERTEX
  8
LAYER_1
 10
-8.88793708741795
 20
4.837597498751166
  0
VERTEX
  8
LAYER_1
 10
-8.88721653543307
 20
4.844913385826771
  0
VERTEX
  8
LAYER_1
 10
-8.88793708741795
 20
4.852229272902377
  0
VERTEX
  8
LAYER_1
 10
-8.890071052963897
 20
4.859264014540463
  0
VERTEX
  8
LAYER_1
 10
-8.893536424971725
 20
4.865747269565007
  0
VERTEX
  8
LAYER_1
 10
-8.898200031138575
 20
4.871429890121267
  0
VERTEX
  8
LAYER_1
 10
-8.903882651694836
 20
4.876093496288117
  0
VERTEX
  8
LAYER_1
 10
-8.91036590671938
 20
4.879558868295945
  0
VERTEX
  8
LAYER_1
 10
-8.917400648357466
 20
4.881692833841893
  0
SEQEND
  8
LAYER_1
  0
POLYLINE
  8
LAYER_1
 66
     1
 70
     1
  0
VERTEX
  8
LAYER_1
 10
-15.7321220472441
 20
5.957354330708661
  0
VERTEX
  8
LAYER_1
 10
-15.79162459545901
 20
5.951493841231646
  0
VERTEX
  8
LAYER_1
 10
-15.84884049411545
 20
5.934137588124604
  0
VERTEX
  8
LAYER_1
 10
-15.90157096831507
 20
5.905952562460937
  0
VERTEX
  8
LAYER_1
 10
-15.94778961550599
 20
5.868021898970558
  0
VERTEX
  8
LAYER_1
 10
-15.98572027899637
 20
5.82180325177964
  0
VERTEX
  8
LAYER_1
 10
-16.01390530466004
 20
5.769072777580013
  0
VERTEX
  8
LAYER_1
 10
-16.03126155776708
 20
5.71185687892358
  0
VERTEX
  8
LAYER_1
 10
-16.0371220472441
 20
5.652354330708661
  0
VERTEX
  8
LAYER_1
 10
-16.03126155776708
 20
5.592851782493742
  0
VERTEX
  8
LAYER_1
 10
-16.01390530466004
 20
5.535635883837309
  0
VERTEX
  8
LAYER_1
 10
-15.98572027899637
 20
5.482905409637683
  0
VERTEX
  8
LAYER_1
 10
-15.94778961550599
 20
5.436686762446764
  0
VERTEX
  8
LAYER_1
 10
-15.90157096831507
 20
5.398756098956385
  0
VERTEX
  8
LAYER_1
 10
-15.84884049411545
 20
5.370571073292719
  0
VERTEX
  8
LAYER_1
 10
-15.79162459545901
 20
5.353214820185676
  0
VERTEX
  8
LAYER_1
 10
-15.7321220472441
 20
5.347354330708662
  0
VERTEX
  8
LAYER_1
 10
-15.67261949902918
 20
5.353214820185676
  0
VERTEX
  8
LAYER_1
 10
-15.61540360037274
 20
5.370571073292719
  0
VERTEX
  8
LAYER_1
 10
-15.56267312617312
 20
5.398756098956385
  0
VERTEX
  8
LAYER_1
 10
-15.5164544789822
 20
5.436686762446764
  0
VERTEX
  8
LAYER_1
 10
-15.47852381549182
 20
5.482905409637683
  0
VERTEX
  8
LAYER_1
 10
-15.45033878982815
 20
5.535635883837309
  0
VERTEX
  8
LAYER_1
 10
-15.43298253672111
 20
5.592851782493743
  0
VERTEX
  8
LAYER_1
 10
-15.4271220472441
 20
5.652354330708662
  0
VERTEX
  8
LAYER_1
 10
-15.43298253672111
 20
5.711856878923581
  0
VERTEX
  8
LAYER_1
 10
-15.45033878982815
 20
5.769072777580014
  0
VERTEX
  8
LAYER_1
 10
-15.47852381549182
 20
5.821803251779641
  0
VERTEX
  8
LAYER_1
 10
-15.5164544789822
 20
5.868021898970559
  0
VERTEX
  8
LAYER_1
 10
-15.56267312617312
 20
5.905952562460938
  0
VERTEX
  8
LAYER_1
 10
-15.61540360037274
 20
5.934137588124604
  0
VERTEX
  8
LAYER_1
 10
-15.67261949902918
 20
5.951493841231647
  0
SEQEND
  8
LAYER_1
  0
POLYLINE
  8
LAYER_1
 66
     1
 70
     1
  0
VERTEX
  8
LAYER_1
 10
-15.66212204724409
 20
5.727669291338582
  0
VERTEX
  8
LAYER_1
 10
-15.66212204724409
 20
5.57703937007874
  0
VERTEX
  8
LAYER_1
 10
-15.66929133858268
 20
5.570956692913386
  0
VERTEX
  8
LAYER_1
 10
-15.677
 20
5.56553937007874
  0
VERTEX
  8
LAYER_1
 10
-15.68520472440945
 20
5.560834645669291
  0
VERTEX
  8
LAYER_1
 10
-15.69386220472441
 20
5.55688188976378
  0
VERTEX
  8
LAYER_1
 10
-15.70292913385827
 20
5.553732283464567
  0
VERTEX
  8
LAYER_1
 10
-15.71235826771654
 20
5.551425196850394
  0
VERTEX
  8
LAYER_1
 10
-15.72210236220472
 20
5.550007874015748
  0
VERTEX
  8
LAYER_1
 10
-15.7321220472441
 20
5.549527559055118
  0
VERTEX
  8
LAYER_1
 10
-15.74214173228346
 20
5.550007874015748
  0
VERTEX
  8
LAYER_1
 10
-15.75188582677165
 20
5.551425196850394
  0
VERTEX
  8
LAYER_1
 10
-15.76131496062992
 20
5.553732283464567
  0
VERTEX
  8
LAYER_1
 10
-15.77038188976378
 20
5.55688188976378
  0
VERTEX
  8
LAYER_1
 10
-15.77903937007874
 20
5.560834645669291
  0
VERTEX
  8
LAYER_1
 10
-15.78724409448819
 20
5.56553937007874
  0
VERTEX
  8
LAYER_1
 10
-15.79495275590551
 20
5.570956692913386
  0
VERTEX
  8
LAYER_1
 10
-15.80212204724409
 20
5.57703937007874
  0
VERTEX
  8
LAYER_1
 10
-15.80212204724409
 20
5.727669291338582
  0
VERTEX
  8
LAYER_1
 10
-15.79495275590551
 20
5.733751968503937
  0
VERTEX
  8
LAYER_1
 10
-15.78724409448819
 20
5.739169291338583
  0
VERTEX
  8
LAYER_1
 10
-15.77903937007874
 20
5.743874015748031
  0
VERTEX
  8
LAYER_1
 10
-15.77038188976378
 20
5.747826771653544
  0
VERTEX
  8
LAYER_1
 10
-15.76131496062992
 20
5.750976377952756
  0
VERTEX
  8
LAYER_1
 10
-15.75188582677165
 20
5.75328346456693
  0
VERTEX
  8
LAYER_1
 10
-15.74214173228346
 20
5.754700787401575
  0
VERTEX
  8
LAYER_1
 10
-15.7321220472441
 20
5.755181102362204
  0
VERTEX
  8
LAYER_1
 10
-15.72210236220472
 20
5.754700787401575
  0
VERTEX
  8
LAYER_1
 10
-15.71235826771654
 20
5.75328346456693
  0
VERTEX
  8
LAYER_1
 10
-15.70292913385827
 20
5.750976377952756
  0
VERTEX
  8
LAYER_1
 10
-15.69386220472441
 20
5.747826771653544
  0
VERTEX
  8
LAYER_1
 10
-15.68520472440945
 20
5.743874015748031
  0
VERTEX
  8
LAYER_1
 10
-15.677
 20
5.739169291338583
  0
VERTEX
  8
LAYER_1
 10
-15.66929133858268
 20
5.733751968503937
  0
VERTEX
  8
LAYER_1
 10
-15.66212204724409
 20
5.727669291338582
  0
SEQEND
  8
LAYER_1
  0
POLYLINE
  8
LAYER_1
 66
     1
 70
     1
  0
VERTEX
  8
LAYER_1
 10
-12.83351968503937
 20
0.4815708661417323
  0
VERTEX
  8
LAYER_1
 10
-12.88006485635503
 20
0.476986491250851
  0
VERTEX
  8
LAYER_1
 10
-12.92482132283986
 20
0.4634095415343169
  0
VERTEX
  8
LAYER_1
 10
-12.96606911858657
 20
0.4413617715556951
  0
VERTEX
  8
LAYER_1
 10
-13.00222311393663
 20
0.4116904647507321
  0
VERTEX
  8
LAYER_1
 10
-13.03189393112415
 20
0.3755358728000824
  0
VERTEX
  8
LAYER_1
 10
-13.05394133728419
 20
0.3342873963966804
  0
VERTEX
  8
LAYER_1
 10
-13.06751806296235
 20
0.2895301913562968
  0
VERTEX
  8
LAYER_1
 10
-13.07210236220472
 20
0.242984251968504
  0
VERTEX
  8
LAYER_1
 10
-13.06751806296235
 20
0.1964383125807111
  0
VERTEX
  8
LAYER_1
 10
-13.05394133728419
 20
0.1516811075403275
  0
VERTEX
  8
LAYER_1
 10
-13.03189393112415
 20
0.1104326311369256
  0
VERTEX
  8
LAYER_1
 10
-13.00222311393663
 20
0.0742780391862757
  0
VERTEX
  8
LAYER_1
 10
-12.96606911858657
 20
0.0446067323813128
  0
VERTEX
  8
LAYER_1
 10
-12.92482132283986
 20
0.022558962402691
  0
VERTEX
  8
LAYER_1
 10
-12.88006485635503
 20
0.0089820126861568
  0
VERTEX
  8
LAYER_1
 10
-12.83351968503937
 20
0.0043976377952756
  0
VERTEX
  8
LAYER_1
 10
-12.78697451372371
 20
0.0089820126861569
  0
VERTEX
  8
LAYER_1
 10
-12.74221804723888
 20
0.0225589624026911
  0
VERTEX
  8
LAYER_1
 10
-12.70097025149217
 20
0.044606732381313
  0
VERTEX
  8
LAYER_1
 10
-12.66481625614211
 20
0.074278039186276
  0
VERTEX
  8
LAYER_1
 10
-12.63514543895459
 20
0.1104326311369259
  0
VERTEX
  8
LAYER_1
 10
-12.61309803279455
 20
0.151681107540328
  0
VERTEX
  8
LAYER_1
 10
-12.59952130711639
 20
0.1964383125807116
  0
VERTEX
  8
LAYER_1
 10
-12.59493700787402
 20
0.2429842519685045
  0
VERTEX
  8
LAYER_1
 10
-12.59952130711639
 20
0.2895301913562974
  0
VERTEX
  8
LAYER_1
 10
-12.61309803279455
 20
0.334287396396681
  0
VERTEX
  8
LAYER_1
 10
-12.63514543895459
 20
0.3755358728000829
  0
VERTEX
  8
LAYER_1
 10
-12.66481625614211
 20
0.4116904647507327
  0
VERTEX
  8
LAYER_1
 10
-12.70097025149217
 20
0.4413617715556956
  0
VERTEX
  8
LAYER_1
 10
-12.74221804723888
 20
0.4634095415343172
  0
VERTEX
  8
LAYER_1
 10
-12.78697451372371
 20
0.4769864912508512
  0
SEQEND
  8
LAYER_1
  0
POLYLINE
  8
LAYER_1
 66
     1
 70
     1
  0
VERTEX
  8
LAYER_1
 10
-12.83351968503937
 20
0.5479881889763779
  0
VERTEX
  8
LAYER_1
 10
-12.89302223325429
 20
0.5421276994993632
  0
VERTEX
  8
LAYER_1
 10
-12.95023813191072
 20
0.5247714463923204
  0
VERTEX
  8
LAYER_1
 10
-13.00296860611035
 20
0.4965864207286542
  0
VERTEX
  8
LAYER_1
 10
-13.04918725330127
 20
0.458655757238275
  0
VERTEX
  8
LAYER_1
 10
-13.08711791679165
 20
0.4124371100473566
  0
VERTEX
  8
LAYER_1
 10
-13.11530294245531
 20
0.3597066358477303
  0
VERTEX
  8
LAYER_1
 10
-13.13265919556236
 20
0.3024907371912971
  0
VERTEX
  8
LAYER_1
 10
-13.13851968503937
 20
0.242988188976378
  0
VERTEX
  8
LAYER_1
 10
-13.13265919556236
 20
0.1834856407614588
  0
VERTEX
  8
LAYER_1
 10
-13.11530294245531
 20
0.1262697421050256
  0
VERTEX
  8
LAYER_1
 10
-13.08711791679165
 20
0.0735392679053994
  0
VERTEX
  8
LAYER_1
 10
-13.04918725330127
 20
0.027320620714481
  0
VERTEX
  8
LAYER_1
 10
-13.00296860611035
 20
-0.0106100427758984
  0
VERTEX
  8
LAYER_1
 10
-12.95023813191072
 20
-0.0387950684395645
  0
VERTEX
  8
LAYER_1
 10
-12.89302223325429
 20
-0.0561513215466074
  0
VERTEX
  8
LAYER_1
 10
-12.83351968503937
 20
-0.062011811023622
  0
VERTEX
  8
LAYER_1
 10
-12.77401713682445
 20
-0.0561513215466073
  0
VERTEX
  8
LAYER_1
 10
-12.71680123816802
 20
-0.0387950684395643
  0
VERTEX
  8
LAYER_1
 10
-12.66407076396839
 20
-0.0106100427758981
  0
VERTEX
  8
LAYER_1
 10
-12.61785211677747
 20
0.0273206207144813
  0
VERTEX
  8
LAYER_1
 10
-12.57992145328709
 20
0.0735392679053997
  0
VERTEX
  8
LAYER_1
 10
-12.55173642762343
 20
0.1262697421050261
  0
VERTEX
  8
LAYER_1
 10
-12.53438017451638
 20
0.1834856407614595
  0
VERTEX
  8
LAYER_1
 10
-12.52851968503937
 20
0.2429881889763787
  0
VERTEX
  8
LAYER_1
 10
-12.53438017451638
 20
0.3024907371912979
  0
VERTEX
  8
LAYER_1
 10
-12.55173642762343
 20
0.3597066358477311
  0
VERTEX
  8
LAYER_1
 10
-12.57992145328709
 20
0.4124371100473574
  0
VERTEX
  8
LAYER_1
 10
-12.61785211677747
 20
0.4586557572382757
  0
VERTEX
  8
LAYER_1
 10
-12.66407076396839
 20
0.4965864207286549
  0
VERTEX
  8
LAYER_1
 10
-12.71680123816802
 20
0.5247714463923209
  0
VERTEX
  8
LAYER_1
 10
-12.77401713682445
 20
0.5421276994993635
  0
SEQEND
  8
LAYER_1
  0
POLYLINE
  8
LAYER_1
 62
     1
 66
     1
 70
     1
  0
VERTEX
  8
LAYER_1
 62
     1
 10
-4.435102362204725
 20
8.062385826771653
  0
VERTEX
  8
LAYER_1
 62
     1
 10
-4.494604910419643
 20
8.056525337294639
  0
VERTEX
  8
LAYER_1
 62
     1
 10
-4.551820809076077
 20
8.039169084187595
  0
VERTEX
  8
LAYER_1
 62
     1
 10
-4.604551283275703
 20
8.01098405852393
  0
VERTEX
  8
LAYER_1
 62
     1
 10
-4.650769930466621
 20
7.97305339503355
  0
VERTEX
  8
LAYER_1
 62
     1
 10
-4.688700593957001
 20
7.926834747842632
  0
VERTEX
  8
LAYER_1
 62
     1
 10
-4.716885619620667
 20
7.874104273643005
  0
VERTEX
  8
LAYER_1
 62
     1
 10
-4.73424187272771
 20
7.816888374986572
  0
VERTEX
  8
LAYER_1
 62
     1
 10
-4.740102362204724
 20
7.757385826771653
  0
VERTEX
  8
LAYER_1
 62
     1
 10
-4.73424187272771
 20
7.697883278556734
  0
VERTEX
  8
LAYER_1
 62
     1
 10
-4.716885619620667
 20
7.640667379900301
  0
VERTEX
  8
LAYER_1
 62
     1
 10
-4.688700593957001
 20
7.587936905700674
  0
VERTEX
  8
LAYER_1
 62
     1
 10
-4.650769930466621
 20
7.541718258509756
  0
VERTEX
  8
LAYER_1
 62
     1
 10
-4.604551283275703
 20
7.503787595019377
  0
VERTEX
  8
LAYER_1
 62
     1
 10
-4.551820809076077
 20
7.47560256935571
  0
VERTEX
  8
LAYER_1
 62
     1
 10
-4.494604910419643
 20
7.458246316248668
  0
VERTEX
  8
LAYER_1
 62
     1
 10
-4.435102362204725
 20
7.452385826771653
  0
VERTEX
  8
LAYER_1
 62
     1
 10
-4.375599813989805
 20
7.458246316248668
  0
VERTEX
  8
LAYER_1
 62
     1
 10
-4.318383915333372
 20
7.47560256935571
  0
VERTEX
  8
LAYER_1
 62
     1
 10
-4.265653441133746
 20
7.503787595019377
  0
VERTEX
  8
LAYER_1
 62
     1
 10
-4.219434793942828
 20
7.541718258509756
  0
VERTEX
  8
LAYER_1
 62
     1
 10
-4.181504130452448
 20
7.587936905700674
  0
VERTEX
  8
LAYER_1
 62
     1
 10
-4.153319104788782
 20
7.640667379900301
  0
VERTEX
  8
LAYER_1
 62
     1
 10
-4.135962851681739
 20
7.697883278556735
  0
VERTEX
  8
LAYER_1
 62
     1
 10
-4.130102362204725
 20
7.757385826771654
  0
VERTEX
  8
LAYER_1
 62
     1
 10
-4.135962851681739
 20
7.816888374986573
  0
VERTEX
  8
LAYER_1
 62
     1
 10
-4.153319104788783
 20
7.874104273643006
  0
VERTEX
  8
LAYER_1
 62
     1
 10
-4.181504130452449
 20
7.926834747842633
  0
VERTEX
  8
LAYER_1
 62
     1
 10
-4.219434793942828
 20
7.973053395033551
  0
VERTEX
  8
LAYER_1
 62
     1
 10
-4.265653441133747
 20
8.01098405852393
  0
VERTEX
  8
LAYER_1
 62
     1
 10
-4.318383915333373
 20
8.039169084187597
  0
VERTEX
  8
LAYER_1
 62
     1
 10
-4.375599813989806
 20
8.056525337294639
  0
SEQEND
  8
LAYER_1
 62
     1
  0
POLYLINE
  8
LAYER_1
 66
     1
 70
     1
  0
VERTEX
  8
LAYER_1
 10
-4.435102362204725
 20
9.257385826771653
  0
VERTEX
  8
LAYER_1
 10
-4.727737845228917
 20
9.228563747376498
  0
VERTEX
  8
LAYER_1
 10
-5.009127510752359
 20
9.143205125538582
  0
VERTEX
  8
LAYER_1
 10
-5.268457711734127
 20
9.00459024522547
  0
VERTEX
  8
LAYER_1
 10
-5.495762533984546
 20
8.818045998551474
  0
VERTEX
  8
LAYER_1
 10
-5.682306780658543
 20
8.590741176301057
  0
VERTEX
  8
LAYER_1
 10
-5.820921660971655
 20
8.331410975319288
  0
VERTEX
  8
LAYER_1
 10
-5.90628028280957
 20
8.050021309795845
  0
VERTEX
  8
LAYER_1
 10
-5.935102362204725
 20
7.757385826771653
  0
VERTEX
  8
LAYER_1
 10
-5.90628028280957
 20
7.464750343747461
  0
VERTEX
  8
LAYER_1
 10
-5.820921660971655
 20
7.183360678224019
  0
VERTEX
  8
LAYER_1
 10
-5.682306780658543
 20
6.92403047724225
  0
VERTEX
  8
LAYER_1
 10
-5.495762533984546
 20
6.696725654991832
  0
VERTEX
  8
LAYER_1
 10
-5.268457711734127
 20
6.510181408317835
  0
VERTEX
  8
LAYER_1
 10
-5.009127510752359
 20
6.371566528004723
  0
VERTEX
  8
LAYER_1
 10
-4.727737845228916
 20
6.286207906166807
  0
VERTEX
  8
LAYER_1
 10
-4.435102362204724
 20
6.257385826771653
  0
VERTEX
  8
LAYER_1
 10
-4.142466879180531
 20
6.286207906166808
  0
VERTEX
  8
LAYER_1
 10
-3.861077213657088
 20
6.371566528004724
  0
VERTEX
  8
LAYER_1
 10
-3.601747012675319
 20
6.510181408317837
  0
VERTEX
  8
LAYER_1
 10
-3.374442190424902
 20
6.696725654991834
  0
VERTEX
  8
LAYER_1
 10
-3.187897943750905
 20
6.924030477242252
  0
VERTEX
  8
LAYER_1
 10
-3.049283063437793
 20
7.183360678224021
  0
VERTEX
  8
LAYER_1
 10
-2.963924441599878
 20
7.464750343747464
  0
VERTEX
  8
LAYER_1
 10
-2.935102362204725
 20
7.757385826771657
  0
VERTEX
  8
LAYER_1
 10
-2.96392444159988
 20
8.050021309795849
  0
VERTEX
  8
LAYER_1
 10
-3.049283063437796
 20
8.331410975319292
  0
VERTEX
  8
LAYER_1
 10
-3.187897943750909
 20
8.59074117630106
  0
VERTEX
  8
LAYER_1
 10
-3.374442190424907
 20
8.818045998551478
  0
VERTEX
  8
LAYER_1
 10
-3.601747012675326
 20
9.004590245225474
  0
VERTEX
  8
LAYER_1
 10
-3.861077213657095
 20
9.143205125538586
  0
VERTEX
  8
LAYER_1
 10
-4.142466879180538
 20
9.2285637473765
  0
SEQEND
  8
LAYER_1
  0
POLYLINE
  8
LAYER_1
 66
     1
 70
     1
  0
VERTEX
  8
LAYER_1
 10
-4.24651968503937
 20
7.846803149606299
  0
VERTEX
  8
LAYER_1
 10
-4.24651968503937
 20
7.667968503937008
  0
VERTEX
  8
LAYER_1
 10
-4.260822834645669
 20
7.642602362204724
  0
VERTEX
  8
LAYER_1
 10
-4.278405511811024
 20
7.619590551181102
  0
VERTEX
  8
LAYER_1
 10
-4.298956692913386
 20
7.599251968503937
  0
VERTEX
  8
LAYER_1
 10
-4.322153543307087
 20
7.581905511811024
  0
VERTEX
  8
LAYER_1
 10
-4.347681102362205
 20
7.567858267716535
  0
VERTEX
  8
LAYER_1
 10
-4.375228346456693
 20
7.557437007874015
  0
VERTEX
  8
LAYER_1
 10
-4.404472440944882
 20
7.550948818897638
  0
VERTEX
  8
LAYER_1
 10
-4.435102362204725
 20
7.548716535433071
  0
VERTEX
  8
LAYER_1
 10
-4.465732283464567
 20
7.550948818897638
  0
VERTEX
  8
LAYER_1
 10
-4.494976377952756
 20
7.557437007874015
  0
VERTEX
  8
LAYER_1
 10
-4.522523622047244
 20
7.567858267716535
  0
VERTEX
  8
LAYER_1
 10
-4.548051181102363
 20
7.581905511811024
  0
VERTEX
  8
LAYER_1
 10
-4.571248031496063
 20
7.599251968503937
  0
VERTEX
  8
LAYER_1
 10
-4.591799212598425
 20
7.619590551181102
  0
VERTEX
  8
LAYER_1
 10
-4.60938188976378
 20
7.642602362204724
  0
VERTEX
  8
LAYER_1
 10
-4.623685039370079
 20
7.667968503937008
  0
VERTEX
  8
LAYER_1
 10
-4.623685039370079
 20
7.846803149606299
  0
VERTEX
  8
LAYER_1
 10
-4.60938188976378
 20
7.872169291338583
  0
VERTEX
  8
LAYER_1
 10
-4.591799212598425
 20
7.895181102362205
  0
VERTEX
  8
LAYER_1
 10
-4.571248031496063
 20
7.91551968503937
  0
VERTEX
  8
LAYER_1
 10
-4.548051181102363
 20
7.932870078740158
  0
VERTEX
  8
LAYER_1
 10
-4.522523622047244
 20
7.946913385826772
  0
VERTEX
  8
LAYER_1
 10
-4.494976377952756
 20
7.957338582677165
  0
VERTEX
  8
LAYER_1
 10
-4.465732283464567
 20
7.963822834645669
  0
VERTEX
  8
LAYER_1
 10
-4.435102362204725
 20
7.966055118110236
  0
VERTEX
  8
LAYER_1
 10
-4.404472440944882
 20
7.963822834645669
  0
VERTEX
  8
LAYER_1
 10
-4.375228346456693
 20
7.957338582677165
  0
VERTEX
  8
LAYER_1
 10
-4.347681102362205
 20
7.946913385826772
  0
VERTEX
  8
LAYER_1
 10
-4.322153543307087
 20
7.932870078740158
  0
VERTEX
  8
LAYER_1
 10
-4.298956692913386
 20
7.91551968503937
  0
VERTEX
  8
LAYER_1
 10
-4.278405511811024
 20
7.895181102362205
  0
VERTEX
  8
LAYER_1
 10
-4.260822834645669
 20
7.872169291338583
  0
VERTEX
  8
LAYER_1
 10
-4.24651968503937
 20
7.846803149606299
  0
SEQEND
  8
LAYER_1
  0
POLYLINE
  8
LAYER_1
 66
     1
 70
     1
  0
VERTEX
  8
LAYER_1
 10
-6.728370078740157
 20
4.936314960629921
  0
VERTEX
  8
LAYER_1
 10
-6.735685965815763
 20
4.935594408645042
  0
VERTEX
  8
LAYER_1
 10
-6.742720707453849
 20
4.933460443099094
  0
VERTEX
  8
LAYER_1
 10
-6.749203962478393
 20
4.929995071091267
  0
VERTEX
  8
LAYER_1
 10
-6.754886583034653
 20
4.925331464924417
  0
VERTEX
  8
LAYER_1
 10
-6.759550189201503
 20
4.919648844368156
  0
VERTEX
  8
LAYER_1
 10
-6.763015561209331
 20
4.913165589343612
  0
VERTEX
  8
LAYER_1
 10
-6.765149526755279
 20
4.906130847705526
  0
VERTEX
  8
LAYER_1
 10
-6.765870078740157
 20
4.898814960629921
  0
VERTEX
  8
LAYER_1
 10
-6.765149526755279
 20
4.891499073554316
  0
VERTEX
  8
LAYER_1
 10
-6.763015561209331
 20
4.88446433191623
  0
VERTEX
  8
LAYER_1
 10
-6.759550189201503
 20
4.877981076891686
  0
VERTEX
  8
LAYER_1
 10
-6.754886583034653
 20
4.872298456335425
  0
VERTEX
  8
LAYER_1
 10
-6.749203962478393
 20
4.867634850168575
  0
VERTEX
  8
LAYER_1
 10
-6.742720707453849
 20
4.864169478160748
  0
VERTEX
  8
LAYER_1
 10
-6.735685965815763
 20
4.8620355126148
  0
VERTEX
  8
LAYER_1
 10
-6.728370078740157
 20
4.861314960629922
  0
VERTEX
  8
LAYER_1
 10
-6.721054191664552
 20
4.8620355126148
  0
VERTEX
  8
LAYER_1
 10
-6.714019450026466
 20
4.864169478160748
  0
VERTEX
  8
LAYER_1
 10
-6.707536195001922
 20
4.867634850168575
  0
VERTEX
  8
LAYER_1
 10
-6.701853574445662
 20
4.872298456335425
  0
VERTEX
  8
LAYER_1
 10
-6.697189968278812
 20
4.877981076891686
  0
VERTEX
  8
LAYER_1
 10
-6.693724596270984
 20
4.88446433191623
  0
VERTEX
  8
LAYER_1
 10
-6.691590630725036
 20
4.891499073554316
  0
VERTEX
  8
LAYER_1
 10
-6.690870078740158
 20
4.898814960629921
  0
VERTEX
  8
LAYER_1
 10
-6.691590630725036
 20
4.906130847705526
  0
VERTEX
  8
LAYER_1
 10
-6.693724596270984
 20
4.913165589343612
  0
VERTEX
  8
LAYER_1
 10
-6.697189968278813
 20
4.919648844368156
  0
VERTEX
  8
LAYER_1
 10
-6.701853574445662
 20
4.925331464924417
  0
VERTEX
  8
LAYER_1
 10
-6.707536195001922
 20
4.929995071091267
  0
VERTEX
  8
LAYER_1
 10
-6.714019450026467
 20
4.933460443099094
  0
VERTEX
  8
LAYER_1
 10
-6.721054191664553
 20
4.935594408645042
  0
SEQEND
  8
LAYER_1
  0
POLYLINE
  8
LAYER_1
 66
     1
 70
     1
  0
VERTEX
  8
LAYER_1
 10
-4.566350393700787
 20
4.857381889763779
  0
VERTEX
  8
LAYER_1
 10
-4.573666280776393
 20
4.856661337778901
  0
VERTEX
  8
LAYER_1
 10
-4.580701022414479
 20
4.854527372232953
  0
VERTEX
  8
LAYER_1
 10
-4.587184277439023
 20
4.851062000225125
  0
VERTEX
  8
LAYER_1
 10
-4.592866897995283
 20
4.846398394058276
  0
VERTEX
  8
LAYER_1
 10
-4.597530504162133
 20
4.840715773502015
  0
VERTEX
  8
LAYER_1
 10
-4.600995876169961
 20
4.834232518477471
  0
VERTEX
  8
LAYER_1
 10
-4.603129841715909
 20
4.827197776839385
  0
VERTEX
  8
LAYER_1
 10
-4.603850393700787
 20
4.81988188976378
  0
VERTEX
  8
LAYER_1
 10
-4.603129841715909
 20
4.812566002688174
  0
VERTEX
  8
LAYER_1
 10
-4.600995876169961
 20
4.805531261050088
  0
VERTEX
  8
LAYER_1
 10
-4.597530504162133
 20
4.799048006025544
  0
VERTEX
  8
LAYER_1
 10
-4.592866897995283
 20
4.793365385469284
  0
VERTEX
  8
LAYER_1
 10
-4.587184277439023
 20
4.788701779302434
  0
VERTEX
  8
LAYER_1
 10
-4.580701022414479
 20
4.785236407294606
  0
VERTEX
  8
LAYER_1
 10
-4.573666280776393
 20
4.783102441748659
  0
VERTEX
  8
LAYER_1
 10
-4.566350393700787
 20
4.78238188976378
  0
VERTEX
  8
LAYER_1
 10
-4.559034506625182
 20
4.783102441748659
  0
VERTEX
  8
LAYER_1
 10
-4.551999764987096
 20
4.785236407294606
  0
VERTEX
  8
LAYER_1
 10
-4.545516509962552
 20
4.788701779302434
  0
VERTEX
  8
LAYER_1
 10
-4.539833889406292
 20
4.793365385469284
  0
VERTEX
  8
LAYER_1
 10
-4.535170283239442
 20
4.799048006025544
  0
VERTEX
  8
LAYER_1
 10
-4.531704911231614
 20
4.805531261050088
  0
VERTEX
  8
LAYER_1
 10
-4.529570945685666
 20
4.812566002688174
  0
VERTEX
  8
LAYER_1
 10
-4.528850393700788
 20
4.81988188976378
  0
VERTEX
  8
LAYER_1
 10
-4.529570945685666
 20
4.827197776839385
  0
VERTEX
  8
LAYER_1
 10
-4.531704911231614
 20
4.834232518477471
  0
VERTEX
  8
LAYER_1
 10
-4.535170283239442
 20
4.840715773502015
  0
VERTEX
  8
LAYER_1
 10
-4.539833889406292
 20
4.846398394058276
  0
VERTEX
  8
LAYER_1
 10
-4.545516509962552
 20
4.851062000225125
  0
VERTEX
  8
LAYER_1
 10
-4.551999764987097
 20
4.854527372232953
  0
VERTEX
  8
LAYER_1
 10
-4.559034506625183
 20
4.856661337778901
  0
SEQEND
  8
LAYER_1
  0
POLYLINE
  8
LAYER_1
 66
     1
 70
     1
  0
VERTEX
  8
LAYER_1
 10
-4.566350393700787
 20
5.804133858267717
  0
VERTEX
  8
LAYER_1
 10
-4.758368427181229
 20
5.785221732680345
  0
VERTEX
  8
LAYER_1
 10
-4.943007315319971
 20
5.729212138298511
  0
VERTEX
  8
LAYER_1
 10
-5.113171489192522
 20
5.638257492423765
  0
VERTEX
  8
LAYER_1
 10
-5.262321635026129
 20
5.515853131089122
  0
VERTEX
  8
LAYER_1
 10
-5.384725996360773
 20
5.366702985255515
  0
VERTEX
  8
LAYER_1
 10
-5.475680642235519
 20
5.196538811382963
  0
VERTEX
  8
LAYER_1
 10
-5.531690236617353
 20
5.011899923244221
  0
VERTEX
  8
LAYER_1
 10
-5.550602362204724
 20
4.81988188976378
  0
VERTEX
  8
LAYER_1
 10
-5.531690236617353
 20
4.627863856283338
  0
VERTEX
  8
LAYER_1
 10
-5.475680642235519
 20
4.443224968144597
  0
VERTEX
  8
LAYER_1
 10
-5.384725996360773
 20
4.273060794272046
  0
VERTEX
  8
LAYER_1
 10
-5.262321635026129
 20
4.123910648438438
  0
VERTEX
  8
LAYER_1
 10
-5.113171489192522
 20
4.001506287103794
  0
VERTEX
  8
LAYER_1
 10
-4.94300731531997
 20
3.910551641229048
  0
VERTEX
  8
LAYER_1
 10
-4.758368427181228
 20
3.854542046847214
  0
VERTEX
  8
LAYER_1
 10
-4.566350393700787
 20
3.835629921259843
  0
VERTEX
  8
LAYER_1
 10
-4.374332360220345
 20
3.854542046847214
  0
VERTEX
  8
LAYER_1
 10
-4.189693472081603
 20
3.910551641229049
  0
VERTEX
  8
LAYER_1
 10
-4.019529298209052
 20
4.001506287103795
  0
VERTEX
  8
LAYER_1
 10
-3.870379152375444
 20
4.123910648438438
  0
VERTEX
  8
LAYER_1
 10
-3.747974791040801
 20
4.273060794272046
  0
VERTEX
  8
LAYER_1
 10
-3.657020145166055
 20
4.443224968144599
  0
VERTEX
  8
LAYER_1
 10
-3.601010550784221
 20
4.627863856283341
  0
VERTEX
  8
LAYER_1
 10
-3.58209842519685
 20
4.819881889763782
  0
VERTEX
  8
LAYER_1
 10
-3.601010550784223
 20
5.011899923244224
  0
VERTEX
  8
LAYER_1
 10
-3.657020145166058
 20
5.196538811382965
  0
VERTEX
  8
LAYER_1
 10
-3.747974791040804
 20
5.366702985255516
  0
VERTEX
  8
LAYER_1
 10
-3.870379152375448
 20
5.515853131089124
  0
VERTEX
  8
LAYER_1
 10
-4.019529298209056
 20
5.638257492423767
  0
VERTEX
  8
LAYER_1
 10
-4.189693472081608
 20
5.729212138298513
  0
VERTEX
  8
LAYER_1
 10
-4.37433236022035
 20
5.785221732680346
  0
SEQEND
  8
LAYER_1
  0
POLYLINE
  8
LAYER_1
 66
     1
 70
     1
  0
VERTEX
  8
LAYER_1
 10
-8.58048031496063
 20
9.0303031496063
  0
VERTEX
  8
LAYER_1
 10
-8.610243110150098
 20
9.027371770140258
  0
VERTEX
  8
LAYER_1
 10
-8.638862137811604
 20
9.018690283011074
  0
VERTEX
  8
LAYER_1
 10
-8.665237584761849
 20
9.004592312900487
  0
VERTEX
  8
LAYER_1
 10
-8.688355857366057
 20
8.985619636893617
  0
VERTEX
  8
LAYER_1
 10
-8.707328533372927
 20
8.962501364289409
  0
VERTEX
  8
LAYER_1
 10
-8.721426503483514
 20
8.936125917339163
  0
VERTEX
  8
LAYER_1
 10
-8.730107990612698
 20
8.907506889677657
  0
VERTEX
  8
LAYER_1
 10
-8.73303937007874
 20
8.87774409448819
  0
VERTEX
  8
LAYER_1
 10
-8.730107990612698
 20
8.847981299298722
  0
VERTEX
  8
LAYER_1
 10
-8.721426503483514
 20
8.819362271637216
  0
VERTEX
  8
LAYER_1
 10
-8.707328533372927
 20
8.79298682468697
  0
VERTEX
  8
LAYER_1
 10
-8.688355857366057
 20
8.769868552082762
  0
VERTEX
  8
LAYER_1
 10
-8.665237584761849
 20
8.750895876075893
  0
VERTEX
  8
LAYER_1
 10
-8.638862137811604
 20
8.736797905965306
  0
VERTEX
  8
LAYER_1
 10
-8.610243110150098
 20
8.728116418836121
  0
VERTEX
  8
LAYER_1
 10
-8.58048031496063
 20
8.725185039370078
  0
VERTEX
  8
LAYER_1
 10
-8.550717519771162
 20
8.728116418836121
  0
VERTEX
  8
LAYER_1
 10
-8.522098492109656
 20
8.736797905965306
  0
VERTEX
  8
LAYER_1
 10
-8.49572304515941
 20
8.750895876075893
  0
VERTEX
  8
LAYER_1
 10
-8.4726047725552
 20
8.769868552082762
  0
VERTEX
  8
LAYER_1
 10
-8.453632096548331
 20
8.79298682468697
  0
VERTEX
  8
LAYER_1
 10
-8.439534126437746
 20
8.819362271637216
  0
VERTEX
  8
LAYER_1
 10
-8.430852639308561
 20
8.847981299298722
  0
VERTEX
  8
LAYER_1
 10
-8.427921259842519
 20
8.87774409448819
  0
VERTEX
  8
LAYER_1
 10
-8.430852639308561
 20
8.90750688967766
  0
VERTEX
  8
LAYER_1
 10
-8.439534126437746
 20
8.936125917339163
  0
VERTEX
  8
LAYER_1
 10
-8.453632096548333
 20
8.962501364289409
  0
VERTEX
  8
LAYER_1
 10
-8.472604772555203
 20
8.985619636893619
  0
VERTEX
  8
LAYER_1
 10
-8.495723045159412
 20
9.004592312900488
  0
VERTEX
  8
LAYER_1
 10
-8.522098492109658
 20
9.018690283011074
  0
VERTEX
  8
LAYER_1
 10
-8.550717519771162
 20
9.027371770140258
  0
SEQEND
  8
LAYER_1
  0
POLYLINE
  8
LAYER_1
 66
     1
 70
     1
  0
VERTEX
  8
LAYER_1
 10
-8.58048031496063
 20
9.724200787401575
  0
VERTEX
  8
LAYER_1
 10
-8.745615823753809
 20
9.707936359396436
  0
VERTEX
  8
LAYER_1
 10
-8.904405267553127
 20
9.659768108228059
  0
VERTEX
  8
LAYER_1
 10
-9.050746457083521
 20
9.581547112775777
  0
VERTEX
  8
LAYER_1
 10
-9.179015582500424
 20
9.476279362027984
  0
VERTEX
  8
LAYER_1
 10
-9.284283333248217
 20
9.348010236611081
  0
VERTEX
  8
LAYER_1
 10
-9.3625043287005
 20
9.201669047080687
  0
VERTEX
  8
LAYER_1
 10
-9.410672579868876
 20
9.042879603281369
  0
VERTEX
  8
LAYER_1
 10
-9.426937007874015
 20
8.87774409448819
  0
VERTEX
  8
LAYER_1
 10
-9.410672579868876
 20
8.71260858569501
  0
VERTEX
  8
LAYER_1
 10
-9.3625043287005
 20
8.553819141895692
  0
VERTEX
  8
LAYER_1
 10
-9.284283333248217
 20
8.407477952365298
  0
VERTEX
  8
LAYER_1
 10
-9.179015582500424
 20
8.279208826948395
  0
VERTEX
  8
LAYER_1
 10
-9.050746457083521
 20
8.173941076200602
  0
VERTEX
  8
LAYER_1
 10
-8.904405267553127
 20
8.09572008074832
  0
VERTEX
  8
LAYER_1
 10
-8.745615823753809
 20
8.047551829579943
  0
VERTEX
  8
LAYER_1
 10
-8.58048031496063
 20
8.031287401574804
  0
VERTEX
  8
LAYER_1
 10
-8.41534480616745
 20
8.047551829579943
  0
VERTEX
  8
LAYER_1
 10
-8.25655536236813
 20
8.095720080748322
  0
VERTEX
  8
LAYER_1
 10
-8.110214172837736
 20
8.173941076200602
  0
VERTEX
  8
LAYER_1
 10
-7.981945047420835
 20
8.279208826948397
  0
VERTEX
  8
LAYER_1
 10
-7.876677296673042
 20
8.4074779523653
  0
VERTEX
  8
LAYER_1
 10
-7.79845630122076
 20
8.553819141895694
  0
VERTEX
  8
LAYER_1
 10
-7.750288050052383
 20
8.712608585695012
  0
VERTEX
  8
LAYER_1
 10
-7.734023622047244
 20
8.877744094488191
  0
VERTEX
  8
LAYER_1
 10
-7.750288050052384
 20
9.04287960328137
  0
VERTEX
  8
LAYER_1
 10
-7.798456301220762
 20
9.201669047080689
  0
VERTEX
  8
LAYER_1
 10
-7.876677296673043
 20
9.348010236611083
  0
VERTEX
  8
LAYER_1
 10
-7.981945047420838
 20
9.476279362027986
  0
VERTEX
  8
LAYER_1
 10
-8.11021417283774
 20
9.581547112775779
  0
VERTEX
  8
LAYER_1
 10
-8.256555362368136
 20
9.659768108228059
  0
VERTEX
  8
LAYER_1
 10
-8.415344806167454
 20
9.707936359396436
  0
SEQEND
  8
LAYER_1
  0
POLYLINE
  8
LAYER_1
 66
     1
 70
     1
  0
VERTEX
  8
LAYER_1
 10
-11.08505118110236
 20
5.199031496062992
  0
VERTEX
  8
LAYER_1
 10
-11.1004126237808
 20
5.197518526016003
  0
VERTEX
  8
LAYER_1
 10
-11.1151837348319
 20
5.193037758465456
  0
VERTEX
  8
LAYER_1
 10
-11.1287968687417
 20
5.185761386795476
  0
VERTEX
  8
LAYER_1
 10
-11.14072888040839
 20
5.175969037888705
  0
VERTEX
  8
LAYER_1
 10
-11.15052122931516
 20
5.164037026222016
  0
VERTEX
  8
LAYER_1
 10
-11.15779760098514
 20
5.150423892312212
  0
VERTEX
  8
LAYER_1
 10
-11.16227836853569
 20
5.135652781261113
  0
VERTEX
  8
LAYER_1
 10
-11.16379133858268
 20
5.120291338582677
  0
VERTEX
  8
LAYER_1
 10
-11.16227836853569
 20
5.104929895904242
  0
VERTEX
  8
LAYER_1
 10
-11.15779760098514
 20
5.090158784853143
  0
VERTEX
  8
LAYER_1
 10
-11.15052122931516
 20
5.076545650943339
  0
VERTEX
  8
LAYER_1
 10
-11.14072888040839
 20
5.06461363927665
  0
VERTEX
  8
LAYER_1
 10
-11.1287968687417
 20
5.054821290369879
  0
VERTEX
  8
LAYER_1
 10
-11.1151837348319
 20
5.047544918699899
  0
VERTEX
  8
LAYER_1
 10
-11.1004126237808
 20
5.043064151149352
  0
VERTEX
  8
LAYER_1
 10
-11.08505118110236
 20
5.041551181102363
  0
VERTEX
  8
LAYER_1
 10
-11.06968973842393
 20
5.043064151149352
  0
VERTEX
  8
LAYER_1
 10
-11.05491862737283
 20
5.047544918699899
  0
VERTEX
  8
LAYER_1
 10
-11.04130549346302
 20
5.054821290369879
  0
VERTEX
  8
LAYER_1
 10
-11.02937348179633
 20
5.06461363927665
  0
VERTEX
  8
LAYER_1
 10
-11.01958113288956
 20
5.076545650943339
  0
VERTEX
  8
LAYER_1
 10
-11.01230476121958
 20
5.090158784853143
  0
VERTEX
  8
LAYER_1
 10
-11.00782399366904
 20
5.104929895904243
  0
VERTEX
  8
LAYER_1
 10
-11.00631102362205
 20
5.120291338582677
  0
VERTEX
  8
LAYER_1
 10
-11.00782399366904
 20
5.135652781261113
  0
VERTEX
  8
LAYER_1
 10
-11.01230476121958
 20
5.150423892312213
  0
VERTEX
  8
LAYER_1
 10
-11.01958113288956
 20
5.164037026222016
  0
VERTEX
  8
LAYER_1
 10
-11.02937348179633
 20
5.175969037888705
  0
VERTEX
  8
LAYER_1
 10
-11.04130549346302
 20
5.185761386795476
  0
VERTEX
  8
LAYER_1
 10
-11.05491862737283
 20
5.193037758465456
  0
VERTEX
  8
LAYER_1
 10
-11.06968973842393
 20
5.197518526016003
  0
SEQEND
  8
LAYER_1
  0
POLYLINE
  8
LAYER_1
 66
     1
 70
     1
  0
VERTEX
  8
LAYER_1
 10
-11.08505118110236
 20
5.966748031496063
  0
VERTEX
  8
LAYER_1
 10
-11.25018668989554
 20
5.950483603490923
  0
VERTEX
  8
LAYER_1
 10
-11.40897613369486
 20
5.902315352322546
  0
VERTEX
  8
LAYER_1
 10
-11.55531732322525
 20
5.824094356870265
  0
VERTEX
  8
LAYER_1
 10
-11.68358644864216
 20
5.718826606122471
  0
VERTEX
  8
LAYER_1
 10
-11.78885419938995
 20
5.590557480705569
  0
VERTEX
  8
LAYER_1
 10
-11.86707519484223
 20
5.444216291175175
  0
VERTEX
  8
LAYER_1
 10
-11.91524344601061
 20
5.285426847375857
  0
VERTEX
  8
LAYER_1
 10
-11.93150787401575
 20
5.120291338582677
  0
VERTEX
  8
LAYER_1
 10
-11.91524344601061
 20
4.955155829789498
  0
VERTEX
  8
LAYER_1
 10
-11.86707519484223
 20
4.79636638599018
  0
VERTEX
  8
LAYER_1
 10
-11.78885419938995
 20
4.650025196459786
  0
VERTEX
  8
LAYER_1
 10
-11.68358644864216
 20
4.521756071042883
  0
VERTEX
  8
LAYER_1
 10
-11.55531732322525
 20
4.416488320295089
  0
VERTEX
  8
LAYER_1
 10
-11.40897613369486
 20
4.338267324842809
  0
VERTEX
  8
LAYER_1
 10
-11.25018668989554
 20
4.290099073674431
  0
VERTEX
  8
LAYER_1
 10
-11.08505118110236
 20
4.273834645669291
  0
VERTEX
  8
LAYER_1
 10
-10.91991567230918
 20
4.290099073674432
  0
VERTEX
  8
LAYER_1
 10
-10.76112622850986
 20
4.338267324842809
  0
VERTEX
  8
LAYER_1
 10
-10.61478503897947
 20
4.41648832029509
  0
VERTEX
  8
LAYER_1
 10
-10.48651591356257
 20
4.521756071042884
  0
VERTEX
  8
LAYER_1
 10
-10.38124816281477
 20
4.650025196459787
  0
VERTEX
  8
LAYER_1
 10
-10.30302716736249
 20
4.796366385990182
  0
VERTEX
  8
LAYER_1
 10
-10.25485891619411
 20
4.9551558297895
  0
VERTEX
  8
LAYER_1
 10
-10.23859448818898
 20
5.120291338582679
  0
VERTEX
  8
LAYER_1
 10
-10.25485891619412
 20
5.285426847375859
  0
VERTEX
  8
LAYER_1
 10
-10.30302716736249
 20
5.444216291175177
  0
VERTEX
  8
LAYER_1
 10
-10.38124816281478
 20
5.590557480705571
  0
VERTEX
  8
LAYER_1
 10
-10.48651591356257
 20
5.718826606122474
  0
VERTEX
  8
LAYER_1
 10
-10.61478503897947
 20
5.824094356870266
  0
VERTEX
  8
LAYER_1
 10
-10.76112622850987
 20
5.902315352322548
  0
VERTEX
  8
LAYER_1
 10
-10.91991567230919
 20
5.950483603490924
  0
SEQEND
  8
LAYER_1
  0
ENDSEC
  0
EOF
