  0
SECTION
  2
HEADER
  9
$ACADVER
  1
AC1009
  9
$DWGCODEPAGE
  3
ansi_1252
  9
$INSBASE
 10
0.0
 20
0.0
 30
0.0
  9
$EXTMIN
 10
-0.000000000000199
 20
1.410593220986739
 30
0.0
  9
$EXTMAX
 10
96.0000000000002
 20
47.02980225967109
 30
0.0
  9
$LIMMIN
 10
0.0
 20
0.0
  9
$LIMMAX
 10
12.0
 20
9.0
  9
$ORTHOMODE
 70
     0
  9
$REGENMODE
 70
     1
  9
$FILLMODE
 70
     1
  9
$QTEXTMODE
 70
     0
  9
$MIRRTEXT
 70
     1
  9
$DRAGMODE
 70
     2
  9
$LTSCALE
 40
1.0
  9
$OSMODE
 70
    37
  9
$ATTMODE
 70
     1
  9
$TEXTSIZE
 40
0.2
  9
$TRACEWID
 40
0.05
  9
$TEXTSTYLE
  7
STANDARD
  9
$CLAYER
  8
0
  9
$CELTYPE
  6
BYLAYER
  9
$CECOLOR
 62
   256
  9
$DIMSCALE
 40
1.0
  9
$DIMASZ
 40
0.18
  9
$DIMEXO
 40
0.0625
  9
$DIMDLI
 40
0.38
  9
$DIMRND
 40
0.0
  9
$DIMDLE
 40
0.0
  9
$DIMEXE
 40
0.18
  9
$DIMTP
 40
0.0
  9
$DIMTM
 40
0.0
  9
$DIMTXT
 40
0.18
  9
$DIMCEN
 40
0.09
  9
$DIMTSZ
 40
0.0
  9
$DIMTOL
 70
     0
  9
$DIMLIM
 70
     0
  9
$DIMTIH
 70
     1
  9
$DIMTOH
 70
     1
  9
$DIMSE1
 70
     0
  9
$DIMSE2
 70
     0
  9
$DIMTAD
 70
     0
  9
$DIMZIN
 70
     0
  9
$DIMBLK
  1

  9
$DIMASO
 70
     1
  9
$DIMSHO
 70
     1
  9
$DIMPOST
  1

  9
$DIMAPOST
  1

  9
$DIMALT
 70
     0
  9
$DIMALTD
 70
     2
  9
$DIMALTF
 40
25.4
  9
$DIMLFAC
 40
1.0
  9
$DIMTOFL
 70
     0
  9
$DIMTVP
 40
0.0
  9
$DIMTIX
 70
     0
  9
$DIMSOXD
 70
     0
  9
$DIMSAH
 70
     0
  9
$DIMBLK1
  1

  9
$DIMBLK2
  1

  9
$DIMSTYLE
  2
STANDARD
  9
$DIMCLRD
 70
     0
  9
$DIMCLRE
 70
     0
  9
$DIMCLRT
 70
     0
  9
$DIMTFAC
 40
1.0
  9
$DIMGAP
 40
0.09
  9
$LUNITS
 70
     2
  9
$LUPREC
 70
     4
  9
$SKETCHINC
 40
0.1
  9
$FILLETRAD
 40
0.5
  9
$AUNITS
 70
     0
  9
$AUPREC
 70
     0
  9
$MENU
  1
.
  9
$ELEVATION
 40
0.0
  9
$PELEVATION
 40
0.0
  9
$THICKNESS
 40
0.0
  9
$LIMCHECK
 70
     0
  9
$CHAMFERA
 40
0.0
  9
$CHAMFERB
 40
0.0
  9
$SKPOLY
 70
     0
  9
$TDCREATE
 40
2454910.5
  9
$TDUPDATE
 40
2458668.966650266
  9
$TDINDWG
 40
0.0000000116
  9
$TDUSRTIMER
 40
0.0000000116
  9
$USRTIMER
 70
     1
  9
$ANGBASE
 50
0.0
  9
$ANGDIR
 70
     0
  9
$PDMODE
 70
     0
  9
$PDSIZE
 40
0.0
  9
$PLINEWID
 40
0.0
  9
$COORDS
 70
     1
  9
$SPLFRAME
 70
     0
  9
$SPLINETYPE
 70
     6
  9
$SPLINESEGS
 70
     8
  9
$ATTDIA
 70
     0
  9
$ATTREQ
 70
     1
  9
$HANDLING
 70
     1
  9
$HANDSEED
  5
407
  9
$SURFTAB1
 70
     6
  9
$SURFTAB2
 70
     6
  9
$SURFTYPE
 70
     6
  9
$SURFU
 70
     6
  9
$SURFV
 70
     6
  9
$UCSNAME
  2

  9
$UCSORG
 10
0.0
 20
0.0
 30
0.0
  9
$UCSXDIR
 10
1.0
 20
0.0
 30
0.0
  9
$UCSYDIR
 10
0.0
 20
1.0
 30
0.0
  9
$PUCSNAME
  2

  9
$PUCSORG
 10
0.0
 20
0.0
 30
0.0
  9
$PUCSXDIR
 10
1.0
 20
0.0
 30
0.0
  9
$PUCSYDIR
 10
0.0
 20
1.0
 30
0.0
  9
$USERI1
 70
     0
  9
$USERI2
 70
     0
  9
$USERI3
 70
     0
  9
$USERI4
 70
     0
  9
$USERI5
 70
     0
  9
$USERR1
 40
0.0
  9
$USERR2
 40
0.0
  9
$USERR3
 40
0.0
  9
$USERR4
 40
0.0
  9
$USERR5
 40
0.0
  9
$WORLDVIEW
 70
     1
  9
$SHADEDGE
 70
     3
  9
$SHADEDIF
 70
    70
  9
$TILEMODE
 70
     1
  9
$MAXACTVP
 70
    64
  9
$PLIMCHECK
 70
     0
  9
$PEXTMIN
 10
1.000000000000000E+20
 20
1.000000000000000E+20
 30
1.000000000000000E+20
  9
$PEXTMAX
 10
-1.000000000000000E+20
 20
-1.000000000000000E+20
 30
-1.000000000000000E+20
  9
$PLIMMIN
 10
0.0
 20
0.0
  9
$PLIMMAX
 10
12.0
 20
9.0
  9
$UNITMODE
 70
     0
  9
$VISRETAIN
 70
     1
  9
$PLINEGEN
 70
     0
  9
$PSLTSCALE
 70
     1
  0
ENDSEC
  0
SECTION
  2
TABLES
  0
TABLE
  2
VPORT
 70
     1
  0
VPORT
  2
*ACTIVE
 70
     0
 10
0.0
 20
0.0
 11
1.0
 21
1.0
 12
10.42990654205607
 22
4.5
 13
0.0
 23
0.0
 14
0.5
 24
0.5
 15
0.5
 25
0.5
 16
0.0
 26
0.0
 36
1.0
 17
0.0
 27
0.0
 37
0.0
 40
9.0
 41
1.972972972850329
 42
50.0
 43
0.0
 44
0.0
 50
0.0
 51
0.0
 71
     0
 72
   100
 73
     1
 74
     3
 75
     0
 76
     0
 77
     0
 78
     0
  0
ENDTAB
  0
TABLE
  2
LTYPE
 70
     2
  0
LTYPE
  2
CONTINUOUS
 70
     0
  3
Solid line
 72
    65
 73
     0
 40
0.0
  0
LTYPE
  2
CONTINUOUS2
 70
     0
  3
Solid Line
 72
    65
 73
     0
 40
0.0
  0
ENDTAB
  0
TABLE
  2
LAYER
 70
     2
  0
LAYER
  2
0
 70
     0
 62
     7
  6
CONTINUOUS
  0
LAYER
  2
LAYER_1
 70
     0
 62
    18
  6
CONTINUOUS
  0
ENDTAB
  0
TABLE
  2
STYLE
 70
     1
  0
STYLE
  2
STANDARD
 70
     0
 40
0.0
 41
1.0
 50
0.0
 71
     0
 42
0.2
  3
txt
  4

  0
ENDTAB
  0
TABLE
  2
VIEW
 70
     0
  0
ENDTAB
  0
TABLE
  2
UCS
 70
     0
  0
ENDTAB
  0
TABLE
  2
APPID
 70
     1
  0
APPID
  2
ACAD
 70
     0
  0
ENDTAB
  0
TABLE
  2
DIMSTYLE
 70
     1
  0
DIMSTYLE
  2
STANDARD
 70
     0
  3

  4

  5

  6

  7

 40
1.0
 41
0.18
 42
0.0625
 43
0.38
 44
0.18
 45
0.0
 46
0.0
 47
0.0
 48
0.0
140
0.18
141
0.09
142
0.0
143
25.4
144
1.0
145
0.0
146
1.0
147
0.09
 71
     0
 72
     0
 73
     1
 74
     1
 75
     0
 76
     0
 77
     0
 78
     0
170
     0
171
     2
172
     0
173
     0
174
     0
175
     0
176
     0
177
     0
178
     0
  0
ENDTAB
  0
ENDSEC
  0
SECTION
  2
BLOCKS
  0
BLOCK
  8
0
  2
$MODEL_SPACE
 70
     0
 10
0.0
 20
0.0
 30
0.0
  3
$MODEL_SPACE
  1

  0
ENDBLK
  5
21
  8
0
  0
BLOCK
 67
     1
  8
0
  2
$PAPER_SPACE
 70
     0
 10
0.0
 20
0.0
 30
0.0
  3
$PAPER_SPACE
  1

  0
ENDBLK
  5
1D
 67
     1
  8
0
  0
ENDSEC
  0
SECTION
  2
ENTITIES
  0
POLYLINE
  5
70
  8
LAYER_1
 66
     1
 10
0.0
 20
0.0
 30
0.0
 70
     1
  0
VERTEX
  5
8C
  8
LAYER_1
 10
0.4701977403289138
 20
16.35098870164454
 30
0.0
  0
VERTEX
  5
8D
  8
LAYER_1
 10
94.9701977403291
 20
16.35098870164454
 30
0.0
  0
VERTEX
  5
8E
  8
LAYER_1
 10
94.9701977403291
 20
20.35098870164457
 30
0.0
  0
VERTEX
  5
8F
  8
LAYER_1
 10
0.4701977403289138
 20
20.35098870164457
 30
0.0
  0
SEQEND
  5
3F2
  8
LAYER_1
  0
POLYLINE
  5
71
  8
LAYER_1
 66
     1
 10
0.0
 20
0.0
 30
0.0
 70
     1
  0
VERTEX
  5
90
  8
LAYER_1
 10
0.4701977403289138
 20
21.79138418230239
 30
0.0
  0
VERTEX
  5
91
  8
LAYER_1
 10
94.97019774032891
 20
21.79138418230239
 30
0.0
  0
VERTEX
  5
92
  8
LAYER_1
 10
94.97019774032891
 20
25.79138418230239
 30
0.0
  0
VERTEX
  5
93
  8
LAYER_1
 10
0.4701977403289138
 20
25.79138418230239
 30
0.0
  0
SEQEND
  5
3F3
  8
LAYER_1
  0
POLYLINE
  5
72
  8
LAYER_1
 66
     1
 10
0.0
 20
0.0
 30
0.0
 70
     1
  0
VERTEX
  5
94
  8
LAYER_1
 10
46.53753923041015
 20
28.17217514361805
 30
0.0
  0
VERTEX
  5
95
  8
LAYER_1
 10
60.03753923041015
 20
28.17217514361805
 30
0.0
  0
VERTEX
  5
96
  8
LAYER_1
 10
60.03753923041015
 20
32.17217514361805
 30
0.0
  0
VERTEX
  5
97
  8
LAYER_1
 10
46.53753923041015
 20
32.17217514361805
 30
0.0
  0
SEQEND
  5
3F4
  8
LAYER_1
  0
POLYLINE
  5
73
  8
LAYER_1
 66
     1
 10
0.0
 20
0.0
 30
0.0
 70
     1
  0
VERTEX
  5
98
  8
LAYER_1
 10
46.54219752906815
 20
34.04927073953724
 30
0.0
  0
VERTEX
  5
99
  8
LAYER_1
 10
60.04219752906815
 20
34.04927073953724
 30
0.0
  0
VERTEX
  5
9A
  8
LAYER_1
 10
60.04219752906815
 20
38.04927073953724
 30
0.0
  0
VERTEX
  5
9B
  8
LAYER_1
 10
46.54219752906815
 20
38.04927073953724
 30
0.0
  0
SEQEND
  5
3F5
  8
LAYER_1
  0
POLYLINE
  5
74
  8
LAYER_1
 66
     1
 10
0.0
 20
0.0
 30
0.0
 70
     1
  0
VERTEX
  5
9C
  8
LAYER_1
 10
68.71912431248401
 20
39.6826158268699
 30
0.0
  0
VERTEX
  5
9D
  8
LAYER_1
 10
87.2191243124836
 20
39.6826158268699
 30
0.0
  0
VERTEX
  5
9E
  8
LAYER_1
 10
87.2191243124836
 20
42.6826158268699
 30
0.0
  0
VERTEX
  5
9F
  8
LAYER_1
 10
68.71912431248401
 20
42.6826158268699
 30
0.0
  0
SEQEND
  5
3F6
  8
LAYER_1
  0
POLYLINE
  5
75
  8
LAYER_1
 66
     1
 10
0.0
 20
0.0
 30
0.0
 70
     1
  0
VERTEX
  5
A0
  8
LAYER_1
 10
68.76075142242216
 20
43.89558758021698
 30
0.0
  0
VERTEX
  5
A1
  8
LAYER_1
 10
87.26075142242179
 20
43.89558758021698
 30
0.0
  0
VERTEX
  5
A2
  8
LAYER_1
 10
87.26075142242179
 20
46.89558758021698
 30
0.0
  0
VERTEX
  5
A3
  8
LAYER_1
 10
68.76075142242216
 20
46.89558758021698
 30
0.0
  0
SEQEND
  5
3F7
  8
LAYER_1
  0
POLYLINE
  5
76
  8
LAYER_1
 66
     1
 10
0.0
 20
0.0
 30
0.0
 70
     1
  0
VERTEX
  5
A4
  8
LAYER_1
 10
46.4273457356448
 20
39.5509604595778
 30
0.0
  0
VERTEX
  5
A5
  8
LAYER_1
 10
66.42734573564525
 20
39.5509604595778
 30
0.0
  0
VERTEX
  5
A6
  8
LAYER_1
 10
66.42734573564525
 20
42.5509604595778
 30
0.0
  0
VERTEX
  5
A7
  8
LAYER_1
 10
46.4273457356448
 20
42.5509604595778
 30
0.0
  0
SEQEND
  5
3F8
  8
LAYER_1
  0
POLYLINE
  5
77
  8
LAYER_1
 66
     1
 10
0.0
 20
0.0
 30
0.0
 70
     1
  0
VERTEX
  5
A8
  8
LAYER_1
 10
1.880790961315655
 20
27.02980225967109
 30
0.0
  0
VERTEX
  5
A9
  8
LAYER_1
 10
21.88079096131567
 20
27.02980225967109
 30
0.0
  0
VERTEX
  5
AA
  8
LAYER_1
 10
21.88079096131567
 20
47.02980225967109
 30
0.0
  0
VERTEX
  5
AB
  8
LAYER_1
 10
1.880790961315655
 20
47.02980225967109
 30
0.0
  0
SEQEND
  5
3F9
  8
LAYER_1
  0
POLYLINE
  5
78
  8
LAYER_1
 66
     1
 10
0.0
 20
0.0
 30
0.0
 70
     1
  0
VERTEX
  5
AC
  8
LAYER_1
 10
23.79138418230239
 20
27.02980225967109
 30
0.0
  0
VERTEX
  5
AD
  8
LAYER_1
 10
43.79138418230239
 20
27.02980225967109
 30
0.0
  0
VERTEX
  5
AE
  8
LAYER_1
 10
43.79138418230239
 20
47.02980225967109
 30
0.0
  0
VERTEX
  5
AF
  8
LAYER_1
 10
23.79138418230239
 20
47.02980225967109
 30
0.0
  0
SEQEND
  5
3FA
  8
LAYER_1
  0
POLYLINE
  5
79
  8
LAYER_1
 66
     1
 10
0.0
 20
0.0
 30
0.0
 70
     1
  0
VERTEX
  5
B0
  8
LAYER_1
 10
46.42217514361805
 20
43.78446893449091
 30
0.0
  0
VERTEX
  5
B1
  8
LAYER_1
 10
66.42217514361805
 20
43.78446893449091
 30
0.0
  0
VERTEX
  5
B2
  8
LAYER_1
 10
66.42217514361805
 20
46.78446893449091
 30
0.0
  0
VERTEX
  5
B3
  8
LAYER_1
 10
46.42217514361805
 20
46.78446893449091
 30
0.0
  0
SEQEND
  5
3FB
  8
LAYER_1
  0
POLYLINE
  5
7A
  8
LAYER_1
 66
     1
 10
0.0
 20
0.0
 30
0.0
 70
     1
  0
VERTEX
  5
B4
  8
LAYER_1
 10
-0.000000000000199
 20
1.410593220986739
 30
0.0
  0
VERTEX
  5
B5
  8
LAYER_1
 10
96.0000000000002
 20
1.410593220986739
 30
0.0
  0
VERTEX
  5
B6
  8
LAYER_1
 10
96.0000000000002
 20
14.91059322098674
 30
0.0
  0
VERTEX
  5
B7
  8
LAYER_1
 10
-0.000000000000199
 20
14.91059322098674
 30
0.0
  0
SEQEND
  5
3FC
  8
LAYER_1
  0
POLYLINE
  5
7B
  8
LAYER_1
 66
     1
 10
0.0
 20
0.0
 30
0.0
 70
     1
  0
VERTEX
  5
B8
  8
LAYER_1
 10
1.499990295628671
 20
4.159711094499867
 30
0.0
  0
VERTEX
  5
B9
  8
LAYER_1
 10
1.49992954631553
 20
11.97918236974618
 30
0.0
  0
VERTEX
  5
BA
  8
LAYER_1
 10
1.501769011960665
 20
12.01466082196771
 30
0.0
  0
VERTEX
  5
BB
  8
LAYER_1
 10
1.504425654721494
 20
12.04991365643593
 30
0.0
  0
VERTEX
  5
BC
  8
LAYER_1
 10
1.507890138960985
 20
12.0849316478076
 30
0.0
  0
VERTEX
  5
BD
  8
LAYER_1
 10
1.512153129042108
 20
12.11970557073951
 30
0.0
  0
VERTEX
  5
BE
  8
LAYER_1
 10
1.51720528932783
 20
12.15422619988841
 30
0.0
  0
VERTEX
  5
BF
  8
LAYER_1
 10
1.523037284181122
 20
12.18848430991109
 30
0.0
  0
VERTEX
  5
C0
  8
LAYER_1
 10
1.529639777964952
 20
12.22247067546432
 30
0.0
  0
VERTEX
  5
C1
  8
LAYER_1
 10
1.537003435042289
 20
12.25617607120486
 30
0.0
  0
VERTEX
  5
C2
  8
LAYER_1
 10
1.545118919776102
 20
12.2895912717895
 30
0.0
  0
VERTEX
  5
C3
  8
LAYER_1
 10
1.553976896529359
 20
12.32270705187499
 30
0.0
  0
VERTEX
  5
C4
  8
LAYER_1
 10
1.56356802966503
 20
12.35551418611812
 30
0.0
  0
VERTEX
  5
C5
  8
LAYER_1
 10
1.573882983546083
 20
12.38800344917565
 30
0.0
  0
VERTEX
  5
C6
  8
LAYER_1
 10
1.584912422535488
 20
12.42016561570436
 30
0.0
  0
VERTEX
  5
C7
  8
LAYER_1
 10
1.596647010996213
 20
12.45199146036101
 30
0.0
  0
VERTEX
  5
C8
  8
LAYER_1
 10
1.609077413291226
 20
12.48347175780239
 30
0.0
  0
VERTEX
  5
C9
  8
LAYER_1
 10
1.622194293783498
 20
12.51459728268526
 30
0.0
  0
VERTEX
  5
CA
  8
LAYER_1
 10
1.635988316835996
 20
12.5453588096664
 30
0.0
  0
VERTEX
  5
CB
  8
LAYER_1
 10
1.650450146811691
 20
12.57574711340257
 30
0.0
  0
VERTEX
  5
CC
  8
LAYER_1
 10
1.665570448073549
 20
12.60575296855055
 30
0.0
  0
VERTEX
  5
CD
  8
LAYER_1
 10
1.681339884984541
 20
12.6353671497671
 30
0.0
  0
VERTEX
  5
CE
  8
LAYER_1
 10
1.697749121907636
 20
12.66458043170901
 30
0.0
  0
VERTEX
  5
CF
  8
LAYER_1
 10
1.714788823205801
 20
12.69338358903305
 30
0.0
  0
VERTEX
  5
D0
  8
LAYER_1
 10
1.732449653242007
 20
12.72176739639598
 30
0.0
  0
VERTEX
  5
D1
  8
LAYER_1
 10
1.750722276379221
 20
12.74972262845457
 30
0.0
  0
VERTEX
  5
D2
  8
LAYER_1
 10
1.769597356980414
 20
12.77724005986561
 30
0.0
  0
VERTEX
  5
D3
  8
LAYER_1
 10
1.789065559408553
 20
12.80431046528586
 30
0.0
  0
VERTEX
  5
D4
  8
LAYER_1
 10
1.809117548026607
 20
12.83092461937208
 30
0.0
  0
VERTEX
  5
D5
  8
LAYER_1
 10
1.829743987197546
 20
12.85707329678107
 30
0.0
  0
VERTEX
  5
D6
  8
LAYER_1
 10
1.850935541284339
 20
12.88274727216958
 30
0.0
  0
VERTEX
  5
D7
  8
LAYER_1
 10
1.872682874649953
 20
12.90793732019439
 30
0.0
  0
VERTEX
  5
D8
  8
LAYER_1
 10
1.894976651657359
 20
12.93263421551227
 30
0.0
  0
VERTEX
  5
D9
  8
LAYER_1
 10
1.917807536669524
 20
12.95682873277999
 30
0.0
  0
VERTEX
  5
DA
  8
LAYER_1
 10
1.941166194049418
 20
12.98051164665433
 30
0.0
  0
VERTEX
  5
DB
  8
LAYER_1
 10
1.96504328816001
 20
13.00367373179205
 30
0.0
  0
VERTEX
  5
DC
  8
LAYER_1
 10
1.989429483364268
 20
13.02630576284993
 30
0.0
  0
VERTEX
  5
DD
  8
LAYER_1
 10
2.014315444025162
 20
13.04839851448474
 30
0.0
  0
VERTEX
  5
DE
  8
LAYER_1
 10
2.03969183450566
 20
13.06994276135325
 30
0.0
  0
VERTEX
  5
DF
  8
LAYER_1
 10
2.065549319168731
 20
13.09092927811224
 30
0.0
  0
VERTEX
  5
E0
  8
LAYER_1
 10
2.091878562377344
 20
13.11134883941847
 30
0.0
  0
VERTEX
  5
E1
  8
LAYER_1
 10
2.118670228494469
 20
13.13119221992872
 30
0.0
  0
VERTEX
  5
E2
  8
LAYER_1
 10
2.145914981883073
 20
13.15045019429975
 30
0.0
  0
VERTEX
  5
E3
  8
LAYER_1
 10
2.173603486906126
 20
13.16911353718835
 30
0.0
  0
VERTEX
  5
E4
  8
LAYER_1
 10
2.201726407926596
 20
13.18717302325128
 30
0.0
  0
VERTEX
  5
E5
  8
LAYER_1
 10
2.230274409307452
 20
13.20461942714532
 30
0.0
  0
VERTEX
  5
E6
  8
LAYER_1
 10
2.259238155411665
 20
13.22144352352723
 30
0.0
  0
VERTEX
  5
E7
  8
LAYER_1
 10
2.288608310602201
 20
13.23763608705379
 30
0.0
  0
VERTEX
  5
E8
  8
LAYER_1
 10
2.31837553924203
 20
13.25318789238177
 30
0.0
  0
VERTEX
  5
E9
  8
LAYER_1
 10
2.348530505694121
 20
13.26808971416795
 30
0.0
  0
VERTEX
  5
EA
  8
LAYER_1
 10
2.379063874321444
 20
13.28233232706909
 30
0.0
  0
VERTEX
  5
EB
  8
LAYER_1
 10
2.409966309486965
 20
13.29590650574196
 30
0.0
  0
VERTEX
  5
EC
  8
LAYER_1
 10
2.441228475553656
 20
13.30880302484334
 30
0.0
  0
VERTEX
  5
ED
  8
LAYER_1
 10
2.472841036884484
 20
13.32101265903001
 30
0.0
  0
VERTEX
  5
EE
  8
LAYER_1
 10
2.504794657842417
 20
13.33252618295872
 30
0.0
  0
VERTEX
  5
EF
  8
LAYER_1
 10
2.537080002790427
 20
13.34333437128626
 30
0.0
  0
VERTEX
  5
F0
  8
LAYER_1
 10
2.56968773609148
 20
13.35342799866939
 30
0.0
  0
VERTEX
  5
F1
  8
LAYER_1
 10
2.602608522108546
 20
13.36279783976489
 30
0.0
  0
VERTEX
  5
F2
  8
LAYER_1
 10
2.635833025204594
 20
13.37143466922953
 30
0.0
  0
VERTEX
  5
F3
  8
LAYER_1
 10
2.669351909742593
 20
13.37932926172008
 30
0.0
  0
VERTEX
  5
F4
  8
LAYER_1
 10
2.703155840085511
 20
13.38647239189331
 30
0.0
  0
VERTEX
  5
F5
  8
LAYER_1
 10
2.737235480596317
 20
13.392854834406
 30
0.0
  0
VERTEX
  5
F6
  8
LAYER_1
 10
2.771581495637982
 20
13.39846736391492
 30
0.0
  0
VERTEX
  5
F7
  8
LAYER_1
 10
2.806184549573472
 20
13.40330075507683
 30
0.0
  0
VERTEX
  5
F8
  8
LAYER_1
 10
2.841035306765757
 20
13.40734578254851
 30
0.0
  0
VERTEX
  5
F9
  8
LAYER_1
 10
2.876124431577806
 20
13.41059322098674
 30
0.0
  0
VERTEX
  5
FA
  8
LAYER_1
 10
93.12742729488218
 20
13.41059322098674
 30
0.0
  0
VERTEX
  5
FB
  8
LAYER_1
 10
93.12737829114496
 20
13.41059322098674
 30
0.0
  0
VERTEX
  5
FC
  8
LAYER_1
 10
93.1625167072695
 20
13.40724611045703
 30
0.0
  0
VERTEX
  5
FD
  8
LAYER_1
 10
93.19741156492871
 20
13.40309953259082
 30
0.0
  0
VERTEX
  5
FE
  8
LAYER_1
 10
93.2320536181775
 20
13.39816283414542
 30
0.0
  0
VERTEX
  5
FF
  8
LAYER_1
 10
93.26643362107073
 20
13.3924453618781
 30
0.0
  0
VERTEX
  5
100
  8
LAYER_1
 10
93.30054232766332
 20
13.38595646254617
 30
0.0
  0
VERTEX
  5
101
  8
LAYER_1
 10
93.33437049201012
 20
13.37870548290691
 30
0.0
  0
VERTEX
  5
102
  8
LAYER_1
 10
93.36790886816607
 20
13.3707017697176
 30
0.0
  0
VERTEX
  5
103
  8
LAYER_1
 10
93.40114821018605
 20
13.36195466973554
 30
0.0
  0
VERTEX
  5
104
  8
LAYER_1
 10
93.43407927212493
 20
13.35247352971803
 30
0.0
  0
VERTEX
  5
105
  8
LAYER_1
 10
93.4666928080376
 20
13.34226769642234
 30
0.0
  0
VERTEX
  5
106
  8
LAYER_1
 10
93.49897957197899
 20
13.33134651660577
 30
0.0
  0
VERTEX
  5
107
  8
LAYER_1
 10
93.53093031800395
 20
13.3197193370256
 30
0.0
  0
VERTEX
  5
108
  8
LAYER_1
 10
93.56253580016738
 20
13.30739550443914
 30
0.0
  0
VERTEX
  5
109
  8
LAYER_1
 10
93.59378677252417
 20
13.29438436560366
 30
0.0
  0
VERTEX
  5
10A
  8
LAYER_1
 10
93.62467398912923
 20
13.28069526727646
 30
0.0
  0
VERTEX
  5
10B
  8
LAYER_1
 10
93.65518820403746
 20
13.26633755621482
 30
0.0
  0
VERTEX
  5
10C
  8
LAYER_1
 10
93.68532017130372
 20
13.25132057917604
 30
0.0
  0
VERTEX
  5
10D
  8
LAYER_1
 10
93.71506064498288
 20
13.23565368291741
 30
0.0
  0
VERTEX
  5
10E
  8
LAYER_1
 10
93.7444003791299
 20
13.21934621419622
 30
0.0
  0
VERTEX
  5
10F
  8
LAYER_1
 10
93.7733301277996
 20
13.20240751976975
 30
0.0
  0
VERTEX
  5
110
  8
LAYER_1
 10
93.80184064504692
 20
13.1848469463953
 30
0.0
  0
VERTEX
  5
111
  8
LAYER_1
 10
93.82992268492673
 20
13.16667384083015
 30
0.0
  0
VERTEX
  5
112
  8
LAYER_1
 10
93.85756700149393
 20
13.1478975498316
 30
0.0
  0
VERTEX
  5
113
  8
LAYER_1
 10
93.88476434880342
 20
13.12852742015693
 30
0.0
  0
VERTEX
  5
114
  8
LAYER_1
 10
93.91150548091007
 20
13.10857279856344
 30
0.0
  0
VERTEX
  5
115
  8
LAYER_1
 10
93.93778115186878
 20
13.08804303180841
 30
0.0
  0
VERTEX
  5
116
  8
LAYER_1
 10
93.96358211573443
 20
13.06694746664913
 30
0.0
  0
VERTEX
  5
117
  8
LAYER_1
 10
93.98889912656193
 20
13.0452954498429
 30
0.0
  0
VERTEX
  5
118
  8
LAYER_1
 10
94.01372293840618
 20
13.02309632814701
 30
0.0
  0
VERTEX
  5
119
  8
LAYER_1
 10
94.03804430532203
 20
13.00035944831873
 30
0.0
  0
VERTEX
  5
11A
  8
LAYER_1
 10
94.06185398136441
 20
12.97709415711537
 30
0.0
  0
VERTEX
  5
11B
  8
LAYER_1
 10
94.08514272058818
 20
12.95330980129421
 30
0.0
  0
VERTEX
  5
11C
  8
LAYER_1
 10
94.10790127704826
 20
12.92901572761255
 30
0.0
  0
VERTEX
  5
11D
  8
LAYER_1
 10
94.13012040479953
 20
12.90422128282767
 30
0.0
  0
VERTEX
  5
11E
  8
LAYER_1
 10
94.15179085789686
 20
12.87893581369686
 30
0.0
  0
VERTEX
  5
11F
  8
LAYER_1
 10
94.17290339039518
 20
12.85316866697741
 30
0.0
  0
VERTEX
  5
120
  8
LAYER_1
 10
94.19344875634937
 20
12.82692918942661
 30
0.0
  0
VERTEX
  5
121
  8
LAYER_1
 10
94.21341770981431
 20
12.80022672780176
 30
0.0
  0
VERTEX
  5
122
  8
LAYER_1
 10
94.23280100484487
 20
12.77307062886013
 30
0.0
  0
VERTEX
  5
123
  8
LAYER_1
 10
94.25158939549598
 20
12.74547023935903
 30
0.0
  0
VERTEX
  5
124
  8
LAYER_1
 10
94.26977363582253
 20
12.71743490605574
 30
0.0
  0
VERTEX
  5
125
  8
LAYER_1
 10
94.28734447987938
 20
12.68897397570754
 30
0.0
  0
VERTEX
  5
126
  8
LAYER_1
 10
94.30429268172142
 20
12.66009679507174
 30
0.0
  0
VERTEX
  5
127
  8
LAYER_1
 10
94.32060899540359
 20
12.63081271090562
 30
0.0
  0
VERTEX
  5
128
  8
LAYER_1
 10
94.33628417498073
 20
12.60113106996647
 30
0.0
  0
VERTEX
  5
129
  8
LAYER_1
 10
94.35130897450777
 20
12.57106121901158
 30
0.0
  0
VERTEX
  5
12A
  8
LAYER_1
 10
94.36567414803957
 20
12.54061250479823
 30
0.0
  0
VERTEX
  5
12B
  8
LAYER_1
 10
94.37937044963104
 20
12.50979427408373
 30
0.0
  0
VERTEX
  5
12C
  8
LAYER_1
 10
94.39238863333708
 20
12.47861587362535
 30
0.0
  0
VERTEX
  5
12D
  8
LAYER_1
 10
94.40471945321254
 20
12.44708665018039
 30
0.0
  0
VERTEX
  5
12E
  8
LAYER_1
 10
94.41635366331235
 20
12.41521595050614
 30
0.0
  0
VERTEX
  5
12F
  8
LAYER_1
 10
94.42728201769138
 20
12.38301312135989
 30
0.0
  0
VERTEX
  5
130
  8
LAYER_1
 10
94.43749527040455
 20
12.35048750949893
 30
0.0
  0
VERTEX
  5
131
  8
LAYER_1
 10
94.44698417550671
 20
12.31764846168054
 30
0.0
  0
VERTEX
  5
132
  8
LAYER_1
 10
94.45573948705277
 20
12.28450532466202
 30
0.0
  0
VERTEX
  5
133
  8
LAYER_1
 10
94.46375195909764
 20
12.25106744520066
 30
0.0
  0
VERTEX
  5
134
  8
LAYER_1
 10
94.47101234569618
 20
12.21734417005374
 30
0.0
  0
VERTEX
  5
135
  8
LAYER_1
 10
94.4775114009033
 20
12.18334484597856
 30
0.0
  0
VERTEX
  5
136
  8
LAYER_1
 10
94.4832398787739
 20
12.14907881973241
 30
0.0
  0
VERTEX
  5
137
  8
LAYER_1
 10
94.48818853336283
 20
12.11455543807257
 30
0.0
  0
VERTEX
  5
138
  8
LAYER_1
 10
94.49234811872503
 20
12.07978404775634
 30
0.0
  0
VERTEX
  5
139
  8
LAYER_1
 10
94.49570938891534
 20
12.044773995541
 30
0.0
  0
VERTEX
  5
13A
  8
LAYER_1
 10
94.49826309798871
 20
12.00953462818385
 30
0.0
  0
VERTEX
  5
13B
  8
LAYER_1
 10
94.5
 20
11.97407529244217
 30
0.0
  0
VERTEX
  5
13C
  8
LAYER_1
 10
94.50000000274045
 20
11.97412670679936
 30
0.0
  0
VERTEX
  5
13D
  8
LAYER_1
 10
94.5
 20
11.97407587640366
 30
0.0
  0
VERTEX
  5
13E
  8
LAYER_1
 10
94.5
 20
4.189708358336745
 30
0.0
  0
VERTEX
  5
13F
  8
LAYER_1
 10
94.50024463378969
 20
4.189677413584003
 30
0.0
  0
VERTEX
  5
140
  8
LAYER_1
 10
94.50047305501664
 20
4.189647576299343
 30
0.0
  0
VERTEX
  5
141
  8
LAYER_1
 10
94.49589576201294
 20
4.158701164175099
 30
0.0
  0
VERTEX
  5
142
  8
LAYER_1
 10
94.49069173969728
 20
4.127963411928613
 30
0.0
  0
VERTEX
  5
143
  8
LAYER_1
 10
94.4848677170006
 20
4.097441048490809
 30
0.0
  0
VERTEX
  5
144
  8
LAYER_1
 10
94.47843042285378
 20
4.067140802792604
 30
0.0
  0
VERTEX
  5
145
  8
LAYER_1
 10
94.47138658618776
 20
4.037069403764922
 30
0.0
  0
VERTEX
  5
146
  8
LAYER_1
 10
94.4637429359335
 20
4.007233580338684
 30
0.0
  0
VERTEX
  5
147
  8
LAYER_1
 10
94.45550620102188
 20
3.977640061444811
 30
0.0
  0
VERTEX
  5
148
  8
LAYER_1
 10
94.44668311038382
 20
3.948295576014224
 30
0.0
  0
VERTEX
  5
149
  8
LAYER_1
 10
94.43728039295026
 20
3.919206852977843
 30
0.0
  0
VERTEX
  5
14A
  8
LAYER_1
 10
94.4273047776521
 20
3.890380621266591
 30
0.0
  0
VERTEX
  5
14B
  8
LAYER_1
 10
94.41676299342026
 20
3.861823609811389
 30
0.0
  0
VERTEX
  5
14C
  8
LAYER_1
 10
94.40566176918571
 20
3.833542547543158
 30
0.0
  0
VERTEX
  5
14D
  8
LAYER_1
 10
94.39400783387933
 20
3.805544163392818
 30
0.0
  0
VERTEX
  5
14E
  8
LAYER_1
 10
94.38180791643205
 20
3.777835186291291
 30
0.0
  0
VERTEX
  5
14F
  8
LAYER_1
 10
94.36906874577477
 20
3.750422345169499
 30
0.0
  0
VERTEX
  5
150
  8
LAYER_1
 10
94.35579705083845
 20
3.723312368958362
 30
0.0
  0
VERTEX
  5
151
  8
LAYER_1
 10
94.34199956055399
 20
3.696511986588801
 30
0.0
  0
VERTEX
  5
152
  8
LAYER_1
 10
94.3276830038523
 20
3.670027926991739
 30
0.0
  0
VERTEX
  5
153
  8
LAYER_1
 10
94.31285410966433
 20
3.643866919098095
 30
0.0
  0
VERTEX
  5
154
  8
LAYER_1
 10
94.29751960692096
 20
3.618035691838792
 30
0.0
  0
VERTEX
  5
155
  8
LAYER_1
 10
94.28168622455316
 20
3.592540974144751
 30
0.0
  0
VERTEX
  5
156
  8
LAYER_1
 10
94.26536069149181
 20
3.567389494946891
 30
0.0
  0
VERTEX
  5
157
  8
LAYER_1
 10
94.24854973666785
 20
3.542587983176136
 30
0.0
  0
VERTEX
  5
158
  8
LAYER_1
 10
94.23126008901221
 20
3.518143167763405
 30
0.0
  0
VERTEX
  5
159
  8
LAYER_1
 10
94.2134984774558
 20
3.494061777639621
 30
0.0
  0
VERTEX
  5
15A
  8
LAYER_1
 10
94.19527163092953
 20
3.470350541735704
 30
0.0
  0
VERTEX
  5
15B
  8
LAYER_1
 10
94.17658627836434
 20
3.447016188982575
 30
0.0
  0
VERTEX
  5
15C
  8
LAYER_1
 10
94.15744914869114
 20
3.424065448311156
 30
0.0
  0
VERTEX
  5
15D
  8
LAYER_1
 10
94.13786697084086
 20
3.401505048652368
 30
0.0
  0
VERTEX
  5
15E
  8
LAYER_1
 10
94.11784647374441
 20
3.379341718937132
 30
0.0
  0
VERTEX
  5
15F
  8
LAYER_1
 10
94.09739438633272
 20
3.357582188096369
 30
0.0
  0
VERTEX
  5
160
  8
LAYER_1
 10
94.07651743753671
 20
3.336233185061001
 30
0.0
  0
VERTEX
  5
161
  8
LAYER_1
 10
94.05522235628729
 20
3.315301438761948
 30
0.0
  0
VERTEX
  5
162
  8
LAYER_1
 10
94.0335158715154
 20
3.294793678130132
 30
0.0
  0
VERTEX
  5
163
  8
LAYER_1
 10
94.01140471215196
 20
3.274716632096474
 30
0.0
  0
VERTEX
  5
164
  8
LAYER_1
 10
93.98889560712787
 20
3.255077029591895
 30
0.0
  0
VERTEX
  5
165
  8
LAYER_1
 10
93.96599528537408
 20
3.235881599547317
 30
0.0
  0
VERTEX
  5
166
  8
LAYER_1
 10
93.94271047582149
 20
3.21713707089366
 30
0.0
  0
VERTEX
  5
167
  8
LAYER_1
 10
93.91904790740101
 20
3.198850172561846
 30
0.0
  0
VERTEX
  5
168
  8
LAYER_1
 10
93.8950143090436
 20
3.181027633482796
 30
0.0
  0
VERTEX
  5
169
  8
LAYER_1
 10
93.87061640968017
 20
3.163676182587431
 30
0.0
  0
VERTEX
  5
16A
  8
LAYER_1
 10
93.84586093824161
 20
3.146802548806672
 30
0.0
  0
VERTEX
  5
16B
  8
LAYER_1
 10
93.82075462365887
 20
3.130413461071441
 30
0.0
  0
VERTEX
  5
16C
  8
LAYER_1
 10
93.79530419486287
 20
3.114515648312659
 30
0.0
  0
VERTEX
  5
16D
  8
LAYER_1
 10
93.76951638078452
 20
3.099115839461247
 30
0.0
  0
VERTEX
  5
16E
  8
LAYER_1
 10
93.74339791035473
 20
3.084220763448125
 30
0.0
  0
VERTEX
  5
16F
  8
LAYER_1
 10
93.71695551250444
 20
3.069837149204215
 30
0.0
  0
VERTEX
  5
170
  8
LAYER_1
 10
93.69019591616457
 20
3.055971725660439
 30
0.0
  0
VERTEX
  5
171
  8
LAYER_1
 10
93.66312585026603
 20
3.042631221747718
 30
0.0
  0
VERTEX
  5
172
  8
LAYER_1
 10
93.63575204373976
 20
3.029822366396972
 30
0.0
  0
VERTEX
  5
173
  8
LAYER_1
 10
93.60808122551668
 20
3.017551888539123
 30
0.0
  0
VERTEX
  5
174
  8
LAYER_1
 10
93.5801201245277
 20
3.005826517105093
 30
0.0
  0
VERTEX
  5
175
  8
LAYER_1
 10
93.55187546970375
 20
2.994652981025803
 30
0.0
  0
VERTEX
  5
176
  8
LAYER_1
 10
93.52335398997573
 20
2.984038009232172
 30
0.0
  0
VERTEX
  5
177
  8
LAYER_1
 10
93.49456241427458
 20
2.973988330655124
 30
0.0
  0
VERTEX
  5
178
  8
LAYER_1
 10
93.46550747153123
 20
2.964510674225577
 30
0.0
  0
VERTEX
  5
179
  8
LAYER_1
 10
93.43619589067657
 20
2.955611768874455
 30
0.0
  0
VERTEX
  5
17A
  8
LAYER_1
 10
93.40663440064156
 20
2.947298343532679
 30
0.0
  0
VERTEX
  5
17B
  8
LAYER_1
 10
93.37682973035709
 20
2.939577127131169
 30
0.0
  0
VERTEX
  5
17C
  8
LAYER_1
 10
93.34678860875408
 20
2.932454848600846
 30
0.0
  0
VERTEX
  5
17D
  8
LAYER_1
 10
93.31651776476347
 20
2.925938236872633
 30
0.0
  0
VERTEX
  5
17E
  8
LAYER_1
 10
93.2860239273162
 20
2.920034020877449
 30
0.0
  0
VERTEX
  5
17F
  8
LAYER_1
 10
93.25531382534312
 20
2.914748929546217
 30
0.0
  0
VERTEX
  5
180
  8
LAYER_1
 10
93.22439418777523
 20
2.910089691809857
 30
0.0
  0
VERTEX
  5
181
  8
LAYER_1
 10
93.22435954691238
 20
2.910332643560585
 30
0.0
  0
VERTEX
  5
182
  8
LAYER_1
 10
93.22432367796908
 20
2.91059322098674
 30
0.0
  0
VERTEX
  5
183
  8
LAYER_1
 10
2.748363483073978
 20
2.91059322098674
 30
0.0
  0
VERTEX
  5
184
  8
LAYER_1
 10
2.748284480516134
 20
2.9105976368546
 30
0.0
  0
VERTEX
  5
185
  8
LAYER_1
 10
2.718296383922421
 20
2.9155934140031
 30
0.0
  0
VERTEX
  5
186
  8
LAYER_1
 10
2.688512069072052
 20
2.921178512505019
 30
0.0
  0
VERTEX
  5
187
  8
LAYER_1
 10
2.658937767847299
 20
2.927346721674757
 30
0.0
  0
VERTEX
  5
188
  8
LAYER_1
 10
2.629579712130436
 20
2.934091830826715
 30
0.0
  0
VERTEX
  5
189
  8
LAYER_1
 10
2.600444133803736
 20
2.941407629275293
 30
0.0
  0
VERTEX
  5
18A
  8
LAYER_1
 10
2.571537264749472
 20
2.94928790633489
 30
0.0
  0
VERTEX
  5
18B
  8
LAYER_1
 10
2.542865336849917
 20
2.957726451319906
 30
0.0
  0
VERTEX
  5
18C
  8
LAYER_1
 10
2.514434581987344
 20
2.966717053544741
 30
0.0
  0
VERTEX
  5
18D
  8
LAYER_1
 10
2.486251232044026
 20
2.976253502323796
 30
0.0
  0
VERTEX
  5
18E
  8
LAYER_1
 10
2.458321518902236
 20
2.986329586971469
 30
0.0
  0
VERTEX
  5
18F
  8
LAYER_1
 10
2.430651674444248
 20
2.996939096802162
 30
0.0
  0
VERTEX
  5
190
  8
LAYER_1
 10
2.403247930552334
 20
3.008075821130274
 30
0.0
  0
VERTEX
  5
191
  8
LAYER_1
 10
2.376116519108768
 20
3.019733549270205
 30
0.0
  0
VERTEX
  5
192
  8
LAYER_1
 10
2.349263671995821
 20
3.031906070536355
 30
0.0
  0
VERTEX
  5
193
  8
LAYER_1
 10
2.322695621095769
 20
3.044587174243123
 30
0.0
  0
VERTEX
  5
194
  8
LAYER_1
 10
2.296418598290882
 20
3.057770649704911
 30
0.0
  0
VERTEX
  5
195
  8
LAYER_1
 10
2.270438835463436
 20
3.071450286236117
 30
0.0
  0
VERTEX
  5
196
  8
LAYER_1
 10
2.244762564495701
 20
3.085619873151142
 30
0.0
  0
VERTEX
  5
197
  8
LAYER_1
 10
2.219396017269954
 20
3.100273199764386
 30
0.0
  0
VERTEX
  5
198
  8
LAYER_1
 10
2.194345425668464
 20
3.115404055390249
 30
0.0
  0
VERTEX
  5
199
  8
LAYER_1
 10
2.169617021573506
 20
3.13100622934313
 30
0.0
  0
VERTEX
  5
19A
  8
LAYER_1
 10
2.145217036867353
 20
3.147073510937429
 30
0.0
  0
VERTEX
  5
19B
  8
LAYER_1
 10
2.121151703432279
 20
3.163599689487547
 30
0.0
  0
VERTEX
  5
19C
  8
LAYER_1
 10
2.097427253150555
 20
3.180578554307883
 30
0.0
  0
VERTEX
  5
19D
  8
LAYER_1
 10
2.074049917904455
 20
3.198003894712838
 30
0.0
  0
VERTEX
  5
19E
  8
LAYER_1
 10
2.051025929576253
 20
3.215869500016811
 30
0.0
  0
VERTEX
  5
19F
  8
LAYER_1
 10
2.028361520048221
 20
3.234169159534202
 30
0.0
  0
VERTEX
  5
1A0
  8
LAYER_1
 10
2.006062921202632
 20
3.252896662579412
 30
0.0
  0
VERTEX
  5
1A1
  8
LAYER_1
 10
1.984136364921759
 20
3.27204579846684
 30
0.0
  0
VERTEX
  5
1A2
  8
LAYER_1
 10
1.962588083087877
 20
3.291610356510885
 30
0.0
  0
VERTEX
  5
1A3
  8
LAYER_1
 10
1.941424307583256
 20
3.311584126025949
 30
0.0
  0
VERTEX
  5
1A4
  8
LAYER_1
 10
1.920651270290171
 20
3.331960896326431
 30
0.0
  0
VERTEX
  5
1A5
  8
LAYER_1
 10
1.900275203090894
 20
3.352734456726731
 30
0.0
  0
VERTEX
  5
1A6
  8
LAYER_1
 10
1.8803023378677
 20
3.373898596541249
 30
0.0
  0
VERTEX
  5
1A7
  8
LAYER_1
 10
1.86073890650286
 20
3.395447105084385
 30
0.0
  0
VERTEX
  5
1A8
  8
LAYER_1
 10
1.841591140878648
 20
3.417373771670538
 30
0.0
  0
VERTEX
  5
1A9
  8
LAYER_1
 10
1.822865272877336
 20
3.439672385614109
 30
0.0
  0
VERTEX
  5
1AA
  8
LAYER_1
 10
1.804567534381198
 20
3.462336736229498
 30
0.0
  0
VERTEX
  5
1AB
  8
LAYER_1
 10
1.786704157272508
 20
3.485360612831105
 30
0.0
  0
VERTEX
  5
1AC
  8
LAYER_1
 10
1.769281373433537
 20
3.508737804733329
 30
0.0
  0
VERTEX
  5
1AD
  8
LAYER_1
 10
1.75230541474656
 20
3.532462101250571
 30
0.0
  0
VERTEX
  5
1AE
  8
LAYER_1
 10
1.735782513093849
 20
3.55652729169723
 30
0.0
  0
VERTEX
  5
1AF
  8
LAYER_1
 10
1.719718900357676
 20
3.580927165387706
 30
0.0
  0
VERTEX
  5
1B0
  8
LAYER_1
 10
1.704120808420317
 20
3.6056555116364
 30
0.0
  0
VERTEX
  5
1B1
  8
LAYER_1
 10
1.688994469164042
 20
3.630706119757711
 30
0.0
  0
VERTEX
  5
1B2
  8
LAYER_1
 10
1.674346114471126
 20
3.65607277906604
 30
0.0
  0
VERTEX
  5
1B3
  8
LAYER_1
 10
1.660181976223842
 20
3.681749278875786
 30
0.0
  0
VERTEX
  5
1B4
  8
LAYER_1
 10
1.646508286304462
 20
3.707729408501349
 30
0.0
  0
VERTEX
  5
1B5
  8
LAYER_1
 10
1.633331276595259
 20
3.734006957257129
 30
0.0
  0
VERTEX
  5
1B6
  8
LAYER_1
 10
1.620657178978508
 20
3.760575714457526
 30
0.0
  0
VERTEX
  5
1B7
  8
LAYER_1
 10
1.60849222533648
 20
3.78742946941694
 30
0.0
  0
VERTEX
  5
1B8
  8
LAYER_1
 10
1.596842647551448
 20
3.814562011449771
 30
0.0
  0
VERTEX
  5
1B9
  8
LAYER_1
 10
1.585714677505687
 20
3.841967129870419
 30
0.0
  0
VERTEX
  5
1BA
  8
LAYER_1
 10
1.575114547081468
 20
3.869638613993284
 30
0.0
  0
VERTEX
  5
1BB
  8
LAYER_1
 10
1.565048488161065
 20
3.897570253132765
 30
0.0
  0
VERTEX
  5
1BC
  8
LAYER_1
 10
1.555522732626752
 20
3.925755836603264
 30
0.0
  0
VERTEX
  5
1BD
  8
LAYER_1
 10
1.5465435123608
 20
3.954189153719179
 30
0.0
  0
VERTEX
  5
1BE
  8
LAYER_1
 10
1.538117059245484
 20
3.98286399379491
 30
0.0
  0
VERTEX
  5
1BF
  8
LAYER_1
 10
1.530249605163076
 20
4.011774146144859
 30
0.0
  0
VERTEX
  5
1C0
  8
LAYER_1
 10
1.522947381995849
 20
4.040913400083424
 30
0.0
  0
VERTEX
  5
1C1
  8
LAYER_1
 10
1.516216621626076
 20
4.070275544925005
 30
0.0
  0
VERTEX
  5
1C2
  8
LAYER_1
 10
1.510063555936032
 20
4.099854369984003
 30
0.0
  0
VERTEX
  5
1C3
  8
LAYER_1
 10
1.504494416807987
 20
4.129643664574817
 30
0.0
  0
VERTEX
  5
1C4
  8
LAYER_1
 10
1.499515436124216
 20
4.159637218011849
 30
0.0
  0
VERTEX
  5
1C5
  8
LAYER_1
 10
1.499743632712474
 20
4.159673442287563
 30
0.0
  0
SEQEND
  5
3FD
  8
LAYER_1
  0
POLYLINE
  5
7C
  8
LAYER_1
 66
     1
 10
0.0
 20
0.0
 30
0.0
 70
     1
  0
VERTEX
  5
1C6
  8
LAYER_1
 10
61.92189774032892
 20
27.65059774032892
 30
0.0
  0
VERTEX
  5
1C7
  8
LAYER_1
 10
93.42189774032892
 20
27.65059774032892
 30
0.0
  0
VERTEX
  5
1C8
  8
LAYER_1
 10
93.42189774032892
 20
37.65059774032891
 30
0.0
  0
VERTEX
  5
1C9
  8
LAYER_1
 10
61.92189774032892
 20
37.65059774032891
 30
0.0
  0
SEQEND
  5
3FE
  8
LAYER_1
  0
POLYLINE
  5
7D
  8
LAYER_1
 66
     1
 10
0.0
 20
0.0
 30
0.0
 70
     1
  0
VERTEX
  5
1CA
  8
LAYER_1
 10
57.78048190103373
 20
40.30070096252985
 30
0.0
  0
VERTEX
  5
1CB
  8
LAYER_1
 10
57.79776012546293
 20
40.30320912929662
 30
0.0
  0
VERTEX
  5
1CC
  8
LAYER_1
 10
57.81490986645323
 20
40.30610446213272
 30
0.0
  0
VERTEX
  5
1CD
  8
LAYER_1
 10
57.8319265282415
 20
40.30938236527497
 30
0.0
  0
VERTEX
  5
1CE
  8
LAYER_1
 10
57.84880551506452
 20
40.3130382429602
 30
0.0
  0
VERTEX
  5
1CF
  8
LAYER_1
 10
57.86554223115914
 20
40.31706749942524
 30
0.0
  0
VERTEX
  5
1D0
  8
LAYER_1
 10
57.88213208076218
 20
40.3214655389069
 30
0.0
  0
VERTEX
  5
1D1
  8
LAYER_1
 10
57.89857046811045
 20
40.32622776564202
 30
0.0
  0
VERTEX
  5
1D2
  8
LAYER_1
 10
57.9148527974408
 20
40.33134958386742
 30
0.0
  0
VERTEX
  5
1D3
  8
LAYER_1
 10
57.93097447299004
 20
40.33682639781993
 30
0.0
  0
VERTEX
  5
1D4
  8
LAYER_1
 10
57.94693089899501
 20
40.34265361173637
 30
0.0
  0
VERTEX
  5
1D5
  8
LAYER_1
 10
57.96271747969251
 20
40.34882662985356
 30
0.0
  0
VERTEX
  5
1D6
  8
LAYER_1
 10
57.97832961931938
 20
40.35534085640833
 30
0.0
  0
VERTEX
  5
1D7
  8
LAYER_1
 10
57.99376272211244
 20
40.36219169563751
 30
0.0
  0
VERTEX
  5
1D8
  8
LAYER_1
 10
58.00901219230853
 20
40.36937455177791
 30
0.0
  0
VERTEX
  5
1D9
  8
LAYER_1
 10
58.02407343414446
 20
40.37688482906637
 30
0.0
  0
VERTEX
  5
1DA
  8
LAYER_1
 10
58.03894185185705
 20
40.38471793173971
 30
0.0
  0
VERTEX
  5
1DB
  8
LAYER_1
 10
58.05361284968313
 20
40.39286926403476
 30
0.0
  0
VERTEX
  5
1DC
  8
LAYER_1
 10
58.06808183185954
 20
40.40133423018834
 30
0.0
  0
VERTEX
  5
1DD
  8
LAYER_1
 10
58.08234420262309
 20
40.41010823443727
 30
0.0
  0
VERTEX
  5
1DE
  8
LAYER_1
 10
58.09639536621061
 20
40.41918668101837
 30
0.0
  0
VERTEX
  5
1DF
  8
LAYER_1
 10
58.11023072685893
 20
40.42856497416849
 30
0.0
  0
VERTEX
  5
1E0
  8
LAYER_1
 10
58.12384568880486
 20
40.43823851812444
 30
0.0
  0
VERTEX
  5
1E1
  8
LAYER_1
 10
58.13723565628524
 20
40.44820271712305
 30
0.0
  0
VERTEX
  5
1E2
  8
LAYER_1
 10
58.15039603353689
 20
40.45845297540113
 30
0.0
  0
VERTEX
  5
1E3
  8
LAYER_1
 10
58.16332222479663
 20
40.46898469719552
 30
0.0
  0
VERTEX
  5
1E4
  8
LAYER_1
 10
58.17600963430129
 20
40.47979328674303
 30
0.0
  0
VERTEX
  5
1E5
  8
LAYER_1
 10
58.18845366628769
 20
40.4908741482805
 30
0.0
  0
VERTEX
  5
1E6
  8
LAYER_1
 10
58.20064972499266
 20
40.50222268604476
 30
0.0
  0
VERTEX
  5
1E7
  8
LAYER_1
 10
58.21259321465302
 20
40.51383430427262
 30
0.0
  0
VERTEX
  5
1E8
  8
LAYER_1
 10
58.2242795395056
 20
40.52570440720091
 30
0.0
  0
VERTEX
  5
1E9
  8
LAYER_1
 10
58.23570410378723
 20
40.53782839906646
 30
0.0
  0
VERTEX
  5
1EA
  8
LAYER_1
 10
58.24686231173473
 20
40.55020168410609
 30
0.0
  0
VERTEX
  5
1EB
  8
LAYER_1
 10
58.25774956758492
 20
40.56281966655662
 30
0.0
  0
VERTEX
  5
1EC
  8
LAYER_1
 10
58.26836127557463
 20
40.57567775065488
 30
0.0
  0
VERTEX
  5
1ED
  8
LAYER_1
 10
58.27869283994069
 20
40.58877134063771
 30
0.0
  0
VERTEX
  5
1EE
  8
LAYER_1
 10
58.28873966491991
 20
40.6020958407419
 30
0.0
  0
VERTEX
  5
1EF
  8
LAYER_1
 10
58.29849715474913
 20
40.61564665520432
 30
0.0
  0
VERTEX
  5
1F0
  8
LAYER_1
 10
58.30796071366516
 20
40.62941918826174
 30
0.0
  0
VERTEX
  5
1F1
  8
LAYER_1
 10
58.31712574590485
 20
40.64340884415103
 30
0.0
  0
VERTEX
  5
1F2
  8
LAYER_1
 10
58.32598765570499
 20
40.657611027109
 30
0.0
  0
VERTEX
  5
1F3
  8
LAYER_1
 10
58.33454184730243
 20
40.67202114137248
 30
0.0
  0
VERTEX
  5
1F4
  8
LAYER_1
 10
58.342783724934
 20
40.68663459117829
 30
0.0
  0
VERTEX
  5
1F5
  8
LAYER_1
 10
58.35070869283651
 20
40.70144678076325
 30
0.0
  0
VERTEX
  5
1F6
  8
LAYER_1
 10
58.35831215524679
 20
40.7164531143642
 30
0.0
  0
VERTEX
  5
1F7
  8
LAYER_1
 10
58.36558951640166
 20
40.73164899621796
 30
0.0
  0
VERTEX
  5
1F8
  8
LAYER_1
 10
58.37253618053795
 20
40.74702983056133
 30
0.0
  0
VERTEX
  5
1F9
  8
LAYER_1
 10
58.37914755189249
 20
40.76259102163117
 30
0.0
  0
VERTEX
  5
1FA
  8
LAYER_1
 10
58.3854190347021
 20
40.77832797366429
 30
0.0
  0
VERTEX
  5
1FB
  8
LAYER_1
 10
58.3913460332036
 20
40.79423609089751
 30
0.0
  0
VERTEX
  5
1FC
  8
LAYER_1
 10
58.39692395163382
 20
40.81031077756767
 30
0.0
  0
VERTEX
  5
1FD
  8
LAYER_1
 10
58.40214819422959
 20
40.82654743791159
 30
0.0
  0
VERTEX
  5
1FE
  8
LAYER_1
 10
58.40701416522772
 20
40.84294147616608
 30
0.0
  0
VERTEX
  5
1FF
  8
LAYER_1
 10
58.41151726886505
 20
40.85948829656799
 30
0.0
  0
VERTEX
  5
200
  8
LAYER_1
 10
58.41565290937839
 20
40.87618330335411
 30
0.0
  0
VERTEX
  5
201
  8
LAYER_1
 10
58.41941649100458
 20
40.8930219007613
 30
0.0
  0
VERTEX
  5
202
  8
LAYER_1
 10
58.42280341798045
 20
40.90999949302638
 30
0.0
  0
VERTEX
  5
203
  8
LAYER_1
 10
58.42580909454281
 20
40.92711148438615
 30
0.0
  0
VERTEX
  5
204
  8
LAYER_1
 10
58.4284289249285
 20
40.94435327907745
 30
0.0
  0
VERTEX
  5
205
  8
LAYER_1
 10
58.43065831337432
 20
40.96172028133712
 30
0.0
  0
VERTEX
  5
206
  8
LAYER_1
 10
58.43249266411711
 20
40.97920789540196
 30
0.0
  0
VERTEX
  5
207
  8
LAYER_1
 10
58.4339273813937
 20
40.99681152550882
 30
0.0
  0
VERTEX
  5
208
  8
LAYER_1
 10
58.43495786944091
 20
41.01452657589449
 30
0.0
  0
VERTEX
  5
209
  8
LAYER_1
 10
58.43557953249556
 20
41.03234845079584
 30
0.0
  0
VERTEX
  5
20A
  8
LAYER_1
 10
58.43578777479448
 20
41.05027255444966
 30
0.0
  0
VERTEX
  5
20B
  8
LAYER_1
 10
58.43557560600322
 20
41.06836193077314
 30
0.0
  0
VERTEX
  5
20C
  8
LAYER_1
 10
58.43494224343954
 20
41.08634758950316
 30
0.0
  0
VERTEX
  5
20D
  8
LAYER_1
 10
58.43389240281867
 20
41.10422478590813
 30
0.0
  0
VERTEX
  5
20E
  8
LAYER_1
 10
58.43243079985583
 20
41.12198877525647
 30
0.0
  0
VERTEX
  5
20F
  8
LAYER_1
 10
58.43056215026623
 20
41.13963481281659
 30
0.0
  0
VERTEX
  5
210
  8
LAYER_1
 10
58.4282911697651
 20
41.15715815385688
 30
0.0
  0
VERTEX
  5
211
  8
LAYER_1
 10
58.42562257406766
 20
41.17455405364578
 30
0.0
  0
VERTEX
  5
212
  8
LAYER_1
 10
58.42256107888913
 20
41.19181776745168
 30
0.0
  0
VERTEX
  5
213
  8
LAYER_1
 10
58.41911139994473
 20
41.20894455054299
 30
0.0
  0
VERTEX
  5
214
  8
LAYER_1
 10
58.41527825294968
 20
41.22592965818814
 30
0.0
  0
VERTEX
  5
215
  8
LAYER_1
 10
58.4110663536192
 20
41.24276834565551
 30
0.0
  0
VERTEX
  5
216
  8
LAYER_1
 10
58.40648041766852
 20
41.25945586821354
 30
0.0
  0
VERTEX
  5
217
  8
LAYER_1
 10
58.40152516081285
 20
41.27598748113061
 30
0.0
  0
VERTEX
  5
218
  8
LAYER_1
 10
58.39620529876741
 20
41.29235843967516
 30
0.0
  0
VERTEX
  5
219
  8
LAYER_1
 10
58.39052554724744
 20
41.30856399911558
 30
0.0
  0
VERTEX
  5
21A
  8
LAYER_1
 10
58.38449062196813
 20
41.32459941472028
 30
0.0
  0
VERTEX
  5
21B
  8
LAYER_1
 10
58.37810523864471
 20
41.34045994175768
 30
0.0
  0
VERTEX
  5
21C
  8
LAYER_1
 10
58.37137411299241
 20
41.35614083549619
 30
0.0
  0
VERTEX
  5
21D
  8
LAYER_1
 10
58.36430196072646
 20
41.37163735120421
 30
0.0
  0
VERTEX
  5
21E
  8
LAYER_1
 10
58.35689349756206
 20
41.38694474415016
 30
0.0
  0
VERTEX
  5
21F
  8
LAYER_1
 10
58.34915343921443
 20
41.40205826960245
 30
0.0
  0
VERTEX
  5
220
  8
LAYER_1
 10
58.3410865013988
 20
41.41697318282948
 30
0.0
  0
VERTEX
  5
221
  8
LAYER_1
 10
58.33269739983039
 20
41.43168473909967
 30
0.0
  0
VERTEX
  5
222
  8
LAYER_1
 10
58.32399085022443
 20
41.44618819368142
 30
0.0
  0
VERTEX
  5
223
  8
LAYER_1
 10
58.31497156829612
 20
41.46047880184314
 30
0.0
  0
VERTEX
  5
224
  8
LAYER_1
 10
58.30564426976069
 20
41.47455181885326
 30
0.0
  0
VERTEX
  5
225
  8
LAYER_1
 10
58.29601367033337
 20
41.48840249998016
 30
0.0
  0
VERTEX
  5
226
  8
LAYER_1
 10
58.28608448572938
 20
41.50202610049227
 30
0.0
  0
VERTEX
  5
227
  8
LAYER_1
 10
58.27586143166393
 20
41.515417875658
 30
0.0
  0
VERTEX
  5
228
  8
LAYER_1
 10
58.26534922385223
 20
41.52857308074576
 30
0.0
  0
VERTEX
  5
229
  8
LAYER_1
 10
58.25455257800952
 20
41.54148697102396
 30
0.0
  0
VERTEX
  5
22A
  8
LAYER_1
 10
58.24347620985102
 20
41.55415480176099
 30
0.0
  0
VERTEX
  5
22B
  8
LAYER_1
 10
58.23212483509195
 20
41.56657182822529
 30
0.0
  0
VERTEX
  5
22C
  8
LAYER_1
 10
58.22050316944752
 20
41.57873330568525
 30
0.0
  0
VERTEX
  5
22D
  8
LAYER_1
 10
58.20861592863295
 20
41.59063448940929
 30
0.0
  0
VERTEX
  5
22E
  8
LAYER_1
 10
58.19646782836348
 20
41.60227063466581
 30
0.0
  0
VERTEX
  5
22F
  8
LAYER_1
 10
58.18406358435432
 20
41.61363699672324
 30
0.0
  0
VERTEX
  5
230
  8
LAYER_1
 10
58.17140791232068
 20
41.62472883084996
 30
0.0
  0
VERTEX
  5
231
  8
LAYER_1
 10
58.15850552797779
 20
41.63554139231441
 30
0.0
  0
VERTEX
  5
232
  8
LAYER_1
 10
58.14536114704089
 20
41.64606993638498
 30
0.0
  0
VERTEX
  5
233
  8
LAYER_1
 10
58.13197948522517
 20
41.65630971833008
 30
0.0
  0
VERTEX
  5
234
  8
LAYER_1
 10
58.11836525824586
 20
41.66625599341813
 30
0.0
  0
VERTEX
  5
235
  8
LAYER_1
 10
58.10452318181818
 20
41.67590401691755
 30
0.0
  0
VERTEX
  5
236
  8
LAYER_1
 10
58.09045797165735
 20
41.68524904409672
 30
0.0
  0
VERTEX
  5
237
  8
LAYER_1
 10
58.0761743434786
 20
41.69428633022408
 30
0.0
  0
VERTEX
  5
238
  8
LAYER_1
 10
58.06167701299714
 20
41.70301113056802
 30
0.0
  0
VERTEX
  5
239
  8
LAYER_1
 10
58.0469706959282
 20
41.71141870039696
 30
0.0
  0
VERTEX
  5
23A
  8
LAYER_1
 10
58.03206010798699
 20
41.7195042949793
 30
0.0
  0
VERTEX
  5
23B
  8
LAYER_1
 10
58.01694996488875
 20
41.72726316958347
 30
0.0
  0
VERTEX
  5
23C
  8
LAYER_1
 10
58.00164498234868
 20
41.73469057947786
 30
0.0
  0
VERTEX
  5
23D
  8
LAYER_1
 10
57.986149876082
 20
41.74178177993088
 30
0.0
  0
VERTEX
  5
23E
  8
LAYER_1
 10
57.97046936180395
 20
41.74853202621095
 30
0.0
  0
VERTEX
  5
23F
  8
LAYER_1
 10
57.95460815522974
 20
41.75493657358648
 30
0.0
  0
VERTEX
  5
240
  8
LAYER_1
 10
57.93857097207458
 20
41.76099067732588
 30
0.0
  0
VERTEX
  5
241
  8
LAYER_1
 10
57.9223625280537
 20
41.76668959269755
 30
0.0
  0
VERTEX
  5
242
  8
LAYER_1
 10
57.90598753888233
 20
41.77202857496991
 30
0.0
  0
VERTEX
  5
243
  8
LAYER_1
 10
57.88945072027568
 20
41.77700287941137
 30
0.0
  0
VERTEX
  5
244
  8
LAYER_1
 10
57.87275678794897
 20
41.78160776129033
 30
0.0
  0
VERTEX
  5
245
  8
LAYER_1
 10
57.85591045761743
 20
41.78583847587521
 30
0.0
  0
VERTEX
  5
246
  8
LAYER_1
 10
57.83891644499626
 20
41.78969027843441
 30
0.0
  0
VERTEX
  5
247
  8
LAYER_1
 10
57.8217794658007
 20
41.79315842423636
 30
0.0
  0
VERTEX
  5
248
  8
LAYER_1
 10
57.80450423574597
 20
41.79623816854946
 30
0.0
  0
VERTEX
  5
249
  8
LAYER_1
 10
57.78709547054728
 20
41.79892476664211
 30
0.0
  0
VERTEX
  5
24A
  8
LAYER_1
 10
57.76955788591986
 20
41.80121347378273
 30
0.0
  0
VERTEX
  5
24B
  8
LAYER_1
 10
57.76954175280179
 20
41.80107093989039
 30
0.0
  0
VERTEX
  5
24C
  8
LAYER_1
 10
55.08516073061489
 20
41.80107093989039
 30
0.0
  0
VERTEX
  5
24D
  8
LAYER_1
 10
55.08514305797861
 20
41.80121995662575
 30
0.0
  0
VERTEX
  5
24E
  8
LAYER_1
 10
55.067616364947
 20
41.79893353006345
 30
0.0
  0
VERTEX
  5
24F
  8
LAYER_1
 10
55.05021779142783
 20
41.79624938635224
 30
0.0
  0
VERTEX
  5
250
  8
LAYER_1
 10
55.03295207004532
 20
41.79317225811636
 30
0.0
  0
VERTEX
  5
251
  8
LAYER_1
 10
55.0158239334237
 20
41.78970687798
 30
0.0
  0
VERTEX
  5
252
  8
LAYER_1
 10
54.99883811418718
 20
41.78585797856739
 30
0.0
  0
VERTEX
  5
253
  8
LAYER_1
 10
54.98199934495999
 20
41.78163029250275
 30
0.0
  0
VERTEX
  5
254
  8
LAYER_1
 10
54.96531235836634
 20
41.77702855241031
 30
0.0
  0
VERTEX
  5
255
  8
LAYER_1
 10
54.94878188703045
 20
41.77205749091426
 30
0.0
  0
VERTEX
  5
256
  8
LAYER_1
 10
54.93241266357654
 20
41.76672184063885
 30
0.0
  0
VERTEX
  5
257
  8
LAYER_1
 10
54.91620942062883
 20
41.76102633420827
 30
0.0
  0
VERTEX
  5
258
  8
LAYER_1
 10
54.90017689081154
 20
41.75497570424676
 30
0.0
  0
VERTEX
  5
259
  8
LAYER_1
 10
54.88431980674887
 20
41.74857468337854
 30
0.0
  0
VERTEX
  5
25A
  8
LAYER_1
 10
54.86864290106506
 20
41.74182800422781
 30
0.0
  0
VERTEX
  5
25B
  8
LAYER_1
 10
54.85315090638433
 20
41.7347403994188
 30
0.0
  0
VERTEX
  5
25C
  8
LAYER_1
 10
54.83784855533088
 20
41.72731660157573
 30
0.0
  0
VERTEX
  5
25D
  8
LAYER_1
 10
54.82274058052894
 20
41.71956134332281
 30
0.0
  0
VERTEX
  5
25E
  8
LAYER_1
 10
54.80783171460273
 20
41.71147935728426
 30
0.0
  0
VERTEX
  5
25F
  8
LAYER_1
 10
54.79312669017646
 20
41.70307537608431
 30
0.0
  0
VERTEX
  5
260
  8
LAYER_1
 10
54.77863023987436
 20
41.69435413234717
 30
0.0
  0
VERTEX
  5
261
  8
LAYER_1
 10
54.76434709632065
 20
41.68532035869706
 30
0.0
  0
VERTEX
  5
262
  8
LAYER_1
 10
54.75028199213953
 20
41.6759787877582
 30
0.0
  0
VERTEX
  5
263
  8
LAYER_1
 10
54.73643965995524
 20
41.6663341521548
 30
0.0
  0
VERTEX
  5
264
  8
LAYER_1
 10
54.72282483239199
 20
41.65639118451109
 30
0.0
  0
VERTEX
  5
265
  8
LAYER_1
 10
54.709442242074
 20
41.64615461745129
 30
0.0
  0
VERTEX
  5
266
  8
LAYER_1
 10
54.69629662162549
 20
41.6356291835996
 30
0.0
  0
VERTEX
  5
267
  8
LAYER_1
 10
54.68339270367067
 20
41.62481961558026
 30
0.0
  0
VERTEX
  5
268
  8
LAYER_1
 10
54.67073522083376
 20
41.61373064601749
 30
0.0
  0
VERTEX
  5
269
  8
LAYER_1
 10
54.65832890573899
 20
41.60236700753549
 30
0.0
  0
VERTEX
  5
26A
  8
LAYER_1
 10
54.64617849101057
 20
41.59073343275848
 30
0.0
  0
VERTEX
  5
26B
  8
LAYER_1
 10
54.63428870927271
 20
41.5788346543107
 30
0.0
  0
VERTEX
  5
26C
  8
LAYER_1
 10
54.62266429314964
 20
41.56667540481635
 30
0.0
  0
VERTEX
  5
26D
  8
LAYER_1
 10
54.61130997526558
 20
41.55426041689964
 30
0.0
  0
VERTEX
  5
26E
  8
LAYER_1
 10
54.60023048824475
 20
41.54159442318482
 30
0.0
  0
VERTEX
  5
26F
  8
LAYER_1
 10
54.58943056471136
 20
41.52868215629609
 30
0.0
  0
VERTEX
  5
270
  8
LAYER_1
 10
54.57891493728964
 20
41.51552834885766
 30
0.0
  0
VERTEX
  5
271
  8
LAYER_1
 10
54.56868833860379
 20
41.50213773349375
 30
0.0
  0
VERTEX
  5
272
  8
LAYER_1
 10
54.55875550127805
 20
41.4885150428286
 30
0.0
  0
VERTEX
  5
273
  8
LAYER_1
 10
54.54912115793663
 20
41.47466500948641
 30
0.0
  0
VERTEX
  5
274
  8
LAYER_1
 10
54.53979004120374
 20
41.4605923660914
 30
0.0
  0
VERTEX
  5
275
  8
LAYER_1
 10
54.53076688370361
 20
41.4463018452678
 30
0.0
  0
VERTEX
  5
276
  8
LAYER_1
 10
54.52205641806045
 20
41.43179817963983
 30
0.0
  0
VERTEX
  5
277
  8
LAYER_1
 10
54.51366337689849
 20
41.41708610183169
 30
0.0
  0
VERTEX
  5
278
  8
LAYER_1
 10
54.50559249284193
 20
41.4021703444676
 30
0.0
  0
VERTEX
  5
279
  8
LAYER_1
 10
54.49784849851501
 20
41.38705564017179
 30
0.0
  0
VERTEX
  5
27A
  8
LAYER_1
 10
54.49043612654194
 20
41.37174672156848
 30
0.0
  0
VERTEX
  5
27B
  8
LAYER_1
 10
54.48336010954693
 20
41.35624832128188
 30
0.0
  0
VERTEX
  5
27C
  8
LAYER_1
 10
54.47662518015421
 20
41.34056517193622
 30
0.0
  0
VERTEX
  5
27D
  8
LAYER_1
 10
54.47023607098799
 20
41.3247020061557
 30
0.0
  0
VERTEX
  5
27E
  8
LAYER_1
 10
54.46419751467251
 20
41.30866355656454
 30
0.0
  0
VERTEX
  5
27F
  8
LAYER_1
 10
54.45851424383196
 20
41.29245455578699
 30
0.0
  0
VERTEX
  5
280
  8
LAYER_1
 10
54.45319099109057
 20
41.27607973644724
 30
0.0
  0
VERTEX
  5
281
  8
LAYER_1
 10
54.44823248907255
 20
41.25954383116952
 30
0.0
  0
VERTEX
  5
282
  8
LAYER_1
 10
54.44364347040214
 20
41.24285157257805
 30
0.0
  0
VERTEX
  5
283
  8
LAYER_1
 10
54.43942866770355
 20
41.22600769329702
 30
0.0
  0
VERTEX
  5
284
  8
LAYER_1
 10
54.43559281360099
 20
41.20901692595069
 30
0.0
  0
VERTEX
  5
285
  8
LAYER_1
 10
54.43214064071868
 20
41.19188400316325
 30
0.0
  0
VERTEX
  5
286
  8
LAYER_1
 10
54.42907688168084
 20
41.17461365755894
 30
0.0
  0
VERTEX
  5
287
  8
LAYER_1
 10
54.4264062691117
 20
41.15721062176195
 30
0.0
  0
VERTEX
  5
288
  8
LAYER_1
 10
54.42413353563547
 20
41.13967962839653
 30
0.0
  0
VERTEX
  5
289
  8
LAYER_1
 10
54.42226341387637
 20
41.12202541008688
 30
0.0
  0
VERTEX
  5
28A
  8
LAYER_1
 10
54.42080063645861
 20
41.10425269945722
 30
0.0
  0
VERTEX
  5
28B
  8
LAYER_1
 10
54.41974993600641
 20
41.08636622913177
 30
0.0
  0
VERTEX
  5
28C
  8
LAYER_1
 10
54.419116045144
 20
41.06837073173476
 30
0.0
  0
VERTEX
  5
28D
  8
LAYER_1
 10
54.41890369649559
 20
41.05027093989039
 30
0.0
  0
VERTEX
  5
28E
  8
LAYER_1
 10
54.4191117065758
 20
41.03236046831756
 30
0.0
  0
VERTEX
  5
28F
  8
LAYER_1
 10
54.41973268753797
 20
41.01455147111414
 30
0.0
  0
VERTEX
  5
290
  8
LAYER_1
 10
54.42076206546444
 20
40.99684855987626
 30
0.0
  0
VERTEX
  5
291
  8
LAYER_1
 10
54.42219526643759
 20
40.97925634620003
 30
0.0
  0
VERTEX
  5
292
  8
LAYER_1
 10
54.42402771653974
 20
40.96177944168161
 30
0.0
  0
VERTEX
  5
293
  8
LAYER_1
 10
54.42625484185325
 20
40.94442245791711
 30
0.0
  0
VERTEX
  5
294
  8
LAYER_1
 10
54.42887206846045
 20
40.92719000650266
 30
0.0
  0
VERTEX
  5
295
  8
LAYER_1
 10
54.43187482244372
 20
40.91008669903439
 30
0.0
  0
VERTEX
  5
296
  8
LAYER_1
 10
54.43525852988538
 20
40.89311714710843
 30
0.0
  0
VERTEX
  5
297
  8
LAYER_1
 10
54.4390186168678
 20
40.87628596232089
 30
0.0
  0
VERTEX
  5
298
  8
LAYER_1
 10
54.44315050947331
 20
40.85959775626793
 30
0.0
  0
VERTEX
  5
299
  8
LAYER_1
 10
54.44764963378427
 20
40.84305714054567
 30
0.0
  0
VERTEX
  5
29A
  8
LAYER_1
 10
54.45251141588304
 20
40.82666872675022
 30
0.0
  0
VERTEX
  5
29B
  8
LAYER_1
 10
54.45773128185193
 20
40.81043712647773
 30
0.0
  0
VERTEX
  5
29C
  8
LAYER_1
 10
54.46330465777334
 20
40.79436695132432
 30
0.0
  0
VERTEX
  5
29D
  8
LAYER_1
 10
54.46922696972957
 20
40.77846281288612
 30
0.0
  0
VERTEX
  5
29E
  8
LAYER_1
 10
54.47549364380299
 20
40.76272932275926
 30
0.0
  0
VERTEX
  5
29F
  8
LAYER_1
 10
54.48210010607596
 20
40.74717109253984
 30
0.0
  0
VERTEX
  5
2A0
  8
LAYER_1
 10
54.48904178263081
 20
40.73179273382404
 30
0.0
  0
VERTEX
  5
2A1
  8
LAYER_1
 10
54.4963140995499
 20
40.71659885820796
 30
0.0
  0
VERTEX
  5
2A2
  8
LAYER_1
 10
54.50391248291557
 20
40.70159407728772
 30
0.0
  0
VERTEX
  5
2A3
  8
LAYER_1
 10
54.51183235881017
 20
40.68678300265947
 30
0.0
  0
VERTEX
  5
2A4
  8
LAYER_1
 10
54.52006915331605
 20
40.67217024591933
 30
0.0
  0
VERTEX
  5
2A5
  8
LAYER_1
 10
54.52861829251556
 20
40.65776041866341
 30
0.0
  0
VERTEX
  5
2A6
  8
LAYER_1
 10
54.53747520249105
 20
40.64355813248787
 30
0.0
  0
VERTEX
  5
2A7
  8
LAYER_1
 10
54.54663530932487
 20
40.62956799898882
 30
0.0
  0
VERTEX
  5
2A8
  8
LAYER_1
 10
54.55609403909936
 20
40.6157946297624
 30
0.0
  0
VERTEX
  5
2A9
  8
LAYER_1
 10
54.56584681789687
 20
40.60224263640472
 30
0.0
  0
VERTEX
  5
2AA
  8
LAYER_1
 10
54.57588907179975
 20
40.58891663051194
 30
0.0
  0
VERTEX
  5
2AB
  8
LAYER_1
 10
54.58621622689036
 20
40.57582122368015
 30
0.0
  0
VERTEX
  5
2AC
  8
LAYER_1
 10
54.59682370925103
 20
40.56296102750551
 30
0.0
  0
VERTEX
  5
2AD
  8
LAYER_1
 10
54.60770694496412
 20
40.55034065358413
 30
0.0
  0
VERTEX
  5
2AE
  8
LAYER_1
 10
54.61886136011198
 20
40.53796471351215
 30
0.0
  0
VERTEX
  5
2AF
  8
LAYER_1
 10
54.63028238077695
 20
40.52583781888569
 30
0.0
  0
VERTEX
  5
2B0
  8
LAYER_1
 10
54.64196543304138
 20
40.51396458130088
 30
0.0
  0
VERTEX
  5
2B1
  8
LAYER_1
 10
54.65390594298762
 20
40.50234961235385
 30
0.0
  0
VERTEX
  5
2B2
  8
LAYER_1
 10
54.66609933669803
 20
40.49099752364073
 30
0.0
  0
VERTEX
  5
2B3
  8
LAYER_1
 10
54.67854104025494
 20
40.47991292675765
 30
0.0
  0
VERTEX
  5
2B4
  8
LAYER_1
 10
54.69122647974071
 20
40.46910043330073
 30
0.0
  0
VERTEX
  5
2B5
  8
LAYER_1
 10
54.70415108123768
 20
40.45856465486611
 30
0.0
  0
VERTEX
  5
2B6
  8
LAYER_1
 10
54.71731027082821
 20
40.44831020304991
 30
0.0
  0
VERTEX
  5
2B7
  8
LAYER_1
 10
54.73069947459464
 20
40.43834168944827
 30
0.0
  0
VERTEX
  5
2B8
  8
LAYER_1
 10
54.74431411861931
 20
40.4286637256573
 30
0.0
  0
VERTEX
  5
2B9
  8
LAYER_1
 10
54.7581496289846
 20
40.41928092327315
 30
0.0
  0
VERTEX
  5
2BA
  8
LAYER_1
 10
54.77220143177283
 20
40.41019789389194
 30
0.0
  0
VERTEX
  5
2BB
  8
LAYER_1
 10
54.78646495306634
 20
40.40141924910979
 30
0.0
  0
VERTEX
  5
2BC
  8
LAYER_1
 10
54.80093561894751
 20
40.39294960052283
 30
0.0
  0
VERTEX
  5
2BD
  8
LAYER_1
 10
54.81560885549867
 20
40.3847935597272
 30
0.0
  0
VERTEX
  5
2BE
  8
LAYER_1
 10
54.83048008880217
 20
40.37695573831902
 30
0.0
  0
VERTEX
  5
2BF
  8
LAYER_1
 10
54.84554474494036
 20
40.36944074789442
 30
0.0
  0
VERTEX
  5
2C0
  8
LAYER_1
 10
54.86079824999559
 20
40.36225320004954
 30
0.0
  0
VERTEX
  5
2C1
  8
LAYER_1
 10
54.87623603005021
 20
40.35539770638048
 30
0.0
  0
VERTEX
  5
2C2
  8
LAYER_1
 10
54.89185351118656
 20
40.3488788784834
 30
0.0
  0
VERTEX
  5
2C3
  8
LAYER_1
 10
54.90764611948699
 20
40.34270132795441
 30
0.0
  0
VERTEX
  5
2C4
  8
LAYER_1
 10
54.92360928103386
 20
40.33686966638965
 30
0.0
  0
VERTEX
  5
2C5
  8
LAYER_1
 10
54.9397384219095
 20
40.33138850538523
 30
0.0
  0
VERTEX
  5
2C6
  8
LAYER_1
 10
54.95602896819628
 20
40.32626245653731
 30
0.0
  0
VERTEX
  5
2C7
  8
LAYER_1
 10
54.97247634597653
 20
40.32149613144198
 30
0.0
  0
VERTEX
  5
2C8
  8
LAYER_1
 10
54.98907598133262
 20
40.3170941416954
 30
0.0
  0
VERTEX
  5
2C9
  8
LAYER_1
 10
55.00582330034687
 20
40.31306109889368
 30
0.0
  0
VERTEX
  5
2CA
  8
LAYER_1
 10
55.02271372910164
 20
40.30940161463296
 30
0.0
  0
VERTEX
  5
2CB
  8
LAYER_1
 10
55.0397426936793
 20
40.30612030050937
 30
0.0
  0
VERTEX
  5
2CC
  8
LAYER_1
 10
55.05690562016217
 20
40.30322176811903
 30
0.0
  0
VERTEX
  5
2CD
  8
LAYER_1
 10
55.07419793463261
 20
40.30071062905807
 30
0.0
  0
VERTEX
  5
2CE
  8
LAYER_1
 10
55.07422252197179
 20
40.30088477089661
 30
0.0
  0
VERTEX
  5
2CF
  8
LAYER_1
 10
55.07424790821847
 20
40.30107093989039
 30
0.0
  0
VERTEX
  5
2D0
  8
LAYER_1
 10
57.78043255093437
 20
40.30107093989039
 30
0.0
  0
VERTEX
  5
2D1
  8
LAYER_1
 10
57.78045763554495
 20
40.30087978306474
 30
0.0
  0
SEQEND
  5
3FF
  8
LAYER_1
  0
POLYLINE
  5
7E
  8
LAYER_1
 66
     1
 10
0.0
 20
0.0
 30
0.0
 70
     1
  0
VERTEX
  5
2D2
  8
LAYER_1
 10
57.7753113090067
 20
44.53420943744297
 30
0.0
  0
VERTEX
  5
2D3
  8
LAYER_1
 10
57.7925895334359
 20
44.53671760420974
 30
0.0
  0
VERTEX
  5
2D4
  8
LAYER_1
 10
57.80973927442621
 20
44.53961293704584
 30
0.0
  0
VERTEX
  5
2D5
  8
LAYER_1
 10
57.82675593621447
 20
44.54289084018809
 30
0.0
  0
VERTEX
  5
2D6
  8
LAYER_1
 10
57.84363492303748
 20
44.54654671787331
 30
0.0
  0
VERTEX
  5
2D7
  8
LAYER_1
 10
57.86037163913211
 20
44.55057597433834
 30
0.0
  0
VERTEX
  5
2D8
  8
LAYER_1
 10
57.87696148873514
 20
44.55497401382001
 30
0.0
  0
VERTEX
  5
2D9
  8
LAYER_1
 10
57.89339987608342
 20
44.55973624055514
 30
0.0
  0
VERTEX
  5
2DA
  8
LAYER_1
 10
57.90968220541377
 20
44.56485805878054
 30
0.0
  0
VERTEX
  5
2DB
  8
LAYER_1
 10
57.92580388096302
 20
44.57033487273306
 30
0.0
  0
VERTEX
  5
2DC
  8
LAYER_1
 10
57.94176030696796
 20
44.57616208664949
 30
0.0
  0
VERTEX
  5
2DD
  8
LAYER_1
 10
57.95754688766547
 20
44.58233510476667
 30
0.0
  0
VERTEX
  5
2DE
  8
LAYER_1
 10
57.97315902729234
 20
44.58884933132144
 30
0.0
  0
VERTEX
  5
2DF
  8
LAYER_1
 10
57.9885921300854
 20
44.59570017055061
 30
0.0
  0
VERTEX
  5
2E0
  8
LAYER_1
 10
58.00384160028149
 20
44.60288302669102
 30
0.0
  0
VERTEX
  5
2E1
  8
LAYER_1
 10
58.01890284211741
 20
44.61039330397949
 30
0.0
  0
VERTEX
  5
2E2
  8
LAYER_1
 10
58.03377125983
 20
44.61822640665282
 30
0.0
  0
VERTEX
  5
2E3
  8
LAYER_1
 10
58.04844225765609
 20
44.62637773894787
 30
0.0
  0
VERTEX
  5
2E4
  8
LAYER_1
 10
58.0629112398325
 20
44.63484270510145
 30
0.0
  0
VERTEX
  5
2E5
  8
LAYER_1
 10
58.07717361059605
 20
44.64361670935038
 30
0.0
  0
VERTEX
  5
2E6
  8
LAYER_1
 10
58.09122477418357
 20
44.65269515593148
 30
0.0
  0
VERTEX
  5
2E7
  8
LAYER_1
 10
58.10506013483189
 20
44.6620734490816
 30
0.0
  0
VERTEX
  5
2E8
  8
LAYER_1
 10
58.11867509677782
 20
44.67174699303755
 30
0.0
  0
VERTEX
  5
2E9
  8
LAYER_1
 10
58.1320650642582
 20
44.68171119203615
 30
0.0
  0
VERTEX
  5
2EA
  8
LAYER_1
 10
58.14522544150984
 20
44.69196145031424
 30
0.0
  0
VERTEX
  5
2EB
  8
LAYER_1
 10
58.15815163276959
 20
44.70249317210862
 30
0.0
  0
VERTEX
  5
2EC
  8
LAYER_1
 10
58.17083904227425
 20
44.71330176165614
 30
0.0
  0
VERTEX
  5
2ED
  8
LAYER_1
 10
58.18328307426065
 20
44.72438262319361
 30
0.0
  0
VERTEX
  5
2EE
  8
LAYER_1
 10
58.19547913296562
 20
44.73573116095787
 30
0.0
  0
VERTEX
  5
2EF
  8
LAYER_1
 10
58.20742262262598
 20
44.74734277918573
 30
0.0
  0
VERTEX
  5
2F0
  8
LAYER_1
 10
58.21910894747856
 20
44.75921288211402
 30
0.0
  0
VERTEX
  5
2F1
  8
LAYER_1
 10
58.23053351176019
 20
44.77133687397956
 30
0.0
  0
VERTEX
  5
2F2
  8
LAYER_1
 10
58.24169171970769
 20
44.78371015901919
 30
0.0
  0
VERTEX
  5
2F3
  8
LAYER_1
 10
58.25257897555788
 20
44.79632814146973
 30
0.0
  0
VERTEX
  5
2F4
  8
LAYER_1
 10
58.26319068354759
 20
44.80918622556799
 30
0.0
  0
VERTEX
  5
2F5
  8
LAYER_1
 10
58.27352224791365
 20
44.82227981555081
 30
0.0
  0
VERTEX
  5
2F6
  8
LAYER_1
 10
58.28356907289287
 20
44.83560431565501
 30
0.0
  0
VERTEX
  5
2F7
  8
LAYER_1
 10
58.29332656272209
 20
44.84915513011742
 30
0.0
  0
VERTEX
  5
2F8
  8
LAYER_1
 10
58.30279012163812
 20
44.86292766317485
 30
0.0
  0
VERTEX
  5
2F9
  8
LAYER_1
 10
58.3119551538778
 20
44.87691731906413
 30
0.0
  0
VERTEX
  5
2FA
  8
LAYER_1
 10
58.32081706367795
 20
44.89111950202211
 30
0.0
  0
VERTEX
  5
2FB
  8
LAYER_1
 10
58.32937125527539
 20
44.90552961628559
 30
0.0
  0
VERTEX
  5
2FC
  8
LAYER_1
 10
58.33761313290696
 20
44.9201430660914
 30
0.0
  0
VERTEX
  5
2FD
  8
LAYER_1
 10
58.34553810080946
 20
44.93495525567636
 30
0.0
  0
VERTEX
  5
2FE
  8
LAYER_1
 10
58.35314156321974
 20
44.94996158927731
 30
0.0
  0
VERTEX
  5
2FF
  8
LAYER_1
 10
58.36041892437461
 20
44.96515747113106
 30
0.0
  0
VERTEX
  5
300
  8
LAYER_1
 10
58.36736558851091
 20
44.98053830547444
 30
0.0
  0
VERTEX
  5
301
  8
LAYER_1
 10
58.37397695986544
 20
44.99609949654428
 30
0.0
  0
VERTEX
  5
302
  8
LAYER_1
 10
58.38024844267505
 20
45.0118364485774
 30
0.0
  0
VERTEX
  5
303
  8
LAYER_1
 10
58.38617544117656
 20
45.02774456581062
 30
0.0
  0
VERTEX
  5
304
  8
LAYER_1
 10
58.39175335960678
 20
45.04381925248078
 30
0.0
  0
VERTEX
  5
305
  8
LAYER_1
 10
58.39697760220255
 20
45.06005591282469
 30
0.0
  0
VERTEX
  5
306
  8
LAYER_1
 10
58.40184357320068
 20
45.07644995107919
 30
0.0
  0
VERTEX
  5
307
  8
LAYER_1
 10
58.40634667683801
 20
45.0929967714811
 30
0.0
  0
VERTEX
  5
308
  8
LAYER_1
 10
58.41048231735135
 20
45.10969177826722
 30
0.0
  0
VERTEX
  5
309
  8
LAYER_1
 10
58.41424589897754
 20
45.12653037567441
 30
0.0
  0
VERTEX
  5
30A
  8
LAYER_1
 10
58.41763282595341
 20
45.14350796793948
 30
0.0
  0
VERTEX
  5
30B
  8
LAYER_1
 10
58.42063850251577
 20
45.16061995929925
 30
0.0
  0
VERTEX
  5
30C
  8
LAYER_1
 10
58.42325833290145
 20
45.17786175399056
 30
0.0
  0
VERTEX
  5
30D
  8
LAYER_1
 10
58.42548772134728
 20
45.19522875625022
 30
0.0
  0
VERTEX
  5
30E
  8
LAYER_1
 10
58.42732207209006
 20
45.21271637031507
 30
0.0
  0
VERTEX
  5
30F
  8
LAYER_1
 10
58.42875678936666
 20
45.23032000042193
 30
0.0
  0
VERTEX
  5
310
  8
LAYER_1
 10
58.42978727741387
 20
45.2480350508076
 30
0.0
  0
VERTEX
  5
311
  8
LAYER_1
 10
58.43040894046852
 20
45.26585692570895
 30
0.0
  0
VERTEX
  5
312
  8
LAYER_1
 10
58.43061718276744
 20
45.28378102936276
 30
0.0
  0
VERTEX
  5
313
  8
LAYER_1
 10
58.43040501397618
 20
45.30187040568624
 30
0.0
  0
VERTEX
  5
314
  8
LAYER_1
 10
58.4297716514125
 20
45.31985606441626
 30
0.0
  0
VERTEX
  5
315
  8
LAYER_1
 10
58.42872181079163
 20
45.33773326082124
 30
0.0
  0
VERTEX
  5
316
  8
LAYER_1
 10
58.42726020782879
 20
45.35549725016958
 30
0.0
  0
VERTEX
  5
317
  8
LAYER_1
 10
58.42539155823919
 20
45.3731432877297
 30
0.0
  0
VERTEX
  5
318
  8
LAYER_1
 10
58.42312057773806
 20
45.39066662876999
 30
0.0
  0
VERTEX
  5
319
  8
LAYER_1
 10
58.42045198204062
 20
45.40806252855889
 30
0.0
  0
VERTEX
  5
31A
  8
LAYER_1
 10
58.41739048686209
 20
45.42532624236479
 30
0.0
  0
VERTEX
  5
31B
  8
LAYER_1
 10
58.41394080791769
 20
45.4424530254561
 30
0.0
  0
VERTEX
  5
31C
  8
LAYER_1
 10
58.41010766092263
 20
45.45943813310124
 30
0.0
  0
VERTEX
  5
31D
  8
LAYER_1
 10
58.40589576159216
 20
45.47627682056861
 30
0.0
  0
VERTEX
  5
31E
  8
LAYER_1
 10
58.40130982564148
 20
45.49296434312664
 30
0.0
  0
VERTEX
  5
31F
  8
LAYER_1
 10
58.39635456878581
 20
45.50949595604372
 30
0.0
  0
VERTEX
  5
320
  8
LAYER_1
 10
58.39103470674037
 20
45.52586691458826
 30
0.0
  0
VERTEX
  5
321
  8
LAYER_1
 10
58.38535495522039
 20
45.54207247402869
 30
0.0
  0
VERTEX
  5
322
  8
LAYER_1
 10
58.37932002994108
 20
45.55810788963339
 30
0.0
  0
VERTEX
  5
323
  8
LAYER_1
 10
58.37293464661767
 20
45.57396841667079
 30
0.0
  0
VERTEX
  5
324
  8
LAYER_1
 10
58.36620352096537
 20
45.5896493104093
 30
0.0
  0
VERTEX
  5
325
  8
LAYER_1
 10
58.35913136869942
 20
45.60514582611732
 30
0.0
  0
VERTEX
  5
326
  8
LAYER_1
 10
58.35172290553501
 20
45.62045321906327
 30
0.0
  0
VERTEX
  5
327
  8
LAYER_1
 10
58.34398284718738
 20
45.63556674451556
 30
0.0
  0
VERTEX
  5
328
  8
LAYER_1
 10
58.33591590937176
 20
45.65048165774259
 30
0.0
  0
VERTEX
  5
329
  8
LAYER_1
 10
58.32752680780335
 20
45.66519321401277
 30
0.0
  0
VERTEX
  5
32A
  8
LAYER_1
 10
58.31882025819739
 20
45.67969666859452
 30
0.0
  0
VERTEX
  5
32B
  8
LAYER_1
 10
58.30980097626909
 20
45.69398727675625
 30
0.0
  0
VERTEX
  5
32C
  8
LAYER_1
 10
58.30047367773366
 20
45.70806029376637
 30
0.0
  0
VERTEX
  5
32D
  8
LAYER_1
 10
58.29084307830634
 20
45.72191097489327
 30
0.0
  0
VERTEX
  5
32E
  8
LAYER_1
 10
58.28091389370234
 20
45.73553457540538
 30
0.0
  0
VERTEX
  5
32F
  8
LAYER_1
 10
58.27069083963688
 20
45.74892635057111
 30
0.0
  0
VERTEX
  5
330
  8
LAYER_1
 10
58.26017863182519
 20
45.76208155565887
 30
0.0
  0
VERTEX
  5
331
  8
LAYER_1
 10
58.24938198598249
 20
45.77499544593707
 30
0.0
  0
VERTEX
  5
332
  8
LAYER_1
 10
58.23830561782399
 20
45.7876632766741
 30
0.0
  0
VERTEX
  5
333
  8
LAYER_1
 10
58.22695424306492
 20
45.80008030313839
 30
0.0
  0
VERTEX
  5
334
  8
LAYER_1
 10
58.21533257742049
 20
45.81224178059836
 30
0.0
  0
VERTEX
  5
335
  8
LAYER_1
 10
58.20344533660592
 20
45.8241429643224
 30
0.0
  0
VERTEX
  5
336
  8
LAYER_1
 10
58.19129723633645
 20
45.83577910957892
 30
0.0
  0
VERTEX
  5
337
  8
LAYER_1
 10
58.17889299232729
 20
45.84714547163635
 30
0.0
  0
VERTEX
  5
338
  8
LAYER_1
 10
58.16623732029366
 20
45.85823730576307
 30
0.0
  0
VERTEX
  5
339
  8
LAYER_1
 10
58.15333493595077
 20
45.86904986722752
 30
0.0
  0
VERTEX
  5
33A
  8
LAYER_1
 10
58.14019055501386
 20
45.87957841129808
 30
0.0
  0
VERTEX
  5
33B
  8
LAYER_1
 10
58.12680889319814
 20
45.88981819324319
 30
0.0
  0
VERTEX
  5
33C
  8
LAYER_1
 10
58.11319466621883
 20
45.89976446833124
 30
0.0
  0
VERTEX
  5
33D
  8
LAYER_1
 10
58.09935258979115
 20
45.90941249183066
 30
0.0
  0
VERTEX
  5
33E
  8
LAYER_1
 10
58.08528737963033
 20
45.91875751900983
 30
0.0
  0
VERTEX
  5
33F
  8
LAYER_1
 10
58.07100375145158
 20
45.92779480513719
 30
0.0
  0
VERTEX
  5
340
  8
LAYER_1
 10
58.05650642097013
 20
45.93651960548113
 30
0.0
  0
VERTEX
  5
341
  8
LAYER_1
 10
58.04180010390119
 20
45.94492717531007
 30
0.0
  0
VERTEX
  5
342
  8
LAYER_1
 10
58.02688951595998
 20
45.95301276989241
 30
0.0
  0
VERTEX
  5
343
  8
LAYER_1
 10
58.01177937286173
 20
45.96077164449657
 30
0.0
  0
VERTEX
  5
344
  8
LAYER_1
 10
57.99647439032166
 20
45.96819905439096
 30
0.0
  0
VERTEX
  5
345
  8
LAYER_1
 10
57.98097928405498
 20
45.97529025484399
 30
0.0
  0
VERTEX
  5
346
  8
LAYER_1
 10
57.96529876977693
 20
45.98204050112406
 30
0.0
  0
VERTEX
  5
347
  8
LAYER_1
 10
57.94943756320271
 20
45.98844504849959
 30
0.0
  0
VERTEX
  5
348
  8
LAYER_1
 10
57.93340038004757
 20
45.99449915223899
 30
0.0
  0
VERTEX
  5
349
  8
LAYER_1
 10
57.91719193602669
 20
46.00019806761065
 30
0.0
  0
VERTEX
  5
34A
  8
LAYER_1
 10
57.90081694685531
 20
46.00553704988302
 30
0.0
  0
VERTEX
  5
34B
  8
LAYER_1
 10
57.88428012824865
 20
46.01051135432448
 30
0.0
  0
VERTEX
  5
34C
  8
LAYER_1
 10
57.86758619592194
 20
46.01511623620344
 30
0.0
  0
VERTEX
  5
34D
  8
LAYER_1
 10
57.8507398655904
 20
46.01934695078832
 30
0.0
  0
VERTEX
  5
34E
  8
LAYER_1
 10
57.83374585296923
 20
46.02319875334752
 30
0.0
  0
VERTEX
  5
34F
  8
LAYER_1
 10
57.81660887377367
 20
46.02666689914947
 30
0.0
  0
VERTEX
  5
350
  8
LAYER_1
 10
57.79933364371895
 20
46.02974664346257
 30
0.0
  0
VERTEX
  5
351
  8
LAYER_1
 10
57.78192487852026
 20
46.03243324155522
 30
0.0
  0
VERTEX
  5
352
  8
LAYER_1
 10
57.76438729389284
 20
46.03472194869584
 30
0.0
  0
VERTEX
  5
353
  8
LAYER_1
 10
57.76437116077477
 20
46.0345794148035
 30
0.0
  0
VERTEX
  5
354
  8
LAYER_1
 10
55.07999013858793
 20
46.0345794148035
 30
0.0
  0
VERTEX
  5
355
  8
LAYER_1
 10
55.07997246595166
 20
46.03472843153885
 30
0.0
  0
VERTEX
  5
356
  8
LAYER_1
 10
55.06244577292004
 20
46.03244200497656
 30
0.0
  0
VERTEX
  5
357
  8
LAYER_1
 10
55.04504719940087
 20
46.02975786126535
 30
0.0
  0
VERTEX
  5
358
  8
LAYER_1
 10
55.02778147801836
 20
46.02668073302947
 30
0.0
  0
VERTEX
  5
359
  8
LAYER_1
 10
55.01065334139674
 20
46.0232153528931
 30
0.0
  0
VERTEX
  5
35A
  8
LAYER_1
 10
54.99366752216022
 20
46.0193664534805
 30
0.0
  0
VERTEX
  5
35B
  8
LAYER_1
 10
54.97682875293303
 20
46.01513876741586
 30
0.0
  0
VERTEX
  5
35C
  8
LAYER_1
 10
54.96014176633938
 20
46.01053702732342
 30
0.0
  0
VERTEX
  5
35D
  8
LAYER_1
 10
54.94361129500349
 20
46.00556596582737
 30
0.0
  0
VERTEX
  5
35E
  8
LAYER_1
 10
54.92724207154959
 20
46.00023031555196
 30
0.0
  0
VERTEX
  5
35F
  8
LAYER_1
 10
54.91103882860187
 20
45.99453480912138
 30
0.0
  0
VERTEX
  5
360
  8
LAYER_1
 10
54.89500629878458
 20
45.98848417915987
 30
0.0
  0
VERTEX
  5
361
  8
LAYER_1
 10
54.87914921472191
 20
45.98208315829164
 30
0.0
  0
VERTEX
  5
362
  8
LAYER_1
 10
54.8634723090381
 20
45.97533647914092
 30
0.0
  0
VERTEX
  5
363
  8
LAYER_1
 10
54.84798031435737
 20
45.96824887433191
 30
0.0
  0
VERTEX
  5
364
  8
LAYER_1
 10
54.83267796330392
 20
45.96082507648884
 30
0.0
  0
VERTEX
  5
365
  8
LAYER_1
 10
54.81756998850198
 20
45.95306981823592
 30
0.0
  0
VERTEX
  5
366
  8
LAYER_1
 10
54.80266112257577
 20
45.94498783219737
 30
0.0
  0
VERTEX
  5
367
  8
LAYER_1
 10
54.78795609814951
 20
45.93658385099742
 30
0.0
  0
VERTEX
  5
368
  8
LAYER_1
 10
54.7734596478474
 20
45.92786260726028
 30
0.0
  0
VERTEX
  5
369
  8
LAYER_1
 10
54.75917650429369
 20
45.91882883361018
 30
0.0
  0
VERTEX
  5
36A
  8
LAYER_1
 10
54.74511140011258
 20
45.90948726267132
 30
0.0
  0
VERTEX
  5
36B
  8
LAYER_1
 10
54.73126906792829
 20
45.89984262706793
 30
0.0
  0
VERTEX
  5
36C
  8
LAYER_1
 10
54.71765424036504
 20
45.88989965942422
 30
0.0
  0
VERTEX
  5
36D
  8
LAYER_1
 10
54.70427165004705
 20
45.8796630923644
 30
0.0
  0
VERTEX
  5
36E
  8
LAYER_1
 10
54.69112602959854
 20
45.86913765851271
 30
0.0
  0
VERTEX
  5
36F
  8
LAYER_1
 10
54.67822211164371
 20
45.85832809049337
 30
0.0
  0
VERTEX
  5
370
  8
LAYER_1
 10
54.66556462880681
 20
45.8472391209306
 30
0.0
  0
VERTEX
  5
371
  8
LAYER_1
 10
54.65315831371203
 20
45.8358754824486
 30
0.0
  0
VERTEX
  5
372
  8
LAYER_1
 10
54.64100789898361
 20
45.8242419076716
 30
0.0
  0
VERTEX
  5
373
  8
LAYER_1
 10
54.62911811724575
 20
45.81234312922381
 30
0.0
  0
VERTEX
  5
374
  8
LAYER_1
 10
54.61749370112268
 20
45.80018387972946
 30
0.0
  0
VERTEX
  5
375
  8
LAYER_1
 10
54.60613938323863
 20
45.78776889181276
 30
0.0
  0
VERTEX
  5
376
  8
LAYER_1
 10
54.5950598962178
 20
45.77510289809793
 30
0.0
  0
VERTEX
  5
377
  8
LAYER_1
 10
54.58425997268442
 20
45.7621906312092
 30
0.0
  0
VERTEX
  5
378
  8
LAYER_1
 10
54.5737443452627
 20
45.74903682377078
 30
0.0
  0
VERTEX
  5
379
  8
LAYER_1
 10
54.56351774657685
 20
45.73564620840688
 30
0.0
  0
VERTEX
  5
37A
  8
LAYER_1
 10
54.5535849092511
 20
45.72202351774172
 30
0.0
  0
VERTEX
  5
37B
  8
LAYER_1
 10
54.54395056590968
 20
45.70817348439953
 30
0.0
  0
VERTEX
  5
37C
  8
LAYER_1
 10
54.53461944917679
 20
45.69410084100453
 30
0.0
  0
VERTEX
  5
37D
  8
LAYER_1
 10
54.52559629167666
 20
45.67981032018092
 30
0.0
  0
VERTEX
  5
37E
  8
LAYER_1
 10
54.51688582603349
 20
45.66530665455294
 30
0.0
  0
VERTEX
  5
37F
  8
LAYER_1
 10
54.50849278487154
 20
45.65059457674479
 30
0.0
  0
VERTEX
  5
380
  8
LAYER_1
 10
54.50042190081498
 20
45.63567881938071
 30
0.0
  0
VERTEX
  5
381
  8
LAYER_1
 10
54.49267790648807
 20
45.6205641150849
 30
0.0
  0
VERTEX
  5
382
  8
LAYER_1
 10
54.48526553451499
 20
45.60525519648159
 30
0.0
  0
VERTEX
  5
383
  8
LAYER_1
 10
54.47818951751999
 20
45.58975679619499
 30
0.0
  0
VERTEX
  5
384
  8
LAYER_1
 10
54.47145458812727
 20
45.57407364684933
 30
0.0
  0
VERTEX
  5
385
  8
LAYER_1
 10
54.46506547896105
 20
45.55821048106881
 30
0.0
  0
VERTEX
  5
386
  8
LAYER_1
 10
54.45902692264556
 20
45.54217203147766
 30
0.0
  0
VERTEX
  5
387
  8
LAYER_1
 10
54.45334365180501
 20
45.52596303070011
 30
0.0
  0
VERTEX
  5
388
  8
LAYER_1
 10
54.44802039906362
 20
45.50958821136035
 30
0.0
  0
VERTEX
  5
389
  8
LAYER_1
 10
54.44306189704561
 20
45.49305230608263
 30
0.0
  0
VERTEX
  5
38A
  8
LAYER_1
 10
54.4384728783752
 20
45.47636004749116
 30
0.0
  0
VERTEX
  5
38B
  8
LAYER_1
 10
54.4342580756766
 20
45.45951616821013
 30
0.0
  0
VERTEX
  5
38C
  8
LAYER_1
 10
54.43042222157405
 20
45.4425254008638
 30
0.0
  0
VERTEX
  5
38D
  8
LAYER_1
 10
54.42697004869174
 20
45.42539247807636
 30
0.0
  0
VERTEX
  5
38E
  8
LAYER_1
 10
54.4239062896539
 20
45.40812213247204
 30
0.0
  0
VERTEX
  5
38F
  8
LAYER_1
 10
54.42123567708476
 20
45.39071909667506
 30
0.0
  0
VERTEX
  5
390
  8
LAYER_1
 10
54.41896294360853
 20
45.37318810330964
 30
0.0
  0
VERTEX
  5
391
  8
LAYER_1
 10
54.41709282184942
 20
45.35553388499999
 30
0.0
  0
VERTEX
  5
392
  8
LAYER_1
 10
54.41563004443167
 20
45.33776117437033
 30
0.0
  0
VERTEX
  5
393
  8
LAYER_1
 10
54.41457934397947
 20
45.31987470404488
 30
0.0
  0
VERTEX
  5
394
  8
LAYER_1
 10
54.41394545311706
 20
45.30187920664787
 30
0.0
  0
VERTEX
  5
395
  8
LAYER_1
 10
54.41373310446865
 20
45.2837794148035
 30
0.0
  0
VERTEX
  5
396
  8
LAYER_1
 10
54.41394111454886
 20
45.26586894323067
 30
0.0
  0
VERTEX
  5
397
  8
LAYER_1
 10
54.41456209551103
 20
45.24805994602725
 30
0.0
  0
VERTEX
  5
398
  8
LAYER_1
 10
54.4155914734375
 20
45.23035703478936
 30
0.0
  0
VERTEX
  5
399
  8
LAYER_1
 10
54.41702467441065
 20
45.21276482111314
 30
0.0
  0
VERTEX
  5
39A
  8
LAYER_1
 10
54.4188571245128
 20
45.19528791659472
 30
0.0
  0
VERTEX
  5
39B
  8
LAYER_1
 10
54.42108424982631
 20
45.17793093283021
 30
0.0
  0
VERTEX
  5
39C
  8
LAYER_1
 10
54.42370147643351
 20
45.16069848141577
 30
0.0
  0
VERTEX
  5
39D
  8
LAYER_1
 10
54.42670423041677
 20
45.1435951739475
 30
0.0
  0
VERTEX
  5
39E
  8
LAYER_1
 10
54.43008793785844
 20
45.12662562202154
 30
0.0
  0
VERTEX
  5
39F
  8
LAYER_1
 10
54.43384802484086
 20
45.109794437234
 30
0.0
  0
VERTEX
  5
3A0
  8
LAYER_1
 10
54.43797991744637
 20
45.09310623118104
 30
0.0
  0
VERTEX
  5
3A1
  8
LAYER_1
 10
54.44247904175733
 20
45.07656561545878
 30
0.0
  0
VERTEX
  5
3A2
  8
LAYER_1
 10
54.44734082385609
 20
45.06017720166333
 30
0.0
  0
VERTEX
  5
3A3
  8
LAYER_1
 10
54.45256068982499
 20
45.04394560139084
 30
0.0
  0
VERTEX
  5
3A4
  8
LAYER_1
 10
54.45813406574639
 20
45.02787542623743
 30
0.0
  0
VERTEX
  5
3A5
  8
LAYER_1
 10
54.46405637770263
 20
45.01197128779923
 30
0.0
  0
VERTEX
  5
3A6
  8
LAYER_1
 10
54.47032305177605
 20
44.99623779767236
 30
0.0
  0
VERTEX
  5
3A7
  8
LAYER_1
 10
54.47692951404902
 20
44.98067956745295
 30
0.0
  0
VERTEX
  5
3A8
  8
LAYER_1
 10
54.48387119060386
 20
44.96530120873715
 30
0.0
  0
VERTEX
  5
3A9
  8
LAYER_1
 10
54.49114350752296
 20
44.95010733312107
 30
0.0
  0
VERTEX
  5
3AA
  8
LAYER_1
 10
54.49874189088862
 20
44.93510255220083
 30
0.0
  0
VERTEX
  5
3AB
  8
LAYER_1
 10
54.50666176678322
 20
44.92029147757258
 30
0.0
  0
VERTEX
  5
3AC
  8
LAYER_1
 10
54.51489856128911
 20
44.90567872083243
 30
0.0
  0
VERTEX
  5
3AD
  8
LAYER_1
 10
54.52344770048862
 20
44.89126889357652
 30
0.0
  0
VERTEX
  5
3AE
  8
LAYER_1
 10
54.53230461046411
 20
44.87706660740098
 30
0.0
  0
VERTEX
  5
3AF
  8
LAYER_1
 10
54.54146471729793
 20
44.86307647390193
 30
0.0
  0
VERTEX
  5
3B0
  8
LAYER_1
 10
54.55092344707242
 20
44.84930310467551
 30
0.0
  0
VERTEX
  5
3B1
  8
LAYER_1
 10
54.56067622586993
 20
44.83575111131783
 30
0.0
  0
VERTEX
  5
3B2
  8
LAYER_1
 10
54.57071847977281
 20
44.82242510542505
 30
0.0
  0
VERTEX
  5
3B3
  8
LAYER_1
 10
54.58104563486341
 20
44.80932969859326
 30
0.0
  0
VERTEX
  5
3B4
  8
LAYER_1
 10
54.59165311722409
 20
44.79646950241862
 30
0.0
  0
VERTEX
  5
3B5
  8
LAYER_1
 10
54.60253635293718
 20
44.78384912849724
 30
0.0
  0
VERTEX
  5
3B6
  8
LAYER_1
 10
54.61369076808504
 20
44.77147318842525
 30
0.0
  0
VERTEX
  5
3B7
  8
LAYER_1
 10
54.62511178875
 20
44.7593462937988
 30
0.0
  0
VERTEX
  5
3B8
  8
LAYER_1
 10
54.63679484101444
 20
44.74747305621399
 30
0.0
  0
VERTEX
  5
3B9
  8
LAYER_1
 10
54.64873535096068
 20
44.73585808726695
 30
0.0
  0
VERTEX
  5
3BA
  8
LAYER_1
 10
54.66092874467109
 20
44.72450599855384
 30
0.0
  0
VERTEX
  5
3BB
  8
LAYER_1
 10
54.673370448228
 20
44.71342140167076
 30
0.0
  0
VERTEX
  5
3BC
  8
LAYER_1
 10
54.68605588771376
 20
44.70260890821384
 30
0.0
  0
VERTEX
  5
3BD
  8
LAYER_1
 10
54.69898048921074
 20
44.69207312977922
 30
0.0
  0
VERTEX
  5
3BE
  8
LAYER_1
 10
54.71213967880126
 20
44.68181867796302
 30
0.0
  0
VERTEX
  5
3BF
  8
LAYER_1
 10
54.72552888256769
 20
44.67185016436137
 30
0.0
  0
VERTEX
  5
3C0
  8
LAYER_1
 10
54.73914352659237
 20
44.66217220057041
 30
0.0
  0
VERTEX
  5
3C1
  8
LAYER_1
 10
54.75297903695765
 20
44.65278939818626
 30
0.0
  0
VERTEX
  5
3C2
  8
LAYER_1
 10
54.76703083974587
 20
44.64370636880503
 30
0.0
  0
VERTEX
  5
3C3
  8
LAYER_1
 10
54.7812943610394
 20
44.63492772402289
 30
0.0
  0
VERTEX
  5
3C4
  8
LAYER_1
 10
54.79576502692056
 20
44.62645807543593
 30
0.0
  0
VERTEX
  5
3C5
  8
LAYER_1
 10
54.81043826347172
 20
44.61830203464029
 30
0.0
  0
VERTEX
  5
3C6
  8
LAYER_1
 10
54.82530949677521
 20
44.61046421323212
 30
0.0
  0
VERTEX
  5
3C7
  8
LAYER_1
 10
54.84037415291341
 20
44.60294922280752
 30
0.0
  0
VERTEX
  5
3C8
  8
LAYER_1
 10
54.85562765796863
 20
44.59576167496264
 30
0.0
  0
VERTEX
  5
3C9
  8
LAYER_1
 10
54.87106543802324
 20
44.58890618129359
 30
0.0
  0
VERTEX
  5
3CA
  8
LAYER_1
 10
54.88668291915959
 20
44.58238735339651
 30
0.0
  0
VERTEX
  5
3CB
  8
LAYER_1
 10
54.90247552746003
 20
44.57620980286751
 30
0.0
  0
VERTEX
  5
3CC
  8
LAYER_1
 10
54.91843868900689
 20
44.57037814130275
 30
0.0
  0
VERTEX
  5
3CD
  8
LAYER_1
 10
54.93456782988254
 20
44.56489698029834
 30
0.0
  0
VERTEX
  5
3CE
  8
LAYER_1
 10
54.95085837616932
 20
44.5597709314504
 30
0.0
  0
VERTEX
  5
3CF
  8
LAYER_1
 10
54.96730575394957
 20
44.55500460635508
 30
0.0
  0
VERTEX
  5
3D0
  8
LAYER_1
 10
54.98390538930565
 20
44.55060261660851
 30
0.0
  0
VERTEX
  5
3D1
  8
LAYER_1
 10
55.0006527083199
 20
44.54656957380679
 30
0.0
  0
VERTEX
  5
3D2
  8
LAYER_1
 10
55.01754313707468
 20
44.54291008954607
 30
0.0
  0
VERTEX
  5
3D3
  8
LAYER_1
 10
55.03457210165233
 20
44.53962877542247
 30
0.0
  0
VERTEX
  5
3D4
  8
LAYER_1
 10
55.0517350281352
 20
44.53673024303213
 30
0.0
  0
VERTEX
  5
3D5
  8
LAYER_1
 10
55.06902734260564
 20
44.53421910397117
 30
0.0
  0
VERTEX
  5
3D6
  8
LAYER_1
 10
55.06905192994483
 20
44.53439324580972
 30
0.0
  0
VERTEX
  5
3D7
  8
LAYER_1
 10
55.06907731619151
 20
44.5345794148035
 30
0.0
  0
VERTEX
  5
3D8
  8
LAYER_1
 10
57.77526195890735
 20
44.5345794148035
 30
0.0
  0
VERTEX
  5
3D9
  8
LAYER_1
 10
57.77528704351793
 20
44.53438825797785
 30
0.0
  0
SEQEND
  5
400
  8
LAYER_1
  0
POLYLINE
  5
7F
  8
LAYER_1
 66
     1
 10
0.0
 20
0.0
 30
0.0
 70
     1
  0
VERTEX
  5
3DA
  8
LAYER_1
 10
55.54219752906815
 20
36.11177073953724
 30
0.0
 42
0.4142135623730951
  0
VERTEX
  5
3DB
  8
LAYER_1
 10
55.47969752906815
 20
36.04927073953724
 30
0.0
 42
0.4142135623730951
  0
VERTEX
  5
3DC
  8
LAYER_1
 10
55.54219752906815
 20
35.98677073953724
 30
0.0
 42
0.4142135623730951
  0
VERTEX
  5
3DD
  8
LAYER_1
 10
55.60469752906815
 20
36.04927073953724
 30
0.0
 42
0.4142135623730951
  0
SEQEND
  5
401
  8
LAYER_1
  0
POLYLINE
  5
80
  8
LAYER_1
 66
     1
 10
0.0
 20
0.0
 30
0.0
 70
     1
  0
VERTEX
  5
3DE
  8
LAYER_1
 10
51.04219752906815
 20
36.11177073953724
 30
0.0
 42
0.4142135623730951
  0
VERTEX
  5
3DF
  8
LAYER_1
 10
50.97969752906815
 20
36.04927073953724
 30
0.0
 42
0.4142135623730951
  0
VERTEX
  5
3E0
  8
LAYER_1
 10
51.04219752906815
 20
35.98677073953724
 30
0.0
 42
0.4142135623730951
  0
VERTEX
  5
3E1
  8
LAYER_1
 10
51.10469752906815
 20
36.04927073953724
 30
0.0
 42
0.4142135623730951
  0
SEQEND
  5
402
  8
LAYER_1
  0
POLYLINE
  5
81
  8
LAYER_1
 66
     1
 10
0.0
 20
0.0
 30
0.0
 70
     1
  0
VERTEX
  5
3E2
  8
LAYER_1
 10
51.04219752906815
 20
36.11177073953724
 30
0.0
 42
0.4142135623730951
  0
VERTEX
  5
3E3
  8
LAYER_1
 10
50.97969752906815
 20
36.04927073953724
 30
0.0
 42
0.4142135623730951
  0
VERTEX
  5
3E4
  8
LAYER_1
 10
51.04219752906815
 20
35.98677073953724
 30
0.0
 42
0.4142135623730951
  0
VERTEX
  5
3E5
  8
LAYER_1
 10
51.10469752906815
 20
36.04927073953724
 30
0.0
 42
0.4142135623730951
  0
SEQEND
  5
403
  8
LAYER_1
  0
POLYLINE
  5
82
  8
LAYER_1
 66
     1
 10
0.0
 20
0.0
 30
0.0
 70
     1
  0
VERTEX
  5
3E6
  8
LAYER_1
 10
51.03753923041015
 20
30.23467514361805
 30
0.0
 42
0.4142135623730951
  0
VERTEX
  5
3E7
  8
LAYER_1
 10
50.97503923041015
 20
30.17217514361805
 30
0.0
 42
0.4142135623730951
  0
VERTEX
  5
3E8
  8
LAYER_1
 10
51.03753923041015
 20
30.10967514361805
 30
0.0
 42
0.4142135623730951
  0
VERTEX
  5
3E9
  8
LAYER_1
 10
51.10003923041015
 20
30.17217514361805
 30
0.0
 42
0.4142135623730951
  0
SEQEND
  5
404
  8
LAYER_1
  0
POLYLINE
  5
83
  8
LAYER_1
 66
     1
 10
0.0
 20
0.0
 30
0.0
 70
     1
  0
VERTEX
  5
3EA
  8
LAYER_1
 10
55.53753923041015
 20
30.23467514361805
 30
0.0
 42
0.4142135623730951
  0
VERTEX
  5
3EB
  8
LAYER_1
 10
55.47503923041015
 20
30.17217514361805
 30
0.0
 42
0.4142135623730951
  0
VERTEX
  5
3EC
  8
LAYER_1
 10
55.53753923041015
 20
30.10967514361805
 30
0.0
 42
0.4142135623730951
  0
VERTEX
  5
3ED
  8
LAYER_1
 10
55.60003923041015
 20
30.17217514361805
 30
0.0
 42
0.4142135623730951
  0
SEQEND
  5
405
  8
LAYER_1
  0
POLYLINE
  5
84
  8
LAYER_1
 66
     1
 10
0.0
 20
0.0
 30
0.0
 70
     1
  0
VERTEX
  5
3EE
  8
LAYER_1
 10
7.630800000000001
 20
35.7798
 30
0.0
  0
VERTEX
  5
3EF
  8
LAYER_1
 10
16.1308
 20
35.7798
 30
0.0
  0
VERTEX
  5
3F0
  8
LAYER_1
 10
16.1308
 20
38.2798
 30
0.0
  0
VERTEX
  5
3F1
  8
LAYER_1
 10
7.630800000000001
 20
38.2798
 30
0.0
  0
SEQEND
  5
406
  8
LAYER_1
  0
ENDSEC
  0
EOF
